999
dxflib 2.2.0.0
  0
SECTION
  2
HEADER
  9
$ACADVER
  1
AC1015
  9
$HANDSEED
  5
FFFF
  9
$EXTMAX
 10
420.0
 20
297.0
 30
0.0
  9
$VIEWSIZE
 40
9.0
  9
$DIMALTD
 70
2
  9
$LIMCHECK
 70
0
  9
$SNAPISOPAIR
 70
0
  9
$DIMTXT
 40
0.18
  9
$DIMALTF
 40
25.3999999999999986
  9
$VIEWCTR
 10
6.0
 20
4.5
  9
$PDMODE
 70
0
  9
$CELTYPE
  6
CONTINUOUS
  9
$DIMSHO
 70
1
  9
$DIMTAD
 70
0
  9
$FASTZOOM
 70
1
  9
$AXISUNIT
 10
0.0
 20
0.0
 30
0.0
  9
$DIMTIH
 70
1
  9
$SNAPUNIT
 10
1.0
 20
1.0
 30
0.0
  9
$SKPOLY
 70
0
  9
$REGENMODE
 70
1
  9
$DIMDLE
 40
0.0
  9
$SNAPSTYLE
 70
0
  9
$TEXTSTYLE
  7
STANDARD
  9
$AXISMODE
 70
0
  9
$SKETCHINC
 40
0.1
  9
$SNAPANG
 50
0.0
  9
$VIEWDIR
 10
0.0
 20
0.0
 30
1.0
  9
$DIMDLI
 40
0.38
  9
$TDUSRTIMER
 40
0.0
  9
$ANGBASE
 50
0.0
  9
$DIMASO
 70
1
  9
$SPLFRAME
 70
0
  9
$SNAPMODE
 70
0
  9
$USRTIMER
 70
1
  9
$DIMASZ
 40
0.18
  9
$GRIDUNIT
 10
1.0
 20
1.0
  9
$INSBASE
 10
0.0
 20
0.0
 30
0.0
  9
$SPLINESEGS
 70
10
  9
$CHAMFERA
 40
10.0
  9
$CHAMFERB
 40
10.0
  9
$QTEXTMODE
 70
0
  9
$DRAGMODE
 70
2
  9
$ATTMODE
 70
1
  9
$USERI1
 70
0
  9
$BLIPMODE
 70
1
  9
$USERI2
 70
0
  9
$AUNITS
 70
0
  9
$USERI3
 70
0
  9
$USERI4
 70
0
  9
$USERI5
 70
0
  9
$DIMALT
 70
0
  9
$DIMSTYLE
  2
Standard
  9
$DIMCEN
 40
0.09
  9
$MENU
  1
acad
  9
$TDUPDATE
 40
0.0
  9
$COORDS
 70
2
  9
$DIMTSZ
 40
0.0
  9
$PLIMMAX
 10
420.0
 20
297.0
  9
$DIMADEC
 70
0
  9
$ATTREQ
 70
1
  9
$TRACEWID
 40
0.05
  9
$DIMSE1
 70
0
  9
$PINSBASE
 10
0.0
 20
0.0
 30
0.0
  9
$DIMSE2
 70
0
  9
$USERR1
 40
0.0
  9
$ATTDIA
 70
0
  9
$USERR2
 40
0.0
  9
$ANGDIR
 70
0
  9
$USERR3
 40
0.0
  9
$USERR4
 40
0.0
  9
$GRIDMODE
 70
1
  9
$USERR5
 40
0.0
  9
$DIMLIM
 70
0
  9
$DIMAUNIT
 70
0
  9
$PLINEWID
 40
0.0
  9
$DIMLUNIT
 70
2
  9
$FILLETRAD
 40
10.0
  9
$AUPREC
 70
0
  9
$CECOLOR
 62
7
  9
$TDCREATE
 40
0.0
  9
$SNAPBASE
 10
0.0
 20
0.0
 30
0.0
  9
$DIMEXE
 40
0.18
  9
$LIMMIN
 10
-13.751322
 20
-4.592784
  9
$THICKNESS
 40
0.0
  9
$PDSIZE
 40
0.0
  9
$CLAYER
  8
TEXTE
  9
$ELEVATION
 40
0.0
  9
$DIMEXO
 40
0.0625
  9
$ORTHOMODE
 70
0
  9
$INSUNITS
 70
4
  9
$LIMMAX
 10
476.5491240000000062
 20
301.5927839999999946
  9
$DIMTM
 40
0.0
  9
$DIMRND
 40
0.0
  9
$LUNITS
 70
2
  9
$DIMTP
 40
0.0
  9
$TEXTSIZE
 40
0.2
  9
$DIMGAP
 40
0.625
  9
$OSMODE
 70
0
  9
$DIMLFAC
 40
1.0
  9
$LTSCALE
 40
0.3
  9
$FILLMODE
 70
1
  9
$DIMTOH
 70
1
  9
$DIMSCALE
 40
1.0
  9
$PLIMMIN
 10
0.0
 20
0.0
  9
$DIMTOL
 70
0
  9
$EXTMIN
 10
0.0
 20
0.0
 30
0.0
  9
$DIMZIN
 70
0
  9
$TDINDWG
 40
0.0
  9
$LUPREC
 70
4
  0
ENDSEC
  0
SECTION
  2
TABLES
  0
TABLE
  2
VPORT
  5
8
100
AcDbSymbolTable
 70
1
  0
VPORT
  5
30
100
AcDbSymbolTableRecord
100
AcDbViewportTableRecord
  2
*Active
 70
0
 10
0.0
 20
0.0
 11
1.0
 21
1.0
 12
286.3055555555554861
 22
148.5
 13
0.0
 23
0.0
 14
10.0
 24
10.0
 15
10.0
 25
10.0
 16
0.0
 26
0.0
 36
1.0
 17
0.0
 27
0.0
 37
0.0
 40
297.0
 41
1.92798353909465
 42
50.0
 43
0.0
 44
0.0
 50
0.0
 51
0.0
 71
0
 72
100
 73
1
 74
3
 75
1
 76
1
 77
0
 78
0
281
0
 65
1
110
0.0
120
0.0
130
0.0
111
1.0
121
0.0
131
0.0
112
0.0
122
1.0
132
0.0
 79
0
146
0.0
  0
ENDTAB
  0
TABLE
  2
LTYPE
  5
5
100
AcDbSymbolTable
 70
21
  0
LTYPE
  5
14
100
AcDbSymbolTableRecord
100
AcDbLinetypeTableRecord
  2
ByBlock
 70
0
  3

 72
65
 73
0
 40
0.0
  0
LTYPE
  5
15
100
AcDbSymbolTableRecord
100
AcDbLinetypeTableRecord
  2
ByLayer
 70
0
  3

 72
65
 73
0
 40
0.0
  0
LTYPE
  5
16
100
AcDbSymbolTableRecord
100
AcDbLinetypeTableRecord
  2
CONTINUOUS
 70
0
  3
Solid line
 72
65
 73
0
 40
0.0
  0
LTYPE
  5
31
100
AcDbSymbolTableRecord
100
AcDbLinetypeTableRecord
  2
DOT
 70
0
  3
Dot . . . . . . . . . . . . . . . . . . . . . .
 72
65
 73
2
 40
6.3499999999999996
 49
0.0
 74
0
 49
-6.3499999999999996
 74
0
  0
LTYPE
  5
32
100
AcDbSymbolTableRecord
100
AcDbLinetypeTableRecord
  2
DOT2
 70
0
  3
Dot (.5x) .....................................
 72
65
 73
2
 40
3.1749999999999998
 49
0.0
 74
0
 49
-3.1749999999999998
 74
0
  0
LTYPE
  5
33
100
AcDbSymbolTableRecord
100
AcDbLinetypeTableRecord
  2
DOTX2
 70
0
  3
Dot (2x) .  .  .  .  .  .  .  .  .  .  .  .  .
 72
65
 73
2
 40
12.6999999999999993
 49
0.0
 74
0
 49
-12.6999999999999993
 74
0
  0
LTYPE
  5
34
100
AcDbSymbolTableRecord
100
AcDbLinetypeTableRecord
  2
DASHED
 70
0
  3
Dashed __ __ __ __ __ __ __ __ __ __ __ __ __ _
 72
65
 73
2
 40
19.0500000000000007
 49
12.6999999999999993
 74
0
 49
-6.3499999999999996
 74
0
  0
LTYPE
  5
35
100
AcDbSymbolTableRecord
100
AcDbLinetypeTableRecord
  2
DASHED2
 70
0
  3
Dashed (.5x) _ _ _ _ _ _ _ _ _ _ _ _ _ _ _ _ _
 72
65
 73
2
 40
9.5250000000000004
 49
6.3499999999999996
 74
0
 49
-3.1749999999999998
 74
0
  0
LTYPE
  5
36
100
AcDbSymbolTableRecord
100
AcDbLinetypeTableRecord
  2
DASHEDX2
 70
0
  3
Dashed (2x) ____  ____  ____  ____  ____  ___
 72
65
 73
2
 40
38.1000000000000014
 49
25.3999999999999986
 74
0
 49
-12.6999999999999993
 74
0
  0
LTYPE
  5
37
100
AcDbSymbolTableRecord
100
AcDbLinetypeTableRecord
  2
DASHDOT
 70
0
  3
Dash dot __ . __ . __ . __ . __ . __ . __ . __
 72
65
 73
4
 40
25.3999999999999986
 49
12.6999999999999993
 74
0
 49
-6.3499999999999996
 74
0
 49
0.0
 74
0
 49
-6.3499999999999996
 74
0
  0
LTYPE
  5
38
100
AcDbSymbolTableRecord
100
AcDbLinetypeTableRecord
  2
DASHDOT2
 70
0
  3
Dash dot (.5x) _._._._._._._._._._._._._._._.
 72
65
 73
4
 40
12.6999999999999993
 49
6.3499999999999996
 74
0
 49
-3.1749999999999998
 74
0
 49
0.0
 74
0
 49
-3.1749999999999998
 74
0
  0
LTYPE
  5
39
100
AcDbSymbolTableRecord
100
AcDbLinetypeTableRecord
  2
DASHDOTX2
 70
0
  3
Dash dot (2x) ____  .  ____  .  ____  .  ___
 72
65
 73
4
 40
50.7999999999999972
 49
25.3999999999999986
 74
0
 49
-12.6999999999999993
 74
0
 49
0.0
 74
0
 49
-12.6999999999999993
 74
0
  0
LTYPE
  5
3A
100
AcDbSymbolTableRecord
100
AcDbLinetypeTableRecord
  2
DIVIDE
 70
0
  3
Divide ____ . . ____ . . ____ . . ____ . . ____
 72
65
 73
6
 40
31.75
 49
12.6999999999999993
 74
0
 49
-6.3499999999999996
 74
0
 49
0.0
 74
0
 49
-6.3499999999999996
 74
0
 49
0.0
 74
0
 49
-6.3499999999999996
 74
0
  0
LTYPE
  5
3B
100
AcDbSymbolTableRecord
100
AcDbLinetypeTableRecord
  2
DIVIDE2
 70
0
  3
Divide (.5x) __..__..__..__..__..__..__..__.._
 72
65
 73
6
 40
15.875
 49
6.3499999999999996
 74
0
 49
-3.1749999999999998
 74
0
 49
0.0
 74
0
 49
-3.1749999999999998
 74
0
 49
0.0
 74
0
 49
-3.1749999999999998
 74
0
  0
LTYPE
  5
3C
100
AcDbSymbolTableRecord
100
AcDbLinetypeTableRecord
  2
DIVIDEX2
 70
0
  3
Divide (2x) ________  .  .  ________  .  .  _
 72
65
 73
6
 40
63.5
 49
25.3999999999999986
 74
0
 49
-12.6999999999999993
 74
0
 49
0.0
 74
0
 49
-12.6999999999999993
 74
0
 49
0.0
 74
0
 49
-12.6999999999999993
 74
0
  0
LTYPE
  5
3D
100
AcDbSymbolTableRecord
100
AcDbLinetypeTableRecord
  2
CENTER
 70
0
  3
Center ____ _ ____ _ ____ _ ____ _ ____ _ ____
 72
65
 73
4
 40
50.7999999999999972
 49
31.75
 74
0
 49
-6.3499999999999996
 74
0
 49
6.3499999999999996
 74
0
 49
-6.3499999999999996
 74
0
  0
LTYPE
  5
3E
100
AcDbSymbolTableRecord
100
AcDbLinetypeTableRecord
  2
CENTER2
 70
0
  3
Center (.5x) ___ _ ___ _ ___ _ ___ _ ___ _ ___
 72
65
 73
4
 40
28.5749999999999993
 49
19.0500000000000007
 74
0
 49
-3.1749999999999998
 74
0
 49
3.1749999999999998
 74
0
 49
-3.1749999999999998
 74
0
  0
LTYPE
  5
3F
100
AcDbSymbolTableRecord
100
AcDbLinetypeTableRecord
  2
CENTERX2
 70
0
  3
Center (2x) ________  __  ________  __  _____
 72
65
 73
4
 40
101.5999999999999943
 49
63.5
 74
0
 49
-12.6999999999999993
 74
0
 49
12.6999999999999993
 74
0
 49
-12.6999999999999993
 74
0
  0
LTYPE
  5
40
100
AcDbSymbolTableRecord
100
AcDbLinetypeTableRecord
  2
BORDER
 70
0
  3
Border __ __ . __ __ . __ __ . __ __ . __ __ .
 72
65
 73
6
 40
44.4500000000000028
 49
12.6999999999999993
 74
0
 49
-6.3499999999999996
 74
0
 49
12.6999999999999993
 74
0
 49
-6.3499999999999996
 74
0
 49
0.0
 74
0
 49
-6.3499999999999996
 74
0
  0
LTYPE
  5
41
100
AcDbSymbolTableRecord
100
AcDbLinetypeTableRecord
  2
BORDER2
 70
0
  3
Border (.5x) __.__.__.__.__.__.__.__.__.__.__.
 72
65
 73
6
 40
22.2250000000000014
 49
6.3499999999999996
 74
0
 49
-3.1749999999999998
 74
0
 49
6.3499999999999996
 74
0
 49
-3.1749999999999998
 74
0
 49
0.0
 74
0
 49
-3.1749999999999998
 74
0
  0
LTYPE
  5
42
100
AcDbSymbolTableRecord
100
AcDbLinetypeTableRecord
  2
BORDERX2
 70
0
  3
Border (2x) ____  ____  .  ____  ____  .  ___
 72
65
 73
6
 40
88.9000000000000057
 49
25.3999999999999986
 74
0
 49
-12.6999999999999993
 74
0
 49
25.3999999999999986
 74
0
 49
-12.6999999999999993
 74
0
 49
0.0
 74
0
 49
-12.6999999999999993
 74
0
  0
ENDTAB
  0
TABLE
  2
LAYER
  5
2
100
AcDbSymbolTable
 70
7
  0
LAYER
  5
10
100
AcDbSymbolTableRecord
100
AcDbLayerTableRecord
  2
0
 70
0
 62
7
  6
CONTINUOUS
290
1
390
F
  0
LAYER
  5
43
100
AcDbSymbolTableRecord
100
AcDbLayerTableRecord
  2
FORT
 70
0
 62
7
  6
CONTINUOUS
290
1
370
50
390
F
  0
LAYER
  5
44
100
AcDbSymbolTableRecord
100
AcDbLayerTableRecord
  2
FIN
 70
0
 62
5
  6
CONTINUOUS
290
1
370
25
390
F
  0
LAYER
  5
45
100
AcDbSymbolTableRecord
100
AcDbLayerTableRecord
  2
TEXTE
 70
0
 62
7
  6
CONTINUOUS
290
1
370
35
390
F
  0
LAYER
  5
46
100
AcDbSymbolTableRecord
100
AcDbLayerTableRecord
  2
HACHURE
 70
0
 62
7
  6
CONTINUOUS
290
1
390
F
  0
LAYER
  5
47
100
AcDbSymbolTableRecord
100
AcDbLayerTableRecord
  2
COTE
 70
0
 62
7
  6
CONTINUOUS
290
1
390
F
  0
LAYER
  5
48
100
AcDbSymbolTableRecord
100
AcDbLayerTableRecord
  2
RENFORCE
 70
0
 62
7
  6
CONTINUOUS
290
1
370
70
390
F
  0
ENDTAB
  0
TABLE
  2
STYLE
  5
3
100
AcDbSymbolTable
 70
1
  0
STYLE
  5
11
100
AcDbSymbolTableRecord
100
AcDbTextStyleTableRecord
  2
Standard
 70
0
 40
0.0
 41
0.75
 50
0.0
 71
0
 42
2.5
  3
txt
  4

  0
ENDTAB
  0
TABLE
  2
VIEW
  5
6
100
AcDbSymbolTable
 70
0
  0
ENDTAB
  0
TABLE
  2
UCS
  5
7
100
AcDbSymbolTable
 70
0
  0
ENDTAB
  0
TABLE
  2
APPID
  5
9
100
AcDbSymbolTable
 70
1
  0
APPID
  5
12
100
AcDbSymbolTableRecord
100
AcDbRegAppTableRecord
  2
ACAD
 70
0
  0
ENDTAB
  0
TABLE
  2
DIMSTYLE
  5
A
100
AcDbSymbolTable
 70
1
100
AcDbDimStyleTable
 71
0
  0
DIMSTYLE
105
27
100
AcDbSymbolTableRecord
100
AcDbDimStyleTableRecord
  2
Standard
 41
0.18
 42
0.0625
 43
3.75
 44
0.18
 70
0
 73
0
 74
0
 77
1
 78
8
140
0.18
141
2.5
143
0.03937007874016
147
0.625
171
3
172
1
271
2
272
2
274
3
278
44
283
0
284
8
340
11
  0
ENDTAB
  0
TABLE
  2
BLOCK_RECORD
  5
1
100
AcDbSymbolTable
 70
1
  0
BLOCK_RECORD
  5
1F
100
AcDbSymbolTableRecord
100
AcDbBlockTableRecord
  2
*Model_Space
340
22
  0
BLOCK_RECORD
  5
1B
100
AcDbSymbolTableRecord
100
AcDbBlockTableRecord
  2
*Paper_Space
340
1E
  0
BLOCK_RECORD
  5
23
100
AcDbSymbolTableRecord
100
AcDbBlockTableRecord
  2
*Paper_Space0
340
26
  0
ENDTAB
  0
ENDSEC
  0
SECTION
  2
BLOCKS
  0
BLOCK
  5
20
100
AcDbEntity
  8
0
100
AcDbBlockBegin
  2
*Model_Space
 70
0
 10
0.0
 20
0.0
 30
0.0
  3
*Model_Space
  1

  0
ENDBLK
  5
21
100
AcDbEntity
  8
0
100
AcDbBlockEnd
  0
BLOCK
  5
1C
100
AcDbEntity
 67
1
  8
0
100
AcDbBlockBegin
  2
*Paper_Space
 70
0
 10
0.0
 20
0.0
 30
0.0
  3
*Paper_Space
  1

  0
ENDBLK
  5
1D
100
AcDbEntity
 67
1
  8
0
100
AcDbBlockEnd
  0
BLOCK
  5
24
100
AcDbEntity
  8
0
100
AcDbBlockBegin
  2
*Paper_Space0
 70
0
 10
0.0
 20
0.0
 30
0.0
  3
*Paper_Space0
  1

  0
ENDBLK
  5
25
100
AcDbEntity
  8
0
100
AcDbBlockEnd
  0
ENDSEC
  0
SECTION
  2
ENTITIES
  0
LINE
  5
49
100
AcDbEntity
100
AcDbLine
  8
FORT
 62
7
370
-1
  6
CONTINUOUS
 10
10.0
 20
287.0
 30
0.0
 11
410.0
 21
287.0
 31
0.0
  0
LINE
  5
4A
100
AcDbEntity
100
AcDbLine
  8
FIN
 62
5
370
-1
  6
CONTINUOUS
 10
220.0
 20
59.0
 30
0.0
 11
410.0
 21
59.0
 31
0.0
  0
LINE
  5
4B
100
AcDbEntity
100
AcDbLine
  8
FIN
 62
5
370
-1
  6
CONTINUOUS
 10
220.0
 20
68.0
 30
0.0
 11
410.0
 21
68.0
 31
0.0
  0
LINE
  5
4C
100
AcDbEntity
100
AcDbLine
  8
FORT
 62
7
370
-1
  6
CONTINUOUS
 10
220.0
 20
50.0
 30
0.0
 11
410.0
 21
50.0
 31
0.0
  0
LINE
  5
4D
100
AcDbEntity
100
AcDbLine
  8
FIN
 62
5
370
-1
  6
CONTINUOUS
 10
220.0
 20
86.0
 30
0.0
 11
410.0
 21
86.0
 31
0.0
  0
LINE
  5
4E
100
AcDbEntity
100
AcDbLine
  8
FIN
 62
5
370
-1
  6
CONTINUOUS
 10
220.0
 20
104.0
 30
0.0
 11
410.0
 21
104.0
 31
0.0
  0
LINE
  5
4F
100
AcDbEntity
100
AcDbLine
  8
FIN
 62
5
370
-1
  6
CONTINUOUS
 10
220.0
 20
122.0
 30
0.0
 11
410.0
 21
122.0
 31
0.0
  0
LINE
  5
50
100
AcDbEntity
100
AcDbLine
  8
FIN
 62
5
370
-1
  6
CONTINUOUS
 10
220.0
 20
131.0
 30
0.0
 11
410.0
 21
131.0
 31
0.0
  0
LINE
  5
51
100
AcDbEntity
100
AcDbLine
  8
FIN
 62
5
370
-1
  6
CONTINUOUS
 10
220.0
 20
140.0
 30
0.0
 11
410.0
 21
140.0
 31
0.0
  0
LINE
  5
52
100
AcDbEntity
100
AcDbLine
  8
FIN
 62
5
370
-1
  6
CONTINUOUS
 10
220.0
 20
113.0
 30
0.0
 11
410.0
 21
113.0
 31
0.0
  0
LINE
  5
53
100
AcDbEntity
100
AcDbLine
  8
FIN
 62
5
370
-1
  6
CONTINUOUS
 10
220.0
 20
149.0
 30
0.0
 11
410.0
 21
149.0
 31
0.0
  0
LINE
  5
54
100
AcDbEntity
100
AcDbLine
  8
FIN
 62
5
370
-1
  6
CONTINUOUS
 10
220.0
 20
158.0
 30
0.0
 11
410.0
 21
158.0
 31
0.0
  0
LINE
  5
55
100
AcDbEntity
100
AcDbLine
  8
FIN
 62
5
370
-1
  6
CONTINUOUS
 10
220.0
 20
176.0
 30
0.0
 11
410.0
 21
176.0
 31
0.0
  0
LINE
  5
56
100
AcDbEntity
100
AcDbLine
  8
FIN
 62
5
370
-1
  6
CONTINUOUS
 10
220.0
 20
194.0
 30
0.0
 11
410.0
 21
194.0
 31
0.0
  0
LINE
  5
57
100
AcDbEntity
100
AcDbLine
  8
FIN
 62
5
370
-1
  6
CONTINUOUS
 10
220.0
 20
203.0
 30
0.0
 11
410.0
 21
203.0
 31
0.0
  0
LINE
  5
58
100
AcDbEntity
100
AcDbLine
  8
FIN
 62
5
370
-1
  6
CONTINUOUS
 10
220.0
 20
212.0
 30
0.0
 11
410.0
 21
212.0
 31
0.0
  0
LINE
  5
59
100
AcDbEntity
100
AcDbLine
  8
FIN
 62
5
370
-1
  6
CONTINUOUS
 10
220.0
 20
230.0
 30
0.0
 11
410.0
 21
230.0
 31
0.0
  0
LINE
  5
5A
100
AcDbEntity
100
AcDbLine
  8
FIN
 62
5
370
-1
  6
CONTINUOUS
 10
220.0
 20
248.0
 30
0.0
 11
410.0
 21
248.0
 31
0.0
  0
LINE
  5
5B
100
AcDbEntity
100
AcDbLine
  8
FIN
 62
5
370
-1
  6
CONTINUOUS
 10
220.0
 20
257.0
 30
0.0
 11
410.0
 21
257.0
 31
0.0
  0
LINE
  5
5C
100
AcDbEntity
100
AcDbLine
  8
FIN
 62
5
370
-1
  6
CONTINUOUS
 10
220.0
 20
266.0
 30
0.0
 11
410.0
 21
266.0
 31
0.0
  0
LINE
  5
5D
100
AcDbEntity
100
AcDbLine
  8
FORT
 62
7
370
-1
  6
CONTINUOUS
 10
10.0
 20
10.0
 30
0.0
 11
10.0
 21
287.0
 31
0.0
  0
LINE
  5
5E
100
AcDbEntity
100
AcDbLine
  8
FORT
 62
7
370
-1
  6
CONTINUOUS
 10
20.0
 20
19.0
 30
0.0
 11
210.0
 21
19.0
 31
0.0
  0
LINE
  5
5F
100
AcDbEntity
100
AcDbLine
  8
FIN
 62
5
370
-1
  6
CONTINUOUS
 10
20.0
 20
46.0
 30
0.0
 11
210.0
 21
46.0
 31
0.0
  0
LINE
  5
60
100
AcDbEntity
100
AcDbLine
  8
FIN
 62
5
370
-1
  6
CONTINUOUS
 10
20.0
 20
37.0
 30
0.0
 11
210.0
 21
37.0
 31
0.0
  0
LINE
  5
61
100
AcDbEntity
100
AcDbLine
  8
FIN
 62
5
370
-1
  6
CONTINUOUS
 10
20.0
 20
28.0
 30
0.0
 11
210.0
 21
28.0
 31
0.0
  0
LINE
  5
62
100
AcDbEntity
100
AcDbLine
  8
FIN
 62
5
370
-1
  6
CONTINUOUS
 10
20.0
 20
91.0
 30
0.0
 11
210.0
 21
91.0
 31
0.0
  0
LINE
  5
63
100
AcDbEntity
100
AcDbLine
  8
FIN
 62
5
370
-1
  6
CONTINUOUS
 10
20.0
 20
82.0
 30
0.0
 11
210.0
 21
82.0
 31
0.0
  0
LINE
  5
64
100
AcDbEntity
100
AcDbLine
  8
FIN
 62
5
370
-1
  6
CONTINUOUS
 10
20.0
 20
64.0
 30
0.0
 11
210.0
 21
64.0
 31
0.0
  0
LINE
  5
65
100
AcDbEntity
100
AcDbLine
  8
FIN
 62
5
370
-1
  6
CONTINUOUS
 10
20.0
 20
109.0
 30
0.0
 11
210.0
 21
109.0
 31
0.0
  0
LINE
  5
66
100
AcDbEntity
100
AcDbLine
  8
FIN
 62
5
370
-1
  6
CONTINUOUS
 10
20.0
 20
127.0
 30
0.0
 11
210.0
 21
127.0
 31
0.0
  0
LINE
  5
67
100
AcDbEntity
100
AcDbLine
  8
FIN
 62
5
370
-1
  6
CONTINUOUS
 10
20.0
 20
136.0
 30
0.0
 11
210.0
 21
136.0
 31
0.0
  0
LINE
  5
68
100
AcDbEntity
100
AcDbLine
  8
FORT
 62
7
370
-1
  6
CONTINUOUS
 10
410.0
 20
41.0
 30
0.0
 11
410.0
 21
287.0
 31
0.0
  0
LINE
  5
69
100
AcDbEntity
100
AcDbLine
  8
FORT
 62
7
370
-1
  6
CONTINUOUS
 10
10.0
 20
10.0
 30
0.0
 11
220.0
 21
10.0
 31
0.0
  0
LINE
  5
6A
100
AcDbEntity
100
AcDbLine
  8
RENFORCE
 62
256
370
-1
  6
ByLayer
 10
220.0
 20
41.0
 30
0.0
 11
220.0
 21
10.0
 31
0.0
  0
LINE
  5
6B
100
AcDbEntity
100
AcDbLine
  8
RENFORCE
 62
256
370
-1
  6
ByLayer
 10
410.0
 20
41.0
 30
0.0
 11
410.0
 21
10.0
 31
0.0
  0
LINE
  5
6C
100
AcDbEntity
100
AcDbLine
  8
RENFORCE
 62
7
370
-1
  6
CONTINUOUS
 10
220.0
 20
10.0
 30
0.0
 11
410.0
 21
10.0
 31
0.0
  0
LINE
  5
6D
100
AcDbEntity
100
AcDbLine
  8
RENFORCE
 62
7
370
-1
  6
CONTINUOUS
 10
220.0
 20
41.0
 30
0.0
 11
410.0
 21
41.0
 31
0.0
  0
MTEXT
  5
6E
100
AcDbEntity
100
AcDbMText
  8
TEXTE
 62
256
370
70
  6
ByLayer
 10
231.0037869999999884
 20
11.9279770000000376
 30
0.0
 40
7.0
 41
100.0
 71
7
 72
2
  1
A3
  7
iso9
 50
0.0
 73
1
 44
1.0
  0
MTEXT
  5
6F
100
AcDbEntity
100
AcDbMText
  8
TEXTE
 62
256
370
50
  6
ByLayer
 10
301.0107756371683081
 20
12.6947080000000003
 30
0.0
 40
5.0
 41
100.0
 71
7
 72
2
  1
Nomenclature
  7
iso9
 50
0.0
 73
1
 44
1.0
  0
LINE
  5
70
100
AcDbEntity
100
AcDbLine
  8
FIN
 62
5
370
-1
  6
CONTINUOUS
 10
250.0
 20
10.0
 30
0.0
 11
250.0
 21
41.0
 31
0.0
  0
LINE
  5
71
100
AcDbEntity
100
AcDbLine
  8
FIN
 62
5
370
-1
  6
CONTINUOUS
 10
220.0
 20
20.500000000000032
 30
0.0
 11
410.0
 21
20.5
 31
0.0
  0
MTEXT
  5
72
100
AcDbEntity
100
AcDbMText
  8
TEXTE
 62
256
370
70
  6
ByLayer
 10
274.6168599999999742
 20
26.9111151569120644
 30
0.0
 40
7.0
 41
100.0
 71
7
 72
2
  1
BATTEUR MELANGEUR
  7
iso9
 50
0.0
 73
1
 44
1.0
  0
LINE
  5
73
100
AcDbEntity
100
AcDbLine
  8
FIN
 62
256
370
-1
  6
ByLayer
 10
20.0
 20
10.0
 30
0.0
 11
20.0
 21
140.5
 31
0.0
  0
LINE
  5
74
100
AcDbEntity
100
AcDbLine
  8
FIN
 62
256
370
-1
  6
ByLayer
 10
35.0
 20
140.5
 30
0.0
 11
35.0
 21
10.0
 31
0.0
  0
LINE
  5
75
100
AcDbEntity
100
AcDbLine
  8
FIN
 62
256
370
-1
  6
ByLayer
 10
50.0
 20
140.5
 30
0.0
 11
50.0
 21
10.0
 31
0.0
  0
LINE
  5
76
100
AcDbEntity
100
AcDbLine
  8
FIN
 62
256
370
-1
  6
ByLayer
 10
134.3345170000000053
 20
10.0
 30
0.0
 11
134.3345170000000053
 21
140.5
 31
0.0
  0
LINE
  5
77
100
AcDbEntity
100
AcDbLine
  8
FIN
 62
256
370
-1
  6
ByLayer
 10
235.0
 20
41.0
 30
0.0
 11
235.0
 21
270.5
 31
0.0
  0
LINE
  5
78
100
AcDbEntity
100
AcDbLine
  8
FIN
 62
256
370
-1
  6
ByLayer
 10
250.0
 20
41.0
 30
0.0
 11
250.0
 21
270.5
 31
0.0
  0
LINE
  5
79
100
AcDbEntity
100
AcDbLine
  8
FIN
 62
256
370
-1
  6
ByLayer
 10
334.3345170000000053
 20
41.0
 30
0.0
 11
334.3345170000000053
 21
270.5
 31
0.0
  0
LINE
  5
7A
100
AcDbEntity
100
AcDbLine
  8
FIN
 62
256
370
-1
  6
ByLayer
 10
220.0
 20
270.5
 30
0.0
 11
220.0
 21
41.0
 31
0.0
  0
LINE
  5
7B
100
AcDbEntity
100
AcDbLine
  8
FIN
 62
256
370
-1
  6
ByLayer
 10
210.0
 20
10.0
 30
0.0
 11
210.0
 21
140.5
 31
0.0
  0
LINE
  5
7C
100
AcDbEntity
100
AcDbLine
  8
FIN
 62
256
370
-1
  6
ByLayer
 10
172.7830981457809401
 20
10.0
 30
0.0
 11
172.7830981457809401
 21
140.5
 31
0.0
  0
LINE
  5
7D
100
AcDbEntity
100
AcDbLine
  8
FIN
 62
256
370
-1
  6
ByLayer
 10
372.7830981457809116
 20
41.0
 30
0.0
 11
372.7830981457809116
 21
270.5
 31
0.0
  0
MTEXT
  5
7E
100
AcDbEntity
100
AcDbMText
  8
TEXTE
 62
256
370
-1
  6
ByLayer
 10
222.0
 20
43.6007267430951444
 30
0.0
 40
3.5
 41
100.0
 71
7
 72
2
  1
REP.
  7
iso9
 50
0.0
 73
1
 44
1.0
  0
MTEXT
  5
7F
100
AcDbEntity
100
AcDbMText
  8
TEXTE
 62
256
370
-1
  6
ByLayer
 10
239.0
 20
43.6007267430951444
 30
0.0
 40
3.5
 41
100.0
 71
7
 72
2
  1
NB.
  7
iso9
 50
0.0
 73
1
 44
1.0
  0
MTEXT
  5
80
100
AcDbEntity
100
AcDbMText
  8
TEXTE
 62
256
370
-1
  6
ByLayer
 10
267.4193940000000111
 20
43.7007267430951458
 30
0.0
 40
3.5
 41
100.0
 71
7
 72
2
  1
DESIGNATION
  7
iso9
 50
0.0
 73
1
 44
1.0
  0
MTEXT
  5
81
100
AcDbEntity
100
AcDbMText
  8
TEXTE
 62
256
370
-1
  6
ByLayer
 10
339.4234549999999899
 20
43.6007267430951444
 30
0.0
 40
3.5
 41
100.0
 71
7
 72
2
  1
MATIERE
  7
iso9
 50
0.0
 73
1
 44
1.0
  0
MTEXT
  5
82
100
AcDbEntity
100
AcDbMText
  8
TEXTE
 62
256
370
-1
  6
ByLayer
 10
226.0
 20
52.6007267430951444
 30
0.0
 40
3.5
 41
100.0
 71
7
 72
2
  1
1
  7
iso9
 50
0.0
 73
1
 44
1.0
  0
MTEXT
  5
83
100
AcDbEntity
100
AcDbMText
  8
TEXTE
 62
256
370
-1
  6
ByLayer
 10
241.0
 20
52.6007267430951444
 30
0.0
 40
3.5
 41
100.0
 71
7
 72
2
  1
1
  7
iso9
 50
0.0
 73
1
 44
1.0
  0
MTEXT
  5
84
100
AcDbEntity
100
AcDbMText
  8
TEXTE
 62
256
370
-1
  6
ByLayer
 10
254.0
 20
52.6007267430951444
 30
0.0
 40
3.5
 41
100.0
 71
7
 72
2
  1
Rondelle LL 6
  7
iso9
 50
0.0
 73
1
 44
1.0
  0
MTEXT
  5
85
100
AcDbEntity
100
AcDbMText
  8
TEXTE
 62
256
370
-1
  6
ByLayer
 10
226.0
 20
61.6007267430951444
 30
0.0
 40
3.5
 41
100.0
 71
7
 72
2
  1
2
  7
iso9
 50
0.0
 73
1
 44
1.0
  0
MTEXT
  5
86
100
AcDbEntity
100
AcDbMText
  8
TEXTE
 62
256
370
-1
  6
ByLayer
 10
241.0
 20
61.6007267430951444
 30
0.0
 40
3.5
 41
100.0
 71
7
 72
2
  1
1
  7
iso9
 50
0.0
 73
1
 44
1.0
  0
MTEXT
  5
87
100
AcDbEntity
100
AcDbMText
  8
TEXTE
 62
256
370
-1
  6
ByLayer
 10
254.0
 20
61.6007267430951444
 30
0.0
 40
3.5
 41
100.0
 71
7
 72
2
  1
Vis C HC, M 6 - 20
  7
iso9
 50
0.0
 73
1
 44
1.0
  0
MTEXT
  5
88
100
AcDbEntity
100
AcDbMText
  8
TEXTE
 62
256
370
-1
  6
ByLayer
 10
226.0
 20
75.1007267430951515
 30
0.0
 40
3.5
 41
100.0
 71
7
 72
2
  1
3
  7
iso9
 50
0.0
 73
1
 44
1.0
  0
MTEXT
  5
89
100
AcDbEntity
100
AcDbMText
  8
TEXTE
 62
256
370
-1
  6
ByLayer
 10
241.0
 20
75.1007267430951515
 30
0.0
 40
3.5
 41
100.0
 71
7
 72
2
  1
1
  7
iso9
 50
0.0
 73
1
 44
1.0
  0
MTEXT
  5
8A
100
AcDbEntity
100
AcDbMText
  8
TEXTE
 62
256
370
-1
  6
ByLayer
 10
254.0
 20
79.6007267430951515
 30
0.0
 40
3.5
 41
100.0
 71
7
 72
2
  1
Clavette parallele, forme C,
  7
iso9
 50
0.0
 73
1
 44
1.0
  0
LINE
  5
8B
100
AcDbEntity
100
AcDbLine
  8
TEXTE
 62
256
370
-1
  6
ByLayer
 10
291.4590044749571689
 20
82.5030316649100541
 30
0.0
 11
290.2461361174148351
 21
83.0083934805526837
 31
0.0
  0
MTEXT
  5
8C
100
AcDbEntity
100
AcDbMText
  8
TEXTE
 62
256
370
-1
  6
ByLayer
 10
226.0
 20
93.1007267430951515
 30
0.0
 40
3.5
 41
100.0
 71
7
 72
2
  1
4
  7
iso9
 50
0.0
 73
1
 44
1.0
  0
MTEXT
  5
8D
100
AcDbEntity
100
AcDbMText
  8
TEXTE
 62
256
370
-1
  6
ByLayer
 10
241.0
 20
93.1007267430951515
 30
0.0
 40
3.5
 41
100.0
 71
7
 72
2
  1
1
  7
iso9
 50
0.0
 73
1
 44
1.0
  0
MTEXT
  5
8E
100
AcDbEntity
100
AcDbMText
  8
TEXTE
 62
256
370
-1
  6
ByLayer
 10
254.0
 20
97.6007267430951515
 30
0.0
 40
3.5
 41
100.0
 71
7
 72
2
  1
Roulement a billes
  7
iso9
 50
0.0
 73
1
 44
1.0
  0
MTEXT
  5
8F
100
AcDbEntity
100
AcDbMText
  8
TEXTE
 62
256
370
-1
  6
ByLayer
 10
226.0
 20
106.6007267430951515
 30
0.0
 40
3.5
 41
100.0
 71
7
 72
2
  1
5
  7
iso9
 50
0.0
 73
1
 44
1.0
  0
MTEXT
  5
90
100
AcDbEntity
100
AcDbMText
  8
TEXTE
 62
256
370
-1
  6
ByLayer
 10
241.0
 20
106.6007267430951515
 30
0.0
 40
3.5
 41
100.0
 71
7
 72
2
  1
4
  7
iso9
 50
0.0
 73
1
 44
1.0
  0
MTEXT
  5
91
100
AcDbEntity
100
AcDbMText
  8
TEXTE
 62
256
370
-1
  6
ByLayer
 10
254.0
 20
106.6007267430951515
 30
0.0
 40
3.5
 41
100.0
 71
7
 72
2
  1
Vis F HC, M 6 - 20
  7
iso9
 50
0.0
 73
1
 44
1.0
  0
LINE
  5
92
100
AcDbEntity
100
AcDbLine
  8
TEXTE
 62
256
370
-1
  6
ByLayer
 10
282.1256711416237977
 20
100.5030316649100541
 30
0.0
 11
280.9128027840814639
 21
101.0083934805526837
 31
0.0
  0
MTEXT
  5
93
100
AcDbEntity
100
AcDbMText
  8
TEXTE
 62
256
370
-1
  6
ByLayer
 10
226.0
 20
115.6007267430951515
 30
0.0
 40
3.5
 41
100.0
 71
7
 72
2
  1
6
  7
iso9
 50
0.0
 73
1
 44
1.0
  0
MTEXT
  5
94
100
AcDbEntity
100
AcDbMText
  8
TEXTE
 62
256
370
-1
  6
ByLayer
 10
241.0
 20
115.6007267430951515
 30
0.0
 40
3.5
 41
100.0
 71
7
 72
2
  1
1
  7
iso9
 50
0.0
 73
1
 44
1.0
  0
MTEXT
  5
95
100
AcDbEntity
100
AcDbMText
  8
TEXTE
 62
256
370
-1
  6
ByLayer
 10
254.0
 20
115.6007267430951515
 30
0.0
 40
3.5
 41
100.0
 71
7
 72
2
  1
Plaquette de fixation
  7
iso9
 50
0.0
 73
1
 44
1.0
  0
MTEXT
  5
96
100
AcDbEntity
100
AcDbMText
  8
TEXTE
 62
256
370
-1
  6
ByLayer
 10
338.3345170000000053
 20
115.6007267430951515
 30
0.0
 40
3.5
 41
100.0
 71
7
 72
2
  1
S 235
  7
iso9
 50
0.0
 73
1
 44
1.0
  0
MTEXT
  5
97
100
AcDbEntity
100
AcDbMText
  8
TEXTE
 62
256
370
-1
  6
ByLayer
 10
226.0
 20
124.6007267430951515
 30
0.0
 40
3.5
 41
100.0
 71
7
 72
2
  1
7
  7
iso9
 50
0.0
 73
1
 44
1.0
  0
MTEXT
  5
98
100
AcDbEntity
100
AcDbMText
  8
TEXTE
 62
256
370
-1
  6
ByLayer
 10
241.0
 20
124.6007267430951515
 30
0.0
 40
3.5
 41
100.0
 71
7
 72
2
  1
1
  7
iso9
 50
0.0
 73
1
 44
1.0
  0
MTEXT
  5
99
100
AcDbEntity
100
AcDbMText
  8
TEXTE
 62
256
370
-1
  6
ByLayer
 10
254.0
 20
124.6007267430951515
 30
0.0
 40
3.5
 41
100.0
 71
7
 72
2
  1
Poulie
  7
iso9
 50
0.0
 73
1
 44
1.0
  0
MTEXT
  5
9A
100
AcDbEntity
100
AcDbMText
  8
TEXTE
 62
256
370
-1
  6
ByLayer
 10
226.0
 20
133.6007267430951515
 30
0.0
 40
3.5
 41
100.0
 71
7
 72
2
  1
8
  7
iso9
 50
0.0
 73
1
 44
1.0
  0
MTEXT
  5
9B
100
AcDbEntity
100
AcDbMText
  8
TEXTE
 62
256
370
-1
  6
ByLayer
 10
241.0
 20
133.6007267430951515
 30
0.0
 40
3.5
 41
100.0
 71
7
 72
2
  1
1
  7
iso9
 50
0.0
 73
1
 44
1.0
  0
MTEXT
  5
9C
100
AcDbEntity
100
AcDbMText
  8
TEXTE
 62
256
370
-1
  6
ByLayer
 10
254.0
 20
133.6007267430951515
 30
0.0
 40
3.5
 41
100.0
 71
7
 72
2
  1
Ecrou H, M 10
  7
iso9
 50
0.0
 73
1
 44
1.0
  0
MTEXT
  5
9D
100
AcDbEntity
100
AcDbMText
  8
TEXTE
 62
256
370
-1
  6
ByLayer
 10
226.0
 20
142.6007267430951515
 30
0.0
 40
3.5
 41
100.0
 71
7
 72
2
  1
9
  7
iso9
 50
0.0
 73
1
 44
1.0
  0
MTEXT
  5
9E
100
AcDbEntity
100
AcDbMText
  8
TEXTE
 62
256
370
-1
  6
ByLayer
 10
241.0
 20
142.6007267430951515
 30
0.0
 40
3.5
 41
100.0
 71
7
 72
2
  1
1
  7
iso9
 50
0.0
 73
1
 44
1.0
  0
MTEXT
  5
9F
100
AcDbEntity
100
AcDbMText
  8
TEXTE
 62
256
370
-1
  6
ByLayer
 10
254.0
 20
142.6007267430951515
 30
0.0
 40
3.5
 41
100.0
 71
7
 72
2
  1
Rondelle L 10
  7
iso9
 50
0.0
 73
1
 44
1.0
  0
MTEXT
  5
A0
100
AcDbEntity
100
AcDbMText
  8
TEXTE
 62
256
370
-1
  6
ByLayer
 10
224.0
 20
151.6007267430951515
 30
0.0
 40
3.5
 41
100.0
 71
7
 72
2
  1
10
  7
iso9
 50
0.0
 73
1
 44
1.0
  0
MTEXT
  5
A1
100
AcDbEntity
100
AcDbMText
  8
TEXTE
 62
256
370
-1
  6
ByLayer
 10
241.0
 20
151.6007267430951515
 30
0.0
 40
3.5
 41
100.0
 71
7
 72
2
  1
1
  7
iso9
 50
0.0
 73
1
 44
1.0
  0
MTEXT
  5
A2
100
AcDbEntity
100
AcDbMText
  8
TEXTE
 62
256
370
-1
  6
ByLayer
 10
254.0
 20
151.6007267430951515
 30
0.0
 40
3.5
 41
100.0
 71
7
 72
2
  1
Corps
  7
iso9
 50
0.0
 73
1
 44
1.0
  0
MTEXT
  5
A3
100
AcDbEntity
100
AcDbMText
  8
TEXTE
 62
256
370
-1
  6
ByLayer
 10
224.0
 20
165.1007267430951515
 30
0.0
 40
3.5
 41
100.0
 71
7
 72
2
  1
11
  7
iso9
 50
0.0
 73
1
 44
1.0
  0
MTEXT
  5
A4
100
AcDbEntity
100
AcDbMText
  8
TEXTE
 62
256
370
-1
  6
ByLayer
 10
241.0
 20
165.1007267430951515
 30
0.0
 40
3.5
 41
100.0
 71
7
 72
2
  1
1
  7
iso9
 50
0.0
 73
1
 44
1.0
  0
MTEXT
  5
A5
100
AcDbEntity
100
AcDbMText
  8
TEXTE
 62
256
370
-1
  6
ByLayer
 10
254.0
 20
169.6007267430951515
 30
0.0
 40
3.5
 41
100.0
 71
7
 72
2
  1
Satellite a denture droite,
  7
iso9
 50
0.0
 73
1
 44
1.0
  0
MTEXT
  5
A6
100
AcDbEntity
100
AcDbMText
  8
TEXTE
 62
256
370
-1
  6
ByLayer
 10
338.3345170000000053
 20
165.1007267430951515
 30
0.0
 40
3.5
 41
100.0
 71
7
 72
2
  1
PA 11
  7
iso9
 50
0.0
 73
1
 44
1.0
  0
LINE
  5
A7
100
AcDbEntity
100
AcDbLine
  8
TEXTE
 62
256
370
-1
  6
ByLayer
 10
278.2367822527349404
 20
172.5030316649100541
 30
0.0
 11
277.0239138951926066
 21
173.0083934805526837
 31
0.0
  0
MTEXT
  5
A8
100
AcDbEntity
100
AcDbMText
  8
TEXTE
 62
256
370
-1
  6
ByLayer
 10
224.0
 20
183.1007267430951515
 30
0.0
 40
3.5
 41
100.0
 71
7
 72
2
  1
12
  7
iso9
 50
0.0
 73
1
 44
1.0
  0
MTEXT
  5
A9
100
AcDbEntity
100
AcDbMText
  8
TEXTE
 62
256
370
-1
  6
ByLayer
 10
241.0
 20
183.1007267430951515
 30
0.0
 40
3.5
 41
100.0
 71
7
 72
2
  1
1
  7
iso9
 50
0.0
 73
1
 44
1.0
  0
MTEXT
  5
AA
100
AcDbEntity
100
AcDbMText
  8
TEXTE
 62
256
370
-1
  6
ByLayer
 10
254.0
 20
187.6007267430951515
 30
0.0
 40
3.5
 41
100.0
 71
7
 72
2
  1
Clavette parallele, forme C,
  7
iso9
 50
0.0
 73
1
 44
1.0
  0
MTEXT
  5
AB
100
AcDbEntity
100
AcDbMText
  8
TEXTE
 62
256
370
-1
  6
ByLayer
 10
254.0
 20
178.6007267430951515
 30
0.0
 40
3.5
 41
100.0
 71
7
 72
2
  1
5 x 5 x 20
  7
iso9
 50
0.0
 73
1
 44
1.0
  0
LINE
  5
AC
100
AcDbEntity
100
AcDbLine
  8
TEXTE
 62
256
370
-1
  6
ByLayer
 10
291.4590044749571689
 20
190.5030316649100541
 30
0.0
 11
290.2461361174148351
 21
191.0083934805526837
 31
0.0
  0
MTEXT
  5
AD
100
AcDbEntity
100
AcDbMText
  8
TEXTE
 62
256
370
-1
  6
ByLayer
 10
224.0
 20
196.6007267430951515
 30
0.0
 40
3.5
 41
100.0
 71
7
 72
2
  1
13
  7
iso9
 50
0.0
 73
1
 44
1.0
  0
MTEXT
  5
AE
100
AcDbEntity
100
AcDbMText
  8
TEXTE
 62
256
370
-1
  6
ByLayer
 10
241.0
 20
196.6007267430951515
 30
0.0
 40
3.5
 41
100.0
 71
7
 72
2
  1
1
  7
iso9
 50
0.0
 73
1
 44
1.0
  0
MTEXT
  5
AF
100
AcDbEntity
100
AcDbMText
  8
TEXTE
 62
256
370
-1
  6
ByLayer
 10
254.0
 20
196.6007267430951515
 30
0.0
 40
3.5
 41
100.0
 71
7
 72
2
  1
Goupille cannelee 8 x 35
  7
iso9
 50
0.0
 73
1
 44
1.0
  0
LINE
  5
B0
100
AcDbEntity
100
AcDbLine
  8
TEXTE
 62
256
370
-1
  6
ByLayer
 10
289.8133364235537215
 20
199.5030316649100541
 30
0.0
 11
291.0262047810960553
 21
200.0083934805526837
 31
0.0
  0
MTEXT
  5
B1
100
AcDbEntity
100
AcDbMText
  8
TEXTE
 62
256
370
-1
  6
ByLayer
 10
224.0
 20
205.6007267430951515
 30
0.0
 40
3.5
 41
100.0
 71
7
 72
2
  1
14
  7
iso9
 50
0.0
 73
1
 44
1.0
  0
MTEXT
  5
B2
100
AcDbEntity
100
AcDbMText
  8
TEXTE
 62
256
370
-1
  6
ByLayer
 10
241.0
 20
205.6007267430951515
 30
0.0
 40
3.5
 41
100.0
 71
7
 72
2
  1
1
  7
iso9
 50
0.0
 73
1
 44
1.0
  0
MTEXT
  5
B3
100
AcDbEntity
100
AcDbMText
  8
TEXTE
 62
256
370
-1
  6
ByLayer
 10
254.0
 20
205.6007267430951515
 30
0.0
 40
3.5
 41
100.0
 71
7
 72
2
  1
Arbre porte-outil
  7
iso9
 50
0.0
 73
1
 44
1.0
  0
MTEXT
  5
B4
100
AcDbEntity
100
AcDbMText
  8
TEXTE
 62
256
370
-1
  6
ByLayer
 10
338.3345170000000053
 20
205.6007267430951515
 30
0.0
 40
3.5
 41
100.0
 71
7
 72
2
  1
C 35
  7
iso9
 50
0.0
 73
1
 44
1.0
  0
MTEXT
  5
B5
100
AcDbEntity
100
AcDbMText
  8
TEXTE
 62
256
370
-1
  6
ByLayer
 10
224.0
 20
219.1007267430951515
 30
0.0
 40
3.5
 41
100.0
 71
7
 72
2
  1
15
  7
iso9
 50
0.0
 73
1
 44
1.0
  0
MTEXT
  5
B6
100
AcDbEntity
100
AcDbMText
  8
TEXTE
 62
256
370
-1
  6
ByLayer
 10
241.0
 20
219.1007267430951515
 30
0.0
 40
3.5
 41
100.0
 71
7
 72
2
  1
2
  7
iso9
 50
0.0
 73
1
 44
1.0
  0
MTEXT
  5
B7
100
AcDbEntity
100
AcDbMText
  8
TEXTE
 62
256
370
-1
  6
ByLayer
 10
254.0
 20
223.6007267430951515
 30
0.0
 40
3.5
 41
100.0
 71
7
 72
2
  1
Roulement a billes
  7
iso9
 50
0.0
 73
1
 44
1.0
  0
LINE
  5
B8
100
AcDbEntity
100
AcDbLine
  8
TEXTE
 62
256
370
-1
  6
ByLayer
 10
282.1256711416237977
 20
226.5030316649100541
 30
0.0
 11
280.9128027840814639
 21
227.0083934805526837
 31
0.0
  0
MTEXT
  5
B9
100
AcDbEntity
100
AcDbMText
  8
TEXTE
 62
256
370
-1
  6
ByLayer
 10
224.0
 20
237.1007267430951515
 30
0.0
 40
3.5
 41
100.0
 71
7
 72
2
  1
16
  7
iso9
 50
0.0
 73
1
 44
1.0
  0
MTEXT
  5
BA
100
AcDbEntity
100
AcDbMText
  8
TEXTE
 62
256
370
-1
  6
ByLayer
 10
241.0
 20
237.1007267430951515
 30
0.0
 40
3.5
 41
100.0
 71
7
 72
2
  1
2
  7
iso9
 50
0.0
 73
1
 44
1.0
  0
MTEXT
  5
BB
100
AcDbEntity
100
AcDbMText
  8
TEXTE
 62
256
370
-1
  6
ByLayer
 10
254.0
 20
241.6007267430951515
 30
0.0
 40
3.5
 41
100.0
 71
7
 72
2
  1
Roulement a billes
  7
iso9
 50
0.0
 73
1
 44
1.0
  0
MTEXT
  5
BC
100
AcDbEntity
100
AcDbMText
  8
TEXTE
 62
256
370
-1
  6
ByLayer
 10
224.0
 20
250.6007267430951515
 30
0.0
 40
3.5
 41
100.0
 71
7
 72
2
  1
17
  7
iso9
 50
0.0
 73
1
 44
1.0
  0
MTEXT
  5
BD
100
AcDbEntity
100
AcDbMText
  8
TEXTE
 62
256
370
-1
  6
ByLayer
 10
241.0
 20
250.6007267430951515
 30
0.0
 40
3.5
 41
100.0
 71
7
 72
2
  1
1
  7
iso9
 50
0.0
 73
1
 44
1.0
  0
MTEXT
  5
BE
100
AcDbEntity
100
AcDbMText
  8
TEXTE
 62
256
370
-1
  6
ByLayer
 10
254.0
 20
250.6007267430951515
 30
0.0
 40
3.5
 41
100.0
 71
7
 72
2
  1
Vis H, M 10 - 20
  7
iso9
 50
0.0
 73
1
 44
1.0
  0
MTEXT
  5
BF
100
AcDbEntity
100
AcDbMText
  8
TEXTE
 62
256
370
-1
  6
ByLayer
 10
224.0
 20
259.6007267430951515
 30
0.0
 40
3.5
 41
100.0
 71
7
 72
2
  1
18
  7
iso9
 50
0.0
 73
1
 44
1.0
  0
MTEXT
  5
C0
100
AcDbEntity
100
AcDbMText
  8
TEXTE
 62
256
370
-1
  6
ByLayer
 10
241.0
 20
259.6007267430951515
 30
0.0
 40
3.5
 41
100.0
 71
7
 72
2
  1
1
  7
iso9
 50
0.0
 73
1
 44
1.0
  0
MTEXT
  5
C1
100
AcDbEntity
100
AcDbMText
  8
TEXTE
 62
256
370
-1
  6
ByLayer
 10
254.0
 20
259.6007267430951515
 30
0.0
 40
3.5
 41
100.0
 71
7
 72
2
  1
Rondelle M10
  7
iso9
 50
0.0
 73
1
 44
1.0
  0
LINE
  5
C2
100
AcDbEntity
100
AcDbLine
  8
TEXTE
 62
256
370
-1
  6
ByLayer
 10
282.1256711416237977
 20
244.5030316649100541
 30
0.0
 11
280.9128027840814639
 21
245.0083934805526837
 31
0.0
  0
MTEXT
  5
C3
100
AcDbEntity
100
AcDbMText
  8
TEXTE
 62
256
370
-1
  6
ByLayer
 10
22.0
 20
12.6007267430951444
 30
0.0
 40
3.5
 41
100.0
 71
7
 72
2
  1
REP.
  7
iso9
 50
0.0
 73
1
 44
1.0
  0
MTEXT
  5
C4
100
AcDbEntity
100
AcDbMText
  8
TEXTE
 62
256
370
-1
  6
ByLayer
 10
39.0
 20
12.6007267430951444
 30
0.0
 40
3.5
 41
100.0
 71
7
 72
2
  1
NB.
  7
iso9
 50
0.0
 73
1
 44
1.0
  0
MTEXT
  5
C5
100
AcDbEntity
100
AcDbMText
  8
TEXTE
 62
256
370
-1
  6
ByLayer
 10
67.4193939999999969
 20
12.700726743095144
 30
0.0
 40
3.5
 41
100.0
 71
7
 72
2
  1
DESIGNATION
  7
iso9
 50
0.0
 73
1
 44
1.0
  0
MTEXT
  5
C6
100
AcDbEntity
100
AcDbMText
  8
TEXTE
 62
256
370
-1
  6
ByLayer
 10
139.4234549999999899
 20
12.6007267430951444
 30
0.0
 40
3.5
 41
100.0
 71
7
 72
2
  1
MATIERE
  7
iso9
 50
0.0
 73
1
 44
1.0
  0
MTEXT
  5
C7
100
AcDbEntity
100
AcDbMText
  8
TEXTE
 62
256
370
-1
  6
ByLayer
 10
24.0
 20
21.6007267430951444
 30
0.0
 40
3.5
 41
100.0
 71
7
 72
2
  1
19
  7
iso9
 50
0.0
 73
1
 44
1.0
  0
MTEXT
  5
C8
100
AcDbEntity
100
AcDbMText
  8
TEXTE
 62
256
370
-1
  6
ByLayer
 10
24.0
 20
30.6007267430951444
 30
0.0
 40
3.5
 41
100.0
 71
7
 72
2
  1
20
  7
iso9
 50
0.0
 73
1
 44
1.0
  0
MTEXT
  5
C9
100
AcDbEntity
100
AcDbMText
  8
TEXTE
 62
256
370
-1
  6
ByLayer
 10
24.0
 20
39.6007267430951444
 30
0.0
 40
3.5
 41
100.0
 71
7
 72
2
  1
21
  7
iso9
 50
0.0
 73
1
 44
1.0
  0
MTEXT
  5
CA
100
AcDbEntity
100
AcDbMText
  8
TEXTE
 62
256
370
-1
  6
ByLayer
 10
24.0
 20
53.1007267430951444
 30
0.0
 40
3.5
 41
100.0
 71
7
 72
2
  1
22
  7
iso9
 50
0.0
 73
1
 44
1.0
  0
MTEXT
  5
CB
100
AcDbEntity
100
AcDbMText
  8
TEXTE
 62
256
370
-1
  6
ByLayer
 10
24.0
 20
71.1007267430951515
 30
0.0
 40
3.5
 41
100.0
 71
7
 72
2
  1
23
  7
iso9
 50
0.0
 73
1
 44
1.0
  0
MTEXT
  5
CC
100
AcDbEntity
100
AcDbMText
  8
TEXTE
 62
256
370
-1
  6
ByLayer
 10
24.0
 20
84.6007267430951515
 30
0.0
 40
3.5
 41
100.0
 71
7
 72
2
  1
24
  7
iso9
 50
0.0
 73
1
 44
1.0
  0
MTEXT
  5
CD
100
AcDbEntity
100
AcDbMText
  8
TEXTE
 62
256
370
-1
  6
ByLayer
 10
24.0
 20
98.1007267430951515
 30
0.0
 40
3.5
 41
100.0
 71
7
 72
2
  1
25
  7
iso9
 50
0.0
 73
1
 44
1.0
  0
MTEXT
  5
CE
100
AcDbEntity
100
AcDbMText
  8
TEXTE
 62
256
370
-1
  6
ByLayer
 10
24.0
 20
116.1007267430951515
 30
0.0
 40
3.5
 41
100.0
 71
7
 72
2
  1
26
  7
iso9
 50
0.0
 73
1
 44
1.0
  0
MTEXT
  5
CF
100
AcDbEntity
100
AcDbMText
  8
TEXTE
 62
256
370
-1
  6
ByLayer
 10
24.0
 20
129.6007267430951515
 30
0.0
 40
3.5
 41
100.0
 71
7
 72
2
  1
27
  7
iso9
 50
0.0
 73
1
 44
1.0
  0
MTEXT
  5
D0
100
AcDbEntity
100
AcDbMText
  8
TEXTE
 62
256
370
-1
  6
ByLayer
 10
41.0
 20
21.6007267430951444
 30
0.0
 40
3.5
 41
100.0
 71
7
 72
2
  1
1
  7
iso9
 50
0.0
 73
1
 44
1.0
  0
MTEXT
  5
D1
100
AcDbEntity
100
AcDbMText
  8
TEXTE
 62
256
370
-1
  6
ByLayer
 10
41.0
 20
30.6007267430951444
 30
0.0
 40
3.5
 41
100.0
 71
7
 72
2
  1
1
  7
iso9
 50
0.0
 73
1
 44
1.0
  0
MTEXT
  5
D2
100
AcDbEntity
100
AcDbMText
  8
TEXTE
 62
256
370
-1
  6
ByLayer
 10
41.0
 20
39.6007267430951444
 30
0.0
 40
3.5
 41
100.0
 71
7
 72
2
  1
1
  7
iso9
 50
0.0
 73
1
 44
1.0
  0
MTEXT
  5
D3
100
AcDbEntity
100
AcDbMText
  8
TEXTE
 62
256
370
-1
  6
ByLayer
 10
41.0
 20
53.1007267430951444
 30
0.0
 40
3.5
 41
100.0
 71
7
 72
2
  1
1
  7
iso9
 50
0.0
 73
1
 44
1.0
  0
MTEXT
  5
D4
100
AcDbEntity
100
AcDbMText
  8
TEXTE
 62
256
370
-1
  6
ByLayer
 10
41.0
 20
71.1007267430951515
 30
0.0
 40
3.5
 41
100.0
 71
7
 72
2
  1
1
  7
iso9
 50
0.0
 73
1
 44
1.0
  0
MTEXT
  5
D5
100
AcDbEntity
100
AcDbMText
  8
TEXTE
 62
256
370
-1
  6
ByLayer
 10
41.0
 20
84.6007267430951515
 30
0.0
 40
3.5
 41
100.0
 71
7
 72
2
  1
3
  7
iso9
 50
0.0
 73
1
 44
1.0
  0
MTEXT
  5
D6
100
AcDbEntity
100
AcDbMText
  8
TEXTE
 62
256
370
-1
  6
ByLayer
 10
41.0
 20
98.1007267430951515
 30
0.0
 40
3.5
 41
100.0
 71
7
 72
2
  1
1
  7
iso9
 50
0.0
 73
1
 44
1.0
  0
MTEXT
  5
D7
100
AcDbEntity
100
AcDbMText
  8
TEXTE
 62
256
370
-1
  6
ByLayer
 10
41.0
 20
116.1007267430951515
 30
0.0
 40
3.5
 41
100.0
 71
7
 72
2
  1
1
  7
iso9
 50
0.0
 73
1
 44
1.0
  0
MTEXT
  5
D8
100
AcDbEntity
100
AcDbMText
  8
TEXTE
 62
256
370
-1
  6
ByLayer
 10
41.0
 20
129.6007267430951515
 30
0.0
 40
3.5
 41
100.0
 71
7
 72
2
  1
1
  7
iso9
 50
0.0
 73
1
 44
1.0
  0
MTEXT
  5
D9
100
AcDbEntity
100
AcDbMText
  8
TEXTE
 62
256
370
-1
  6
ByLayer
 10
54.0
 20
21.6007267430951444
 30
0.0
 40
3.5
 41
100.0
 71
7
 72
2
  1
Porte satellite
  7
iso9
 50
0.0
 73
1
 44
1.0
  0
MTEXT
  5
DA
100
AcDbEntity
100
AcDbMText
  8
TEXTE
 62
256
370
-1
  6
ByLayer
 10
54.0
 20
30.6007267430951444
 30
0.0
 40
3.5
 41
100.0
 71
7
 72
2
  1
Arbre
  7
iso9
 50
0.0
 73
1
 44
1.0
  0
MTEXT
  5
DB
100
AcDbEntity
100
AcDbMText
  8
TEXTE
 62
256
370
-1
  6
ByLayer
 10
54.0
 20
39.6007267430951444
 30
0.0
 40
3.5
 41
100.0
 71
7
 72
2
  1
Cale
  7
iso9
 50
0.0
 73
1
 44
1.0
  0
MTEXT
  5
DC
100
AcDbEntity
100
AcDbMText
  8
TEXTE
 62
256
370
-1
  6
ByLayer
 10
54.0
 20
57.6007267430951444
 30
0.0
 40
3.5
 41
100.0
 71
7
 72
2
  1
Pignon a denture droite
  7
iso9
 50
0.0
 73
1
 44
1.0
  0
LINE
  5
DD
100
AcDbEntity
100
AcDbLine
  8
TEXTE
 62
256
370
-1
  6
ByLayer
 10
73.1812266971793974
 20
60.5030316649100612
 30
0.0
 11
71.9683583396370636
 21
61.0083934805526908
 31
0.0
  0
MTEXT
  5
DE
100
AcDbEntity
100
AcDbMText
  8
TEXTE
 62
256
370
-1
  6
ByLayer
 10
54.0
 20
75.6007267430951515
 30
0.0
 40
3.5
 41
100.0
 71
7
 72
2
  1
Couronne a denture droite
  7
iso9
 50
0.0
 73
1
 44
1.0
  0
MTEXT
  5
DF
100
AcDbEntity
100
AcDbMText
  8
TEXTE
 62
256
370
-1
  6
ByLayer
 10
54.0
 20
84.6007267430951515
 30
0.0
 40
3.5
 41
100.0
 71
7
 72
2
  1
Vis H, M 6 - 30
  7
iso9
 50
0.0
 73
1
 44
1.0
  0
MTEXT
  5
E0
100
AcDbEntity
100
AcDbMText
  8
TEXTE
 62
256
370
-1
  6
ByLayer
 10
54.0
 20
102.6007267430951515
 30
0.0
 40
3.5
 41
100.0
 71
7
 72
2
  1
Clavette parallele, forme A,
  7
iso9
 50
0.0
 73
1
 44
1.0
  0
LINE
  5
E1
100
AcDbEntity
100
AcDbLine
  8
TEXTE
 62
256
370
-1
  6
ByLayer
 10
91.4590044749571689
 20
105.5030316649100541
 30
0.0
 11
90.2461361174148351
 21
106.0083934805526837
 31
0.0
  0
LINE
  5
E2
100
AcDbEntity
100
AcDbLine
  8
TEXTE
 62
256
370
-1
  6
ByLayer
 10
79.4034489194016118
 20
78.5030316649100541
 30
0.0
 11
78.190580561859278
 21
79.0083934805526837
 31
0.0
  0
MTEXT
  5
E3
100
AcDbEntity
100
AcDbMText
  8
TEXTE
 62
256
370
-1
  6
ByLayer
 10
54.0
 20
120.6007267430951515
 30
0.0
 40
3.5
 41
100.0
 71
7
 72
2
  1
Roulement a billes
  7
iso9
 50
0.0
 73
1
 44
1.0
  0
MTEXT
  5
E4
100
AcDbEntity
100
AcDbMText
  8
TEXTE
 62
256
370
-1
  6
ByLayer
 10
54.0
 20
129.6007267430951515
 30
0.0
 40
3.5
 41
100.0
 71
7
 72
2
  1
Entretoise
  7
iso9
 50
0.0
 73
1
 44
1.0
  0
LINE
  5
E5
100
AcDbEntity
100
AcDbLine
  8
TEXTE
 62
256
370
-1
  6
ByLayer
 10
82.1256711416238403
 20
123.5030316649100541
 30
0.0
 11
80.9128027840815065
 21
124.0083934805526837
 31
0.0
  0
MTEXT
  5
E6
100
AcDbEntity
100
AcDbMText
  8
TEXTE
 62
256
370
-1
  6
ByLayer
 10
138.3345170000000053
 20
30.6007267430951444
 30
0.0
 40
3.5
 41
100.0
 71
7
 72
2
  1
C 35
  7
iso9
 50
0.0
 73
1
 44
1.0
  0
MTEXT
  5
E7
100
AcDbEntity
100
AcDbMText
  8
TEXTE
 62
256
370
-1
  6
ByLayer
 10
138.3345170000000053
 20
39.6007267430951444
 30
0.0
 40
3.5
 41
100.0
 71
7
 72
2
  1
S 235
  7
iso9
 50
0.0
 73
1
 44
1.0
  0
MTEXT
  5
E8
100
AcDbEntity
100
AcDbMText
  8
TEXTE
 62
256
370
-1
  6
ByLayer
 10
138.3345170000000053
 20
53.1007267430951444
 30
0.0
 40
3.5
 41
100.0
 71
7
 72
2
  1
C 45
  7
iso9
 50
0.0
 73
1
 44
1.0
  0
MTEXT
  5
E9
100
AcDbEntity
100
AcDbMText
  8
TEXTE
 62
256
370
-1
  6
ByLayer
 10
138.3345170000000053
 20
71.1007267430951515
 30
0.0
 40
3.5
 41
100.0
 71
7
 72
2
  1
C 45
  7
iso9
 50
0.0
 73
1
 44
1.0
  0
MTEXT
  5
EA
100
AcDbEntity
100
AcDbMText
  8
TEXTE
 62
256
370
-1
  6
ByLayer
 10
138.3345170000000053
 20
129.6007267430951515
 30
0.0
 40
3.5
 41
100.0
 71
7
 72
2
  1
S 235
  7
iso9
 50
0.0
 73
1
 44
1.0
  0
MTEXT
  5
EB
100
AcDbEntity
100
AcDbMText
  8
TEXTE
 62
256
370
-1
  6
ByLayer
 10
254.0
 20
72.0691698928833091
 30
0.0
 40
3.5
 41
100.0
 71
7
 72
2
  1
6 x 6 x 20
  7
iso9
 50
0.0
 73
1
 44
1.0
  0
MTEXT
  5
EC
100
AcDbEntity
100
AcDbMText
  8
TEXTE
 62
256
370
-1
  6
ByLayer
 10
254.0
 20
90.0691698928833091
 30
0.0
 40
3.5
 41
100.0
 71
7
 72
2
  1
30 BC 10
  7
iso9
 50
0.0
 73
1
 44
1.0
  0
MTEXT
  5
ED
100
AcDbEntity
100
AcDbMText
  8
TEXTE
 62
256
370
-1
  6
ByLayer
 10
254.0
 20
162.0691698928833091
 30
0.0
 40
3.5
 41
100.0
 71
7
 72
2
  1
Z = 23 dents, m = 2 mm
  7
iso9
 50
0.0
 73
1
 44
1.0
  0
MTEXT
  5
EE
100
AcDbEntity
100
AcDbMText
  8
TEXTE
 62
256
370
-1
  6
ByLayer
 10
254.0
 20
216.0691698928833091
 30
0.0
 40
3.5
 41
100.0
 71
7
 72
2
  1
20 BC 10
  7
iso9
 50
0.0
 73
1
 44
1.0
  0
MTEXT
  5
EF
100
AcDbEntity
100
AcDbMText
  8
TEXTE
 62
256
370
-1
  6
ByLayer
 10
254.0
 20
234.0691698928833091
 30
0.0
 40
3.5
 41
100.0
 71
7
 72
2
  1
17 BC 02
  7
iso9
 50
0.0
 73
1
 44
1.0
  0
MTEXT
  5
F0
100
AcDbEntity
100
AcDbMText
  8
TEXTE
 62
256
370
-1
  6
ByLayer
 10
54.0
 20
50.069169892883302
 30
0.0
 40
3.5
 41
100.0
 71
7
 72
2
  1
Z = 19 dents, m = 2 mm
  7
iso9
 50
0.0
 73
1
 44
1.0
  0
MTEXT
  5
F1
100
AcDbEntity
100
AcDbMText
  8
TEXTE
 62
256
370
-1
  6
ByLayer
 10
54.0
 20
68.0691698928833091
 30
0.0
 40
3.5
 41
100.0
 71
7
 72
2
  1
Z = 65 dents, m = 2 mm
  7
iso9
 50
0.0
 73
1
 44
1.0
  0
MTEXT
  5
F2
100
AcDbEntity
100
AcDbMText
  8
TEXTE
 62
256
370
-1
  6
ByLayer
 10
54.0
 20
95.0691698928833091
 30
0.0
 40
3.5
 41
100.0
 71
7
 72
2
  1
8 x 7 x 20
  7
iso9
 50
0.0
 73
1
 44
1.0
  0
MTEXT
  5
F3
100
AcDbEntity
100
AcDbMText
  8
TEXTE
 62
256
370
-1
  6
ByLayer
 10
54.0
 20
113.0691698928833091
 30
0.0
 40
3.5
 41
100.0
 71
7
 72
2
  1
25 BC 47
  7
iso9
 50
0.0
 73
1
 44
1.0
  0
MTEXT
  5
F4
100
AcDbEntity
100
AcDbMText
  8
TEXTE
 62
256
370
-1
  6
ByLayer
 10
338.3345170000000053
 20
124.6007267430951515
 30
0.0
 40
3.5
 41
100.0
 71
7
 72
2
  1
EN-GJL-200
  7
iso9
 50
0.0
 73
1
 44
1.0
  0
MTEXT
  5
F5
100
AcDbEntity
100
AcDbMText
  8
TEXTE
 62
256
370
-1
  6
ByLayer
 10
338.3345170000000053
 20
151.6007267430951515
 30
0.0
 40
3.5
 41
100.0
 71
7
 72
2
  1
EN AB-44200
  7
iso9
 50
0.0
 73
1
 44
1.0
  0
MTEXT
  5
F6
100
AcDbEntity
100
AcDbMText
  8
TEXTE
 62
256
370
-1
  6
ByLayer
 10
138.3345170000000053
 20
21.6007267430951444
 30
0.0
 40
3.5
 41
100.0
 71
7
 72
2
  1
EN AB-44200
  7
iso9
 50
0.0
 73
1
 44
1.0
  0
MTEXT
  5
F7
100
AcDbEntity
100
AcDbMText
  8
TEXTE
 62
256
370
-1
  6
ByLayer
 10
384.1802292348294259
 20
43.6007267430951444
 30
0.0
 40
3.5
 41
100.0
 71
7
 72
2
  1
OBS.
  7
iso9
 50
0.0
 73
1
 44
1.0
  0
MTEXT
  5
F8
100
AcDbEntity
100
AcDbMText
  8
TEXTE
 62
256
370
-1
  6
ByLayer
 10
184.1802292348294543
 20
12.6007267430951444
 30
0.0
 40
3.5
 41
100.0
 71
7
 72
2
  1
OBS.
  7
iso9
 50
0.0
 73
1
 44
1.0
  0
ENDSEC
  0
SECTION
  2
OBJECTS
  0
DICTIONARY
  5
C
100
AcDbDictionary
280
0
281
1
  3
ACAD_GROUP
350
D
  3
ACAD_LAYOUT
350
1A
  3
ACAD_MLINESTYLE
350
17
  3
ACAD_PLOTSETTINGS
350
19
  3
ACAD_PLOTSTYLENAME
350
E
  3
AcDbVariableDictionary
350
F9
  0
DICTIONARY
  5
D
100
AcDbDictionary
280
0
281
1
  0
ACDBDICTIONARYWDFLT
  5
E
100
AcDbDictionary
281
1
  3
Normal
350
F
100
AcDbDictionaryWithDefault
340
F
  0
ACDBPLACEHOLDER
  5
F
  0
DICTIONARY
  5
17
100
AcDbDictionary
280
0
281
1
  3
Standard
350
18
  0
MLINESTYLE
  5
18
100
AcDbMlineStyle
  2
STANDARD
 70
0
  3

 62
256
 51
90.0
 52
90.0
 71
2
 49
0.5
 62
256
  6
BYLAYER
 49
-0.5
 62
256
  6
BYLAYER
  0
DICTIONARY
  5
19
100
AcDbDictionary
280
0
281
1
  0
DICTIONARY
  5
1A
100
AcDbDictionary
281
1
  3
Layout1
350
1E
  3
Layout2
350
26
  3
Model
350
22
  0
LAYOUT
  5
1E
100
AcDbPlotSettings
  1

  2
C:\Program Files\AutoCAD 2002\plotters\DWF ePlot (optimized for plotting).pc3
  4

  6

 40
0.0
 41
0.0
 42
0.0
 43
0.0
 44
0.0
 45
0.0
 46
0.0
 47
0.0
 48
0.0
 49
0.0
140
0.0
141
0.0
142
1.0
143
1.0
 70
688
 72
0
 73
0
 74
5
  7

 75
16
147
1.0
148
0.0
149
0.0
100
AcDbLayout
  1
Layout1
 70
1
 71
1
 10
0.0
 20
0.0
 11
420.0
 21
297.0
 12
0.0
 22
0.0
 32
0.0
 14
100000000000000000000.0
 24
100000000000000000000.0
 34
100000000000000000000.0
 15
-100000000000000000000.0
 25
-100000000000000000000.0
 35
-100000000000000000000.0
146
0.0
 13
0.0
 23
0.0
 33
0.0
 16
1.0
 26
0.0
 36
0.0
 17
0.0
 27
1.0
 37
0.0
 76
0
330
1B
  0
LAYOUT
  5
22
100
AcDbPlotSettings
  1

  2
C:\Program Files\AutoCAD 2002\plotters\DWF ePlot (optimized for plotting).pc3
  4

  6

 40
0.0
 41
0.0
 42
0.0
 43
0.0
 44
0.0
 45
0.0
 46
0.0
 47
0.0
 48
0.0
 49
0.0
140
0.0
141
0.0
142
1.0
143
1.0
 70
1712
 72
0
 73
0
 74
0
  7

 75
0
147
1.0
148
0.0
149
0.0
100
AcDbLayout
  1
Model
 70
1
 71
0
 10
0.0
 20
0.0
 11
12.0
 21
9.0
 12
0.0
 22
0.0
 32
0.0
 14
0.0
 24
0.0
 34
0.0
 15
0.0
 25
0.0
 35
0.0
146
0.0
 13
0.0
 23
0.0
 33
0.0
 16
1.0
 26
0.0
 36
0.0
 17
0.0
 27
1.0
 37
0.0
 76
0
330
1F
  0
LAYOUT
  5
26
100
AcDbPlotSettings
  1

  2
C:\Program Files\AutoCAD 2002\plotters\DWF ePlot (optimized for plotting).pc3
  4

  6

 40
0.0
 41
0.0
 42
0.0
 43
0.0
 44
0.0
 45
0.0
 46
0.0
 47
0.0
 48
0.0
 49
0.0
140
0.0
141
0.0
142
1.0
143
1.0
 70
688
 72
0
 73
0
 74
5
  7

 75
16
147
1.0
148
0.0
149
0.0
100
AcDbLayout
  1
Layout2
 70
1
 71
2
 10
0.0
 20
0.0
 11
12.0
 21
9.0
 12
0.0
 22
0.0
 32
0.0
 14
0.0
 24
0.0
 34
0.0
 15
0.0
 25
0.0
 35
0.0
146
0.0
 13
0.0
 23
0.0
 33
0.0
 16
1.0
 26
0.0
 36
0.0
 17
0.0
 27
1.0
 37
0.0
 76
0
330
23
  0
DICTIONARY
  5
F9
100
AcDbDictionary
281
1
  3
DIMASSOC
350
FB
  3
HIDETEXT
350
FA
  0
DICTIONARYVAR
  5
FA
100
DictionaryVariables
280
0
  1
2
  0
DICTIONARYVAR
  5
FB
100
DictionaryVariables
280
0
  1
1
  0
ENDSEC
  0
EOF
