999
dxflib 2.2.0.0
  0
SECTION
  2
HEADER
  9
$ACADVER
  1
AC1015
  9
$HANDSEED
  5
FFFF
  9
$EXTMAX
 10
420.0
 20
297.0
 30
0.0
  9
$VIEWSIZE
 40
9.0
  9
$DIMALTD
 70
2
  9
$LIMCHECK
 70
0
  9
$SNAPISOPAIR
 70
0
  9
$DIMALTF
 40
25.3999999999999986
  9
$DIMTXT
 40
0.18
  9
$VIEWCTR
 10
6.0
 20
4.5
  9
$PDMODE
 70
0
  9
$CELTYPE
  6
CONTINUOUS
  9
$DIMSHO
 70
1
  9
$DIMTAD
 70
0
  9
$FASTZOOM
 70
1
  9
$AXISUNIT
 10
0.0
 20
0.0
 30
0.0
  9
$SNAPUNIT
 10
10.0
 20
10.0
 30
0.0
  9
$DIMTIH
 70
1
  9
$SKPOLY
 70
0
  9
$REGENMODE
 70
1
  9
$DIMDLE
 40
0.0
  9
$SNAPSTYLE
 70
0
  9
$TEXTSTYLE
  7
STANDARD
  9
$AXISMODE
 70
0
  9
$SKETCHINC
 40
0.1
  9
$SNAPANG
 50
0.0
  9
$DIMDLI
 40
0.38
  9
$VIEWDIR
 10
0.0
 20
0.0
 30
1.0
  9
$TDUSRTIMER
 40
0.0
  9
$ANGBASE
 50
0.0
  9
$DIMASO
 70
1
  9
$SPLFRAME
 70
0
  9
$SNAPMODE
 70
0
  9
$USRTIMER
 70
1
  9
$DIMASZ
 40
0.18
  9
$GRIDUNIT
 10
10.0
 20
10.0
  9
$INSBASE
 10
0.0
 20
0.0
 30
0.0
  9
$SPLINESEGS
 70
10
  9
$CHAMFERA
 40
10.0
  9
$CHAMFERB
 40
10.0
  9
$QTEXTMODE
 70
0
  9
$DRAGMODE
 70
2
  9
$ATTMODE
 70
1
  9
$USERI1
 70
0
  9
$BLIPMODE
 70
1
  9
$USERI2
 70
0
  9
$AUNITS
 70
0
  9
$USERI3
 70
0
  9
$USERI4
 70
0
  9
$USERI5
 70
0
  9
$DIMALT
 70
0
  9
$DIMSTYLE
  2
Standard
  9
$DIMCEN
 40
0.09
  9
$MENU
  1
acad
  9
$TDUPDATE
 40
0.0
  9
$COORDS
 70
2
  9
$DIMTSZ
 40
0.0
  9
$PLIMMAX
 10
420.0
 20
297.0
  9
$DIMADEC
 70
0
  9
$ATTREQ
 70
1
  9
$TRACEWID
 40
0.05
  9
$DIMSE1
 70
0
  9
$PINSBASE
 10
-10.0
 20
10.0
 30
0.0
  9
$DIMSE2
 70
0
  9
$USERR1
 40
0.0
  9
$ATTDIA
 70
0
  9
$USERR2
 40
0.0
  9
$ANGDIR
 70
0
  9
$USERR3
 40
0.0
  9
$USERR4
 40
0.0
  9
$GRIDMODE
 70
0
  9
$USERR5
 40
0.0
  9
$DIMLIM
 70
0
  9
$DIMAUNIT
 70
0
  9
$PLINEWID
 40
0.0
  9
$DIMLUNIT
 70
2
  9
$FILLETRAD
 40
8.7390000000000008
  9
$AUPREC
 70
0
  9
$CECOLOR
 62
5
  9
$TDCREATE
 40
0.0
  9
$SNAPBASE
 10
0.0
 20
0.0
 30
0.0
  9
$DIMEXE
 40
0.18
  9
$LIMMIN
 10
-13.751322
 20
-4.592784
  9
$THICKNESS
 40
0.0
  9
$PDSIZE
 40
0.0
  9
$CLAYER
  8
FIN
  9
$ELEVATION
 40
0.0
  9
$DIMEXO
 40
0.0625
  9
$ORTHOMODE
 70
0
  9
$INSUNITS
 70
4
  9
$LIMMAX
 10
476.5491240000000062
 20
301.5927839999999946
  9
$DIMTM
 40
0.0
  9
$DIMRND
 40
0.0
  9
$LUNITS
 70
2
  9
$DIMTP
 40
0.0
  9
$TEXTSIZE
 40
0.2
  9
$DIMGAP
 40
0.625
  9
$OSMODE
 70
0
  9
$DIMLFAC
 40
1.0
  9
$LTSCALE
 40
1.0
  9
$FILLMODE
 70
1
  9
$DIMTOH
 70
1
  9
$DIMSCALE
 40
1.0
  9
$PLIMMIN
 10
0.0
 20
0.0
  9
$DIMTOL
 70
0
  9
$EXTMIN
 10
0.0
 20
0.0
 30
0.0
  9
$DIMZIN
 70
0
  9
$TDINDWG
 40
0.0
  9
$LUPREC
 70
4
  0
ENDSEC
  0
SECTION
  2
TABLES
  0
TABLE
  2
VPORT
  5
8
100
AcDbSymbolTable
 70
1
  0
VPORT
  5
30
100
AcDbSymbolTableRecord
100
AcDbViewportTableRecord
  2
*Active
 70
0
 10
0.0
 20
0.0
 11
1.0
 21
1.0
 12
286.3055555555554861
 22
148.5
 13
0.0
 23
0.0
 14
10.0
 24
10.0
 15
10.0
 25
10.0
 16
0.0
 26
0.0
 36
1.0
 17
0.0
 27
0.0
 37
0.0
 40
297.0
 41
1.92798353909465
 42
50.0
 43
0.0
 44
0.0
 50
0.0
 51
0.0
 71
0
 72
100
 73
1
 74
3
 75
1
 76
1
 77
0
 78
0
281
0
 65
1
110
0.0
120
0.0
130
0.0
111
1.0
121
0.0
131
0.0
112
0.0
122
1.0
132
0.0
 79
0
146
0.0
  0
ENDTAB
  0
TABLE
  2
LTYPE
  5
5
100
AcDbSymbolTable
 70
21
  0
LTYPE
  5
14
100
AcDbSymbolTableRecord
100
AcDbLinetypeTableRecord
  2
ByBlock
 70
0
  3

 72
65
 73
0
 40
0.0
  0
LTYPE
  5
15
100
AcDbSymbolTableRecord
100
AcDbLinetypeTableRecord
  2
ByLayer
 70
0
  3

 72
65
 73
0
 40
0.0
  0
LTYPE
  5
16
100
AcDbSymbolTableRecord
100
AcDbLinetypeTableRecord
  2
CONTINUOUS
 70
0
  3
Solid line
 72
65
 73
0
 40
0.0
  0
LTYPE
  5
31
100
AcDbSymbolTableRecord
100
AcDbLinetypeTableRecord
  2
DOT
 70
0
  3
Dot . . . . . . . . . . . . . . . . . . . . . .
 72
65
 73
2
 40
6.3499999999999996
 49
0.0
 74
0
 49
-6.3499999999999996
 74
0
  0
LTYPE
  5
32
100
AcDbSymbolTableRecord
100
AcDbLinetypeTableRecord
  2
DOT2
 70
0
  3
Dot (.5x) .....................................
 72
65
 73
2
 40
3.1749999999999998
 49
0.0
 74
0
 49
-3.1749999999999998
 74
0
  0
LTYPE
  5
33
100
AcDbSymbolTableRecord
100
AcDbLinetypeTableRecord
  2
DOTX2
 70
0
  3
Dot (2x) .  .  .  .  .  .  .  .  .  .  .  .  .
 72
65
 73
2
 40
12.6999999999999993
 49
0.0
 74
0
 49
-12.6999999999999993
 74
0
  0
LTYPE
  5
34
100
AcDbSymbolTableRecord
100
AcDbLinetypeTableRecord
  2
DASHED
 70
0
  3
Dashed __ __ __ __ __ __ __ __ __ __ __ __ __ _
 72
65
 73
2
 40
19.0500000000000007
 49
12.6999999999999993
 74
0
 49
-6.3499999999999996
 74
0
  0
LTYPE
  5
35
100
AcDbSymbolTableRecord
100
AcDbLinetypeTableRecord
  2
DASHED2
 70
0
  3
Dashed (.5x) _ _ _ _ _ _ _ _ _ _ _ _ _ _ _ _ _
 72
65
 73
2
 40
9.5250000000000004
 49
6.3499999999999996
 74
0
 49
-3.1749999999999998
 74
0
  0
LTYPE
  5
36
100
AcDbSymbolTableRecord
100
AcDbLinetypeTableRecord
  2
DASHEDX2
 70
0
  3
Dashed (2x) ____  ____  ____  ____  ____  ___
 72
65
 73
2
 40
38.1000000000000014
 49
25.3999999999999986
 74
0
 49
-12.6999999999999993
 74
0
  0
LTYPE
  5
37
100
AcDbSymbolTableRecord
100
AcDbLinetypeTableRecord
  2
DASHDOT
 70
0
  3
Dash dot __ . __ . __ . __ . __ . __ . __ . __
 72
65
 73
4
 40
25.3999999999999986
 49
12.6999999999999993
 74
0
 49
-6.3499999999999996
 74
0
 49
0.0
 74
0
 49
-6.3499999999999996
 74
0
  0
LTYPE
  5
38
100
AcDbSymbolTableRecord
100
AcDbLinetypeTableRecord
  2
DASHDOT2
 70
0
  3
Dash dot (.5x) _._._._._._._._._._._._._._._.
 72
65
 73
4
 40
12.6999999999999993
 49
6.3499999999999996
 74
0
 49
-3.1749999999999998
 74
0
 49
0.0
 74
0
 49
-3.1749999999999998
 74
0
  0
LTYPE
  5
39
100
AcDbSymbolTableRecord
100
AcDbLinetypeTableRecord
  2
DASHDOTX2
 70
0
  3
Dash dot (2x) ____  .  ____  .  ____  .  ___
 72
65
 73
4
 40
50.7999999999999972
 49
25.3999999999999986
 74
0
 49
-12.6999999999999993
 74
0
 49
0.0
 74
0
 49
-12.6999999999999993
 74
0
  0
LTYPE
  5
3A
100
AcDbSymbolTableRecord
100
AcDbLinetypeTableRecord
  2
DIVIDE
 70
0
  3
Divide ____ . . ____ . . ____ . . ____ . . ____
 72
65
 73
6
 40
31.75
 49
12.6999999999999993
 74
0
 49
-6.3499999999999996
 74
0
 49
0.0
 74
0
 49
-6.3499999999999996
 74
0
 49
0.0
 74
0
 49
-6.3499999999999996
 74
0
  0
LTYPE
  5
3B
100
AcDbSymbolTableRecord
100
AcDbLinetypeTableRecord
  2
DIVIDE2
 70
0
  3
Divide (.5x) __..__..__..__..__..__..__..__.._
 72
65
 73
6
 40
15.875
 49
6.3499999999999996
 74
0
 49
-3.1749999999999998
 74
0
 49
0.0
 74
0
 49
-3.1749999999999998
 74
0
 49
0.0
 74
0
 49
-3.1749999999999998
 74
0
  0
LTYPE
  5
3C
100
AcDbSymbolTableRecord
100
AcDbLinetypeTableRecord
  2
DIVIDEX2
 70
0
  3
Divide (2x) ________  .  .  ________  .  .  _
 72
65
 73
6
 40
63.5
 49
25.3999999999999986
 74
0
 49
-12.6999999999999993
 74
0
 49
0.0
 74
0
 49
-12.6999999999999993
 74
0
 49
0.0
 74
0
 49
-12.6999999999999993
 74
0
  0
LTYPE
  5
3D
100
AcDbSymbolTableRecord
100
AcDbLinetypeTableRecord
  2
CENTER
 70
0
  3
Center ____ _ ____ _ ____ _ ____ _ ____ _ ____
 72
65
 73
4
 40
50.7999999999999972
 49
31.75
 74
0
 49
-6.3499999999999996
 74
0
 49
6.3499999999999996
 74
0
 49
-6.3499999999999996
 74
0
  0
LTYPE
  5
3E
100
AcDbSymbolTableRecord
100
AcDbLinetypeTableRecord
  2
CENTER2
 70
0
  3
Center (.5x) ___ _ ___ _ ___ _ ___ _ ___ _ ___
 72
65
 73
4
 40
28.5749999999999993
 49
19.0500000000000007
 74
0
 49
-3.1749999999999998
 74
0
 49
3.1749999999999998
 74
0
 49
-3.1749999999999998
 74
0
  0
LTYPE
  5
3F
100
AcDbSymbolTableRecord
100
AcDbLinetypeTableRecord
  2
CENTERX2
 70
0
  3
Center (2x) ________  __  ________  __  _____
 72
65
 73
4
 40
101.5999999999999943
 49
63.5
 74
0
 49
-12.6999999999999993
 74
0
 49
12.6999999999999993
 74
0
 49
-12.6999999999999993
 74
0
  0
LTYPE
  5
40
100
AcDbSymbolTableRecord
100
AcDbLinetypeTableRecord
  2
BORDER
 70
0
  3
Border __ __ . __ __ . __ __ . __ __ . __ __ .
 72
65
 73
6
 40
44.4500000000000028
 49
12.6999999999999993
 74
0
 49
-6.3499999999999996
 74
0
 49
12.6999999999999993
 74
0
 49
-6.3499999999999996
 74
0
 49
0.0
 74
0
 49
-6.3499999999999996
 74
0
  0
LTYPE
  5
41
100
AcDbSymbolTableRecord
100
AcDbLinetypeTableRecord
  2
BORDER2
 70
0
  3
Border (.5x) __.__.__.__.__.__.__.__.__.__.__.
 72
65
 73
6
 40
22.2250000000000014
 49
6.3499999999999996
 74
0
 49
-3.1749999999999998
 74
0
 49
6.3499999999999996
 74
0
 49
-3.1749999999999998
 74
0
 49
0.0
 74
0
 49
-3.1749999999999998
 74
0
  0
LTYPE
  5
42
100
AcDbSymbolTableRecord
100
AcDbLinetypeTableRecord
  2
BORDERX2
 70
0
  3
Border (2x) ____  ____  .  ____  ____  .  ___
 72
65
 73
6
 40
88.9000000000000057
 49
25.3999999999999986
 74
0
 49
-12.6999999999999993
 74
0
 49
25.3999999999999986
 74
0
 49
-12.6999999999999993
 74
0
 49
0.0
 74
0
 49
-12.6999999999999993
 74
0
  0
ENDTAB
  0
TABLE
  2
LAYER
  5
2
100
AcDbSymbolTable
 70
9
  0
LAYER
  5
10
100
AcDbSymbolTableRecord
100
AcDbLayerTableRecord
  2
0
 70
0
 62
7
  6
CONTINUOUS
290
1
390
F
  0
LAYER
  5
43
100
AcDbSymbolTableRecord
100
AcDbLayerTableRecord
  2
FORT
 70
0
 62
7
  6
CONTINUOUS
290
1
370
50
390
F
  0
LAYER
  5
44
100
AcDbSymbolTableRecord
100
AcDbLayerTableRecord
  2
FIN
 70
0
 62
7
  6
CONTINUOUS
290
1
370
25
390
F
  0
LAYER
  5
45
100
AcDbSymbolTableRecord
100
AcDbLayerTableRecord
  2
COTE
 70
0
 62
7
  6
CONTINUOUS
290
1
370
25
390
F
  0
LAYER
  5
46
100
AcDbSymbolTableRecord
100
AcDbLayerTableRecord
  2
TEXTE
 70
0
 62
7
  6
CONTINUOUS
290
1
370
50
390
F
  0
LAYER
  5
47
100
AcDbSymbolTableRecord
100
AcDbLayerTableRecord
  2
HACHURE
 70
0
 62
7
  6
CONTINUOUS
290
1
370
18
390
F
  0
LAYER
  5
48
100
AcDbSymbolTableRecord
100
AcDbLayerTableRecord
  2
AXES
 70
0
 62
3
  6
CENTER
290
1
370
18
390
F
  0
LAYER
  5
49
100
AcDbSymbolTableRecord
100
AcDbLayerTableRecord
  2
RENFORCE
 70
0
 62
7
  6
CONTINUOUS
290
1
370
70
390
F
  0
LAYER
  5
4A
100
AcDbSymbolTableRecord
100
AcDbLayerTableRecord
  2
INTERROMPU
 70
0
 62
5
  6
DASHED
290
1
370
25
390
F
  0
ENDTAB
  0
TABLE
  2
STYLE
  5
3
100
AcDbSymbolTable
 70
1
  0
STYLE
  5
11
100
AcDbSymbolTableRecord
100
AcDbTextStyleTableRecord
  2
Standard
 70
0
 40
0.0
 41
0.75
 50
0.0
 71
0
 42
2.5
  3
txt
  4

  0
ENDTAB
  0
TABLE
  2
VIEW
  5
6
100
AcDbSymbolTable
 70
0
  0
ENDTAB
  0
TABLE
  2
UCS
  5
7
100
AcDbSymbolTable
 70
0
  0
ENDTAB
  0
TABLE
  2
APPID
  5
9
100
AcDbSymbolTable
 70
1
  0
APPID
  5
12
100
AcDbSymbolTableRecord
100
AcDbRegAppTableRecord
  2
ACAD
 70
0
  0
ENDTAB
  0
TABLE
  2
DIMSTYLE
  5
A
100
AcDbSymbolTable
 70
1
100
AcDbDimStyleTable
 71
0
  0
DIMSTYLE
105
27
100
AcDbSymbolTableRecord
100
AcDbDimStyleTableRecord
  2
Standard
 41
0.18
 42
0.0625
 43
3.75
 44
0.18
 70
0
 73
0
 74
0
 77
1
 78
8
140
0.18
141
2.5
143
0.03937007874016
147
0.625
171
3
172
1
271
2
272
2
274
3
278
44
283
0
284
8
340
11
  0
ENDTAB
  0
TABLE
  2
BLOCK_RECORD
  5
1
100
AcDbSymbolTable
 70
1
  0
BLOCK_RECORD
  5
1F
100
AcDbSymbolTableRecord
100
AcDbBlockTableRecord
  2
*Model_Space
340
22
  0
BLOCK_RECORD
  5
1B
100
AcDbSymbolTableRecord
100
AcDbBlockTableRecord
  2
*Paper_Space
340
1E
  0
BLOCK_RECORD
  5
23
100
AcDbSymbolTableRecord
100
AcDbBlockTableRecord
  2
*Paper_Space0
340
26
  0
BLOCK_RECORD
  5
4B
100
AcDbSymbolTableRecord
100
AcDbBlockTableRecord
  2
DESDEF19-G1
340
0
  0
BLOCK_RECORD
  5
4C
100
AcDbSymbolTableRecord
100
AcDbBlockTableRecord
  2
DESDEF19-G2
340
0
  0
BLOCK_RECORD
  5
4D
100
AcDbSymbolTableRecord
100
AcDbBlockTableRecord
  2
DESDEF19-G3
340
0
  0
ENDTAB
  0
ENDSEC
  0
SECTION
  2
BLOCKS
  0
BLOCK
  5
20
100
AcDbEntity
  8
0
100
AcDbBlockBegin
  2
*Model_Space
 70
0
 10
0.0
 20
0.0
 30
0.0
  3
*Model_Space
  1

  0
ENDBLK
  5
21
100
AcDbEntity
  8
0
100
AcDbBlockEnd
  0
BLOCK
  5
1C
100
AcDbEntity
 67
1
  8
0
100
AcDbBlockBegin
  2
*Paper_Space
 70
0
 10
0.0
 20
0.0
 30
0.0
  3
*Paper_Space
  1

  0
ENDBLK
  5
1D
100
AcDbEntity
 67
1
  8
0
100
AcDbBlockEnd
  0
BLOCK
  5
24
100
AcDbEntity
  8
0
100
AcDbBlockBegin
  2
*Paper_Space0
 70
0
 10
0.0
 20
0.0
 30
0.0
  3
*Paper_Space0
  1

  0
ENDBLK
  5
25
100
AcDbEntity
  8
0
100
AcDbBlockEnd
  0
BLOCK
  5
4E
100
AcDbEntity
  8
0
100
AcDbBlockBegin
  2
DESDEF19-G1
 70
0
 10
0.0
 20
0.0
 30
0.0
  3
DESDEF19-G1
  1

  0
LINE
  5
4F
100
AcDbEntity
100
AcDbLine
  8
HACHURE
 62
5
370
-1
  6
CONTINUOUS
 10
140.5480709999999931
 20
135.5165990000000136
 30
0.0
 11
136.9712859999999921
 21
139.0933839999999861
 31
0.0
  0
LINE
  5
50
100
AcDbEntity
100
AcDbLine
  8
HACHURE
 62
5
370
-1
  6
CONTINUOUS
 10
124.8578729999999979
 20
143.1246649999999931
 30
0.0
 11
128.7215740000000039
 21
139.2609640000000013
 31
0.0
  0
LINE
  5
51
100
AcDbEntity
100
AcDbLine
  8
HACHURE
 62
5
370
-1
  6
CONTINUOUS
 10
128.8892109999999889
 20
139.0933280000000138
 30
0.0
 11
136.1604480000000024
 21
131.8220900000000029
 31
0.0
  0
LINE
  5
52
100
AcDbEntity
100
AcDbLine
  8
HACHURE
 62
5
370
-1
  6
CONTINUOUS
 10
128.558716000000004
 20
131.3416899999999998
 30
0.0
 11
117.2464690000000047
 21
142.6539370000000133
 31
0.0
  0
LINE
  5
53
100
AcDbEntity
100
AcDbLine
  8
HACHURE
 62
5
370
-1
  6
CONTINUOUS
 10
109.6366780000000034
 20
142.1815960000000132
 30
0.0
 11
120.9537610000000001
 21
130.864514000000014
 31
0.0
  0
LINE
  5
54
100
AcDbEntity
100
AcDbLine
  8
HACHURE
 62
5
370
-1
  6
CONTINUOUS
 10
113.3504169999999931
 20
130.3857250000000079
 30
0.0
 11
102.0252749999999935
 21
141.7108680000000049
 31
0.0
  0
LINE
  5
55
100
AcDbEntity
100
AcDbLine
  8
HACHURE
 62
5
370
-1
  6
CONTINUOUS
 10
94.4138719999999978
 20
141.2401389999999992
 30
0.0
 11
105.7454610000000059
 21
129.9085489999999936
 31
0.0
  0
LINE
  5
56
100
AcDbEntity
100
AcDbLine
  8
HACHURE
 62
5
370
-1
  6
CONTINUOUS
 10
99.6169969999999978
 20
127.9548810000000003
 30
0.0
 11
87.7147980000000018
 21
139.8570799999999963
 31
0.0
  0
LINE
  5
57
100
AcDbEntity
100
AcDbLine
  8
HACHURE
 62
5
370
-1
  6
CONTINUOUS
 10
81.4122500000000002
 20
138.0774969999999939
 30
0.0
 11
87.0296879999999931
 21
132.4600580000000036
 31
0.0
  0
LINE
  5
58
100
AcDbEntity
100
AcDbLine
  8
HACHURE
 62
5
370
-1
  6
CONTINUOUS
 10
93.4450120000000055
 20
126.0447350000000029
 30
0.0
 11
97.5343780000000038
 21
121.9553690000000046
 31
0.0
  0
LINE
  5
59
100
AcDbEntity
100
AcDbLine
  8
HACHURE
 62
5
370
-1
  6
CONTINUOUS
 10
95.8321650000000034
 20
115.5754500000000036
 30
0.0
 11
91.7427990000000051
 21
119.6648160000000018
 31
0.0
  0
LINE
  5
5A
100
AcDbEntity
100
AcDbLine
  8
HACHURE
 62
5
370
-1
  6
CONTINUOUS
 10
90.0389739999999961
 20
113.2865089999999952
 30
0.0
 11
94.1283399999999943
 21
109.197142999999997
 31
0.0
  0
LINE
  5
5B
100
AcDbEntity
100
AcDbLine
  8
HACHURE
 62
5
370
-1
  6
CONTINUOUS
 10
92.4261269999999939
 20
102.817223999999996
 30
0.0
 11
88.3367609999999956
 21
106.9065899999999942
 31
0.0
  0
LINE
  5
5C
100
AcDbEntity
100
AcDbLine
  8
HACHURE
 62
5
370
-1
  6
CONTINUOUS
 10
86.6329369999999983
 20
100.5282820000000044
 30
0.0
 11
90.7223019999999991
 21
96.4389160000000061
 31
0.0
  0
LINE
  5
5D
100
AcDbEntity
100
AcDbLine
  8
HACHURE
 62
5
370
-1
  6
CONTINUOUS
 10
89.0200899999999962
 20
90.0589980000000025
 30
0.0
 11
84.9307239999999979
 21
94.1483640000000008
 31
0.0
  0
LINE
  5
5E
100
AcDbEntity
100
AcDbLine
  8
HACHURE
 62
5
370
-1
  6
CONTINUOUS
 10
83.0431430000000006
 20
87.9538119999999992
 30
0.0
 11
86.621539999999996
 21
84.3754150000000038
 31
0.0
  0
LINE
  5
5F
100
AcDbEntity
100
AcDbLine
  8
HACHURE
 62
5
370
-1
  6
CONTINUOUS
 10
81.8196619999999939
 20
81.095162000000002
 30
0.0
 11
77.3950219999999973
 21
85.5198010000000011
 31
0.0
  0
LINE
  5
60
100
AcDbEntity
100
AcDbLine
  8
HACHURE
 62
5
370
-1
  6
CONTINUOUS
 10
70.6895020000000045
 20
84.1431900000000041
 30
0.0
 11
74.4935629999999946
 21
80.3391280000000023
 31
0.0
  0
LINE
  5
61
100
AcDbEntity
100
AcDbLine
  8
HACHURE
 62
5
370
-1
  6
CONTINUOUS
 10
139.6518409999999903
 20
133.7177110000000084
 30
0.0
 11
134.2761859999999956
 21
139.0933650000000057
 31
0.0
  0
LINE
  5
62
100
AcDbEntity
100
AcDbLine
  8
HACHURE
 62
5
370
-1
  6
CONTINUOUS
 10
122.3191259999999971
 20
142.9682929999999885
 30
0.0
 11
133.6265380000000107
 21
131.6608819999999866
 31
0.0
  0
LINE
  5
63
100
AcDbEntity
100
AcDbLine
  8
HACHURE
 62
5
370
-1
  6
CONTINUOUS
 10
126.0231940000000037
 20
131.1820940000000064
 30
0.0
 11
114.7093349999999958
 21
142.4959529999999859
 31
0.0
  0
LINE
  5
64
100
AcDbEntity
100
AcDbLine
  8
HACHURE
 62
5
370
-1
  6
CONTINUOUS
 10
107.0979320000000001
 20
142.0252240000000086
 30
0.0
 11
118.4182380000000023
 21
130.7049179999999922
 31
0.0
  0
LINE
  5
65
100
AcDbEntity
100
AcDbLine
  8
HACHURE
 62
5
370
-1
  6
CONTINUOUS
 10
110.8132829999999984
 20
130.2277410000000089
 30
0.0
 11
99.4865290000000044
 21
141.5544950000000028
 31
0.0
  0
LINE
  5
66
100
AcDbEntity
100
AcDbLine
  8
HACHURE
 62
5
370
-1
  6
CONTINUOUS
 10
91.8767370000000057
 20
141.0821550000000002
 30
0.0
 11
103.2099390000000056
 21
129.7489530000000002
 31
0.0
  0
LINE
  5
67
100
AcDbEntity
100
AcDbLine
  8
HACHURE
 62
5
370
-1
  6
CONTINUOUS
 10
98.6724109999999968
 20
126.2043489999999935
 30
0.0
 11
86.7992260000000044
 21
138.0775340000000142
 31
0.0
  0
LINE
  5
68
100
AcDbEntity
100
AcDbLine
  8
HACHURE
 62
5
370
-1
  6
CONTINUOUS
 10
78.7171500000000037
 20
138.0774780000000135
 30
0.0
 11
84.1476090000000028
 21
132.6470190000000002
 31
0.0
  0
LINE
  5
69
100
AcDbEntity
100
AcDbLine
  8
HACHURE
 62
5
370
-1
  6
CONTINUOUS
 10
92.8776079999999951
 20
123.9170199999999937
 30
0.0
 11
96.9669739999999933
 21
119.8276539999999954
 31
0.0
  0
LINE
  5
6A
100
AcDbEntity
100
AcDbLine
  8
HACHURE
 62
5
370
-1
  6
CONTINUOUS
 10
95.2631489999999985
 20
113.449347000000003
 30
0.0
 11
91.1753949999999946
 21
117.5371010000000069
 31
0.0
  0
LINE
  5
6B
100
AcDbEntity
100
AcDbLine
  8
HACHURE
 62
5
370
-1
  6
CONTINUOUS
 10
89.4715699999999998
 20
111.1587940000000003
 30
0.0
 11
93.5609359999999981
 21
107.069428000000002
 31
0.0
  0
LINE
  5
6C
100
AcDbEntity
100
AcDbLine
  8
HACHURE
 62
5
370
-1
  6
CONTINUOUS
 10
91.8571110000000033
 20
100.6911209999999954
 30
0.0
 11
87.7693569999999994
 21
104.7788749999999993
 31
0.0
  0
LINE
  5
6D
100
AcDbEntity
100
AcDbLine
  8
HACHURE
 62
5
370
-1
  6
CONTINUOUS
 10
86.0655320000000046
 20
98.4005680000000069
 30
0.0
 11
90.1548980000000029
 21
94.3112019999999944
 31
0.0
  0
LINE
  5
6E
100
AcDbEntity
100
AcDbLine
  8
HACHURE
 62
5
370
-1
  6
CONTINUOUS
 10
88.4494609999999994
 20
87.9345069999999964
 30
0.0
 11
84.3633190000000042
 21
92.0206490000000059
 31
0.0
  0
LINE
  5
6F
100
AcDbEntity
100
AcDbLine
  8
HACHURE
 62
5
370
-1
  6
CONTINUOUS
 10
81.7374930000000006
 20
86.5643440000000055
 30
0.0
 11
85.2933230000000009
 21
83.0085129999999936
 31
0.0
  0
LINE
  5
70
100
AcDbEntity
100
AcDbLine
  8
HACHURE
 62
5
370
-1
  6
CONTINUOUS
 10
79.556549000000004
 20
80.6631560000000007
 30
0.0
 11
74.867559
 21
85.352144999999993
 31
0.0
  0
LINE
  5
71
100
AcDbEntity
100
AcDbLine
  8
HACHURE
 62
5
370
-1
  6
CONTINUOUS
 10
70.6894829999999956
 20
81.4480899999999934
 30
0.0
 11
71.9596520000000055
 21
80.1779200000000003
 31
0.0
  0
ENDBLK
  5
72
100
AcDbEntity
  8
0
100
AcDbBlockEnd
  0
BLOCK
  5
73
100
AcDbEntity
  8
0
100
AcDbBlockBegin
  2
DESDEF19-G2
 70
0
 10
0.0
 20
0.0
 30
0.0
  3
DESDEF19-G2
  1

  0
LINE
  5
74
100
AcDbEntity
100
AcDbLine
  8
HACHURE
 62
5
370
-1
  6
CONTINUOUS
 10
135.2483159999999884
 20
179.1423819999999978
 30
0.0
 11
134.2859050000000138
 21
180.1047930000000008
 31
0.0
  0
LINE
  5
75
100
AcDbEntity
100
AcDbLine
  8
HACHURE
 62
5
370
-1
  6
CONTINUOUS
 10
128.7221979999999917
 20
185.6684999999999945
 30
0.0
 11
128.0250770000000102
 21
186.3656210000000044
 31
0.0
  0
LINE
  5
76
100
AcDbEntity
100
AcDbLine
  8
HACHURE
 62
5
370
-1
  6
CONTINUOUS
 10
120.4225629999999967
 20
185.8846519999999884
 30
0.0
 11
128.7216980000000035
 21
177.5855170000000101
 31
0.0
  0
LINE
  5
77
100
AcDbEntity
100
AcDbLine
  8
HACHURE
 62
5
370
-1
  6
CONTINUOUS
 10
122.9909470000000056
 20
175.2357320000000129
 30
0.0
 11
112.8229960000000034
 21
185.4036830000000009
 31
0.0
  0
LINE
  5
78
100
AcDbEntity
100
AcDbLine
  8
HACHURE
 62
5
370
-1
  6
CONTINUOUS
 10
105.2190089999999998
 20
184.9241879999999867
 30
0.0
 11
114.362647999999993
 21
175.7805490000000077
 31
0.0
  0
LINE
  5
79
100
AcDbEntity
100
AcDbLine
  8
HACHURE
 62
5
370
-1
  6
CONTINUOUS
 10
105.7358219999999989
 20
176.3268390000000068
 30
0.0
 11
97.6194420000000065
 21
184.4432189999999991
 31
0.0
  0
LINE
  5
7A
100
AcDbEntity
100
AcDbLine
  8
HACHURE
 62
5
370
-1
  6
CONTINUOUS
 10
90.0169279999999929
 20
183.9622500000000116
 30
0.0
 11
97.1075230000000005
 21
176.8716550000000041
 31
0.0
  0
LINE
  5
7B
100
AcDbEntity
100
AcDbLine
  8
HACHURE
 62
5
370
-1
  6
CONTINUOUS
 10
88.4806970000000064
 20
177.4179460000000006
 30
0.0
 11
87.7157799999999952
 21
178.1828629999999976
 31
0.0
  0
LINE
  5
7C
100
AcDbEntity
100
AcDbLine
  8
HACHURE
 62
5
370
-1
  6
CONTINUOUS
 10
85.739373999999998
 20
180.1592689999999948
 30
0.0
 11
84.776962999999995
 21
181.1216790000000003
 31
0.0
  0
LINE
  5
7D
100
AcDbEntity
100
AcDbLine
  8
HACHURE
 62
5
370
-1
  6
CONTINUOUS
 10
76.6939809999999937
 20
181.1211790000000121
 30
0.0
 11
77.654917999999995
 21
180.1602420000000109
 31
0.0
  0
LINE
  5
7E
100
AcDbEntity
100
AcDbLine
  8
HACHURE
 62
5
370
-1
  6
CONTINUOUS
 10
140.6340230000000133
 20
179.1427160000000072
 30
0.0
 11
139.6716120000000103
 21
180.1051260000000127
 31
0.0
  0
LINE
  5
7F
100
AcDbEntity
100
AcDbLine
  8
HACHURE
 62
5
370
-1
  6
CONTINUOUS
 10
125.4884490000000028
 20
186.2048069999999882
 30
0.0
 11
128.722030999999987
 21
182.9712240000000065
 31
0.0
  0
LINE
  5
80
100
AcDbEntity
100
AcDbLine
  8
HACHURE
 62
5
370
-1
  6
CONTINUOUS
 10
131.5886299999999949
 20
180.1046259999999961
 30
0.0
 11
132.5510409999999979
 21
179.1422149999999931
 31
0.0
  0
LINE
  5
81
100
AcDbEntity
100
AcDbLine
  8
HACHURE
 62
5
370
-1
  6
CONTINUOUS
 10
128.7215309999999988
 20
174.8911899999999946
 30
0.0
 11
117.888883000000007
 21
185.7238380000000006
 31
0.0
  0
LINE
  5
82
100
AcDbEntity
100
AcDbLine
  8
HACHURE
 62
5
370
-1
  6
CONTINUOUS
 10
110.2848950000000059
 20
185.244341999999989
 30
0.0
 11
120.1123910000000024
 21
175.4168459999999925
 31
0.0
  0
LINE
  5
83
100
AcDbEntity
100
AcDbLine
  8
HACHURE
 62
5
370
-1
  6
CONTINUOUS
 10
111.485564999999994
 20
175.963136999999989
 30
0.0
 11
102.6853279999999984
 21
184.7633730000000014
 31
0.0
  0
LINE
  5
84
100
AcDbEntity
100
AcDbLine
  8
HACHURE
 62
5
370
-1
  6
CONTINUOUS
 10
95.0828139999999991
 20
184.2824040000000139
 30
0.0
 11
102.8572659999999956
 21
176.5079529999999863
 31
0.0
  0
LINE
  5
85
100
AcDbEntity
100
AcDbLine
  8
HACHURE
 62
5
370
-1
  6
CONTINUOUS
 10
94.2304400000000015
 20
177.0542430000000138
 30
0.0
 11
87.7161130000000071
 21
183.568569999999994
 31
0.0
  0
LINE
  5
86
100
AcDbEntity
100
AcDbLine
  8
HACHURE
 62
5
370
-1
  6
CONTINUOUS
 10
82.0796880000000044
 20
181.1215119999999956
 30
0.0
 11
83.0420989999999932
 21
180.1591019999999901
 31
0.0
  0
ENDBLK
  5
87
100
AcDbEntity
  8
0
100
AcDbBlockEnd
  0
BLOCK
  5
88
100
AcDbEntity
  8
0
100
AcDbBlockBegin
  2
DESDEF19-G3
 70
0
 10
0.0
 20
0.0
 30
0.0
  3
DESDEF19-G3
  1

  0
LINE
  5
89
100
AcDbEntity
100
AcDbLine
  8
HACHURE
 62
5
370
-1
  6
CONTINUOUS
 10
134.6501089999999863
 20
222.1843409999999892
 30
0.0
 11
129.9902329999999893
 21
226.8442180000000121
 31
0.0
  0
LINE
  5
8A
100
AcDbEntity
100
AcDbLine
  8
HACHURE
 62
5
370
-1
  6
CONTINUOUS
 10
121.3711449999999985
 20
227.3805879999999888
 30
0.0
 11
128.7225720000000138
 21
220.0291620000000137
 31
0.0
  0
LINE
  5
8B
100
AcDbEntity
100
AcDbLine
  8
HACHURE
 62
5
370
-1
  6
CONTINUOUS
 10
124.5201390000000004
 20
216.1488779999999963
 30
0.0
 11
112.7520580000000052
 21
227.9169589999999914
 31
0.0
  0
LINE
  5
8C
100
AcDbEntity
100
AcDbLine
  8
HACHURE
 62
5
370
-1
  6
CONTINUOUS
 10
104.1345819999999947
 20
228.4517189999999971
 30
0.0
 11
115.8913880000000063
 21
216.6949130000000139
 31
0.0
  0
LINE
  5
8D
100
AcDbEntity
100
AcDbLine
  8
HACHURE
 62
5
370
-1
  6
CONTINUOUS
 10
107.2658569999999969
 20
217.2409470000000056
 30
0.0
 11
95.5187159999999977
 21
228.9880890000000022
 31
0.0
  0
LINE
  5
8E
100
AcDbEntity
100
AcDbLine
  8
HACHURE
 62
5
370
-1
  6
CONTINUOUS
 10
78.7814889999999934
 20
237.6425989999999899
 30
0.0
 11
98.6371060000000028
 21
217.7869819999999947
 31
0.0
  0
LINE
  5
8F
100
AcDbEntity
100
AcDbLine
  8
HACHURE
 62
5
370
-1
  6
CONTINUOUS
 10
90.009964999999994
 20
218.3314070000000129
 30
0.0
 11
87.7162679999999995
 21
220.6251029999999957
 31
0.0
  0
LINE
  5
90
100
AcDbEntity
100
AcDbLine
  8
HACHURE
 62
5
370
-1
  6
CONTINUOUS
 10
87.1718369999999965
 20
221.1695339999999987
 30
0.0
 11
81.3200120000000055
 21
227.0213599999999872
 31
0.0
  0
LINE
  5
91
100
AcDbEntity
100
AcDbLine
  8
HACHURE
 62
5
370
-1
  6
CONTINUOUS
 10
75.4778500000000037
 20
232.8635209999999915
 30
0.0
 11
70.6891140000000036
 21
237.6522569999999916
 31
0.0
  0
LINE
  5
92
100
AcDbEntity
100
AcDbLine
  8
HACHURE
 62
5
370
-1
  6
CONTINUOUS
 10
76.9500620000000026
 20
223.3085930000000019
 30
0.0
 11
79.0891270000000048
 21
221.169526999999988
 31
0.0
  0
LINE
  5
93
100
AcDbEntity
100
AcDbLine
  8
HACHURE
 62
5
370
-1
  6
CONTINUOUS
 10
140.0396560000000079
 20
222.184346000000005
 30
0.0
 11
135.7357539999999858
 21
226.4882479999999987
 31
0.0
  0
LINE
  5
94
100
AcDbEntity
100
AcDbLine
  8
HACHURE
 62
5
370
-1
  6
CONTINUOUS
 10
127.1182770000000062
 20
227.0230080000000044
 30
0.0
 11
131.9569459999999879
 21
222.1843389999999943
 31
0.0
  0
LINE
  5
95
100
AcDbEntity
100
AcDbLine
  8
HACHURE
 62
5
370
-1
  6
CONTINUOUS
 10
128.7225699999999904
 20
217.3359989999999868
 30
0.0
 11
118.4991899999999987
 21
227.559379000000007
 31
0.0
  0
LINE
  5
96
100
AcDbEntity
100
AcDbLine
  8
HACHURE
 62
5
370
-1
  6
CONTINUOUS
 10
109.8817140000000023
 20
228.0941379999999867
 30
0.0
 11
121.6449630000000042
 21
216.3308890000000133
 31
0.0
  0
LINE
  5
97
100
AcDbEntity
100
AcDbLine
  8
HACHURE
 62
5
370
-1
  6
CONTINUOUS
 10
113.0194319999999948
 20
216.8769240000000025
 30
0.0
 11
101.2658480000000054
 21
228.6305089999999893
 31
0.0
  0
LINE
  5
98
100
AcDbEntity
100
AcDbLine
  8
HACHURE
 62
5
370
-1
  6
CONTINUOUS
 10
92.6483709999999974
 20
229.1652679999999975
 30
0.0
 11
104.3906810000000007
 21
217.4229589999999916
 31
0.0
  0
LINE
  5
99
100
AcDbEntity
100
AcDbLine
  8
HACHURE
 62
5
370
-1
  6
CONTINUOUS
 10
95.761928999999995
 20
217.9689940000000092
 30
0.0
 11
75.9111439999999931
 21
237.8197790000000111
 31
0.0
  0
LINE
  5
9A
100
AcDbEntity
100
AcDbLine
  8
HACHURE
 62
5
370
-1
  6
CONTINUOUS
 10
70.6891119999999944
 20
234.9590939999999932
 30
0.0
 11
72.6058950000000038
 21
233.0423110000000122
 31
0.0
  0
LINE
  5
9B
100
AcDbEntity
100
AcDbLine
  8
HACHURE
 62
5
370
-1
  6
CONTINUOUS
 10
79.4579920000000044
 20
226.1902149999999949
 30
0.0
 11
84.4786749999999955
 21
221.1695320000000038
 31
0.0
  0
ENDBLK
  5
9C
100
AcDbEntity
  8
0
100
AcDbBlockEnd
  0
ENDSEC
  0
SECTION
  2
ENTITIES
  0
CIRCLE
  5
9D
100
AcDbEntity
100
AcDbCircle
  8
FORT
 62
7
370
-1
  6
CONTINUOUS
 10
305.3002940000000081
 20
159.117715000000004
 30
0.0
 40
79.0240000000000009
  0
CIRCLE
  5
9E
100
AcDbEntity
100
AcDbCircle
  8
FORT
 62
7
370
-1
  6
CONTINUOUS
 10
305.3002940000000081
 20
159.117715000000004
 30
0.0
 40
74.0420000000000016
  0
LINE
  5
9F
100
AcDbEntity
100
AcDbLine
  8
FORT
 62
7
370
-1
  6
CONTINUOUS
 10
70.6886180000000053
 20
80.0937150000000031
 30
0.0
 11
70.6886180000000053
 21
238.1417150000000049
 31
0.0
  0
LINE
  5
A0
100
AcDbEntity
100
AcDbLine
  8
COTE
 62
1
370
-1
  6
CONTINUOUS
 10
37.2008829999999975
 20
138.1505029999999863
 30
0.0
 11
37.2008829999999975
 21
180.121703999999994
 31
0.0
  0
LINE
  5
A1
100
AcDbEntity
100
AcDbLine
  8
COTE
 62
1
370
-1
  6
CONTINUOUS
 10
41.9787329999999983
 20
143.8613960000000134
 30
0.0
 11
41.9787329999999983
 21
148.8647060000000124
 31
0.0
  0
LINE
  5
A2
100
AcDbEntity
100
AcDbLine
  8
COTE
 62
1
370
-1
  6
CONTINUOUS
 10
46.9836979999999969
 20
148.8647060000000124
 30
0.0
 11
46.9836979999999969
 21
143.8613960000000134
 31
0.0
  0
LINE
  5
A3
100
AcDbEntity
100
AcDbLine
  8
FORT
 62
7
370
-1
  6
CONTINUOUS
 10
87.7146180000000015
 20
138.077715000000012
 30
0.0
 11
87.7146180000000015
 21
180.1577149999999961
 31
0.0
  0
LINE
  5
A4
100
AcDbEntity
100
AcDbLine
  8
COTE
 62
1
370
-1
  6
CONTINUOUS
 10
56.991973999999999
 20
143.8613960000000134
 30
0.0
 11
56.991973999999999
 21
148.8647060000000124
 31
0.0
  0
LINE
  5
A5
100
AcDbEntity
100
AcDbLine
  8
FORT
 62
7
370
-1
  6
CONTINUOUS
 10
140.7166180000000111
 20
136.8008680000000084
 30
0.0
 11
140.7166180000000111
 21
221.479140000000001
 31
0.0
  0
LINE
  5
A6
100
AcDbEntity
100
AcDbLine
  8
COTE
 62
1
370
-1
  6
CONTINUOUS
 10
158.836701000000005
 20
148.667855000000003
 30
0.0
 11
157.4480880000000127
 21
146.3126750000000129
 31
0.0
  0
LINE
  5
A7
100
AcDbEntity
100
AcDbLine
  8
FORT
 62
7
370
-1
  6
CONTINUOUS
 10
128.7226180000000113
 20
179.1417150000000049
 30
0.0
 11
128.7226180000000113
 21
139.0937150000000031
 31
0.0
  0
LINE
  5
A8
100
AcDbEntity
100
AcDbLine
  8
COTE
 62
1
370
-1
  6
CONTINUOUS
 10
156.5723189999999931
 20
144.8773960000000045
 30
0.0
 11
156.5723189999999931
 21
149.8807060000000035
 31
0.0
  0
LINE
  5
A9
100
AcDbEntity
100
AcDbLine
  8
COTE
 62
1
370
-1
  6
CONTINUOUS
 10
182.7344080000000019
 20
139.0937150000000031
 30
0.0
 11
182.7344080000000019
 21
179.094114999999988
 31
0.0
  0
LINE
  5
AA
100
AcDbEntity
100
AcDbLine
  8
COTE
 62
1
370
-1
  6
CONTINUOUS
 10
171.5855599999999868
 20
144.8773960000000045
 30
0.0
 11
171.5855599999999868
 21
149.8807060000000035
 31
0.0
  0
LINE
  5
AB
100
AcDbEntity
100
AcDbLine
  8
COTE
 62
1
370
-1
  6
CONTINUOUS
 10
161.5772839999999917
 20
149.8807060000000035
 30
0.0
 11
161.5772839999999917
 21
144.8773960000000045
 31
0.0
  0
LINE
  5
AC
100
AcDbEntity
100
AcDbLine
  8
FORT
 62
7
370
-1
  6
CONTINUOUS
 10
76.6866179999999957
 20
137.8164510000000007
 30
0.0
 11
76.6866179999999957
 21
221.7144099999999867
 31
0.0
  0
LWPOLYLINE
  5
AD
  8
HACHURE
 62
5
370
-1
  6
CONTINUOUS
100
AcDbEntity
100
AcDbPolyline
 90
20
 70
1
 10
140.7166180000000111
 20
139.0937150000000031
 10
128.7226180000000113
 20
139.0937150000000031
 10
128.7226180000000113
 20
143.3637150000000133
 10
87.7146180000000015
 20
140.8237149999999929
 10
87.7146180000000015
 20
138.077715000000012
 10
76.6866179999999957
 20
138.077715000000012
 10
76.6866179999999957
 20
137.8164510000000007
 42
0.3953580001275645
 10
81.3628309999999999
 20
132.8269459999999924
 10
88.9416489999999982
 20
132.3351289999999949
 42
-0.4728710000000005
 10
93.4487220000000178
 20
126.0561330000000027
 10
83.6462099999999964
 20
89.3326930000000061
 42
-0.321403
 10
79.1453539999999975
 20
85.6330870000000033
 10
70.6886180000000053
 20
85.0737150000000071
 10
70.6886180000000053
 20
80.0937150000000031
 10
79.4606079999999935
 20
80.6536300000000068
 42
0.3220279999999994
 10
88.4852229999999906
 20
88.0539449999999846
 10
98.6270049999999969
 20
126.0422159999999963
 42
-0.322288
 10
103.1440089999999969
 20
129.7426710000000014
 10
136.0304219999999873
 20
131.8107249999999908
 42
0.3959370000209582
 10
140.7166179999999827
 20
136.8008680003623851
  0
INSERT
  5
AE
100
AcDbEntity
100
AcDbBlockReference
  8
HACHURE
 62
256
370
-1
  6
ByLayer
  2
DESDEF19-G1
 10
0.0
 20
0.0
 30
0.0
  0
LINE
  5
AF
100
AcDbEntity
100
AcDbLine
  8
FORT
 62
7
370
-1
  6
CONTINUOUS
 10
136.0304219999999873
 20
131.8107249999999908
 30
0.0
 11
103.1440089999999969
 21
129.7426710000000014
 31
0.0
  0
LINE
  5
B0
100
AcDbEntity
100
AcDbLine
  8
COTE
 62
1
370
-1
  6
CONTINUOUS
 10
60.5959339999999997
 20
61.1125830000000008
 30
0.0
 11
128.6826599999999985
 21
61.1125830000000008
 31
0.0
  0
LINE
  5
B1
100
AcDbEntity
100
AcDbLine
  8
FORT
 62
7
370
-1
  6
CONTINUOUS
 10
87.7146180000000015
 20
140.8237149999999929
 30
0.0
 11
128.7226180000000113
 21
143.3637150000000133
 31
0.0
  0
LINE
  5
B2
100
AcDbEntity
100
AcDbLine
  8
COTE
 62
1
370
-1
  6
CONTINUOUS
 10
76.7031829999999957
 20
59.1125830000000008
 30
0.0
 11
76.7031829999999957
 21
134.5173130000000015
 31
0.0
  0
LINE
  5
B3
100
AcDbEntity
100
AcDbLine
  8
COTE
 62
1
370
-1
  6
CONTINUOUS
 10
87.6796810000000022
 20
136.1603570000000047
 30
0.0
 11
87.6796810000000022
 21
59.1125830000000008
 31
0.0
  0
LINE
  5
B4
100
AcDbEntity
100
AcDbLine
  8
COTE
 62
1
370
-1
  6
CONTINUOUS
 10
70.6886180000000053
 20
59.1125830000000008
 30
0.0
 11
70.6886180000000053
 21
79.218008999999995
 31
0.0
  0
LINE
  5
B5
100
AcDbEntity
100
AcDbLine
  8
COTE
 62
1
370
-1
  6
CONTINUOUS
 10
68.6464390000000009
 20
61.6837340000000012
 30
0.0
 11
70.6886180000000053
 21
61.1125830000000008
 31
0.0
  0
LINE
  5
B6
100
AcDbEntity
100
AcDbLine
  8
COTE
 62
1
370
-1
  6
CONTINUOUS
 10
68.6464390000000009
 20
60.5414329999999978
 30
0.0
 11
70.6886180000000053
 21
61.1125830000000008
 31
0.0
  0
LINE
  5
B7
100
AcDbEntity
100
AcDbLine
  8
COTE
 62
1
370
-1
  6
CONTINUOUS
 10
78.7453629999999976
 20
61.6837340000000012
 30
0.0
 11
76.7031829999999957
 21
61.1125830000000008
 31
0.0
  0
LINE
  5
B8
100
AcDbEntity
100
AcDbLine
  8
COTE
 62
1
370
-1
  6
CONTINUOUS
 10
78.7453629999999976
 20
60.5414329999999978
 30
0.0
 11
76.7031829999999957
 21
61.1125830000000008
 31
0.0
  0
LINE
  5
B9
100
AcDbEntity
100
AcDbLine
  8
COTE
 62
1
370
-1
  6
CONTINUOUS
 10
85.6375019999999978
 20
61.6837340000000012
 30
0.0
 11
87.6796810000000022
 21
61.1125830000000008
 31
0.0
  0
LINE
  5
BA
100
AcDbEntity
100
AcDbLine
  8
COTE
 62
1
370
-1
  6
CONTINUOUS
 10
85.6375019999999978
 20
60.5414329999999978
 30
0.0
 11
87.6796810000000022
 21
61.1125830000000008
 31
0.0
  0
LINE
  5
BB
100
AcDbEntity
100
AcDbLine
  8
COTE
 62
1
370
-1
  6
CONTINUOUS
 10
89.7218610000000041
 20
61.6837340000000012
 30
0.0
 11
87.6796810000000022
 21
61.1125830000000008
 31
0.0
  0
LINE
  5
BC
100
AcDbEntity
100
AcDbLine
  8
COTE
 62
1
370
-1
  6
CONTINUOUS
 10
89.7218610000000041
 20
60.5414329999999978
 30
0.0
 11
87.6796810000000022
 21
61.1125830000000008
 31
0.0
  0
LINE
  5
BD
100
AcDbEntity
100
AcDbLine
  8
COTE
 62
1
370
-1
  6
CONTINUOUS
 10
36.5888950000000008
 20
111.0417529999999999
 30
0.0
 11
56.565724000000003
 21
111.0417529999999999
 31
0.0
  0
LINE
  5
BE
100
AcDbEntity
100
AcDbLine
  8
COTE
 62
1
370
-1
  6
CONTINUOUS
 10
36.5888950000000008
 20
116.0467179999999985
 30
0.0
 11
56.565724000000003
 21
116.0467179999999985
 31
0.0
  0
LINE
  5
BF
100
AcDbEntity
100
AcDbLine
  8
COTE
 62
1
370
-1
  6
CONTINUOUS
 10
32.2008829999999975
 20
138.1505029999999863
 30
0.0
 11
74.3363049999999959
 21
138.1505029999999863
 31
0.0
  0
LINE
  5
C0
100
AcDbEntity
100
AcDbLine
  8
COTE
 62
1
370
-1
  6
CONTINUOUS
 10
41.9787329999999983
 20
143.8613960000000134
 30
0.0
 11
56.991973999999999
 21
143.8613960000000134
 31
0.0
  0
LWPOLYLINE
  5
C1
  8
COTE
 62
1
370
-1
  6
CONTINUOUS
100
AcDbEntity
100
AcDbPolyline
 90
2
 70
0
 10
34.7199159999999978
 20
131.2124029999999948
 10
34.7199159999999978
 20
126.2074379999999962
  0
LWPOLYLINE
  5
C2
  8
COTE
 62
1
370
-1
  6
CONTINUOUS
100
AcDbEntity
100
AcDbPolyline
 90
2
 70
0
 10
39.7232259999999968
 20
126.2074379999999962
 10
39.7232259999999968
 20
131.2124029999999948
  0
LWPOLYLINE
  5
C3
  8
COTE
 62
1
370
-1
  6
CONTINUOUS
100
AcDbEntity
100
AcDbPolyline
 90
2
 70
0
 10
34.7199159999999978
 20
126.2074379999999962
 10
39.7232259999999968
 20
126.2074379999999962
  0
LINE
  5
C4
100
AcDbEntity
100
AcDbLine
  8
COTE
 62
1
370
-1
  6
CONTINUOUS
 10
36.5888950000000008
 20
111.0417529999999999
 30
0.0
 11
36.5888950000000008
 21
116.0467179999999985
 31
0.0
  0
LINE
  5
C5
100
AcDbEntity
100
AcDbLine
  8
COTE
 62
1
370
-1
  6
CONTINUOUS
 10
41.5508280000000028
 20
116.0467179999999985
 30
0.0
 11
41.5508280000000028
 21
111.0417529999999999
 31
0.0
  0
LINE
  5
C6
100
AcDbEntity
100
AcDbLine
  8
COTE
 62
1
370
-1
  6
CONTINUOUS
 10
50.04636
 20
111.0417529999999999
 30
0.0
 11
50.04636
 21
116.0467179999999985
 31
0.0
  0
LINE
  5
C7
100
AcDbEntity
100
AcDbLine
  8
COTE
 62
1
370
-1
  6
CONTINUOUS
 10
39.4159790000000001
 20
113.8893699999999995
 30
0.0
 11
38.4063790000000012
 21
112.1647750000000059
 31
0.0
  0
LINE
  5
C8
100
AcDbEntity
100
AcDbLine
  8
COTE
 62
1
370
-1
  6
CONTINUOUS
 10
39.5417649999999981
 20
113.8049610000000058
 30
0.0
 11
39.2901930000000021
 21
113.9737789999999933
 31
0.0
  0
LINE
  5
C9
100
AcDbEntity
100
AcDbLine
  8
COTE
 62
1
370
-1
  6
CONTINUOUS
 10
39.2901930000000021
 20
113.9737789999999933
 30
0.0
 11
39.9207790000000031
 21
114.7731830000000031
 31
0.0
  0
LINE
  5
CA
100
AcDbEntity
100
AcDbLine
  8
COTE
 62
1
370
-1
  6
CONTINUOUS
 10
39.9207790000000031
 20
114.7731830000000031
 30
0.0
 11
39.5417649999999981
 21
113.8049610000000058
 31
0.0
  0
LINE
  5
CB
100
AcDbEntity
100
AcDbLine
  8
COTE
 62
1
370
-1
  6
CONTINUOUS
 10
37.2008829999999975
 20
135.5992119999999943
 30
0.0
 11
38.8177110000000027
 21
138.1505029999999863
 31
0.0
  0
LWPOLYLINE
  5
CC
  8
COTE
 62
1
370
-1
  6
CONTINUOUS
100
AcDbEntity
100
AcDbPolyline
 90
2
 70
0
 10
39.7232259999999968
 20
131.2124029999999948
 10
34.7199159999999978
 20
131.2124029999999948
  0
LINE
  5
CD
100
AcDbEntity
100
AcDbLine
  8
COTE
 62
1
370
-1
  6
CONTINUOUS
 10
35.7108009999999965
 20
137.9505029999999977
 30
0.0
 11
38.6909649999999985
 21
137.9505029999999977
 31
0.0
  0
LINE
  5
CE
100
AcDbEntity
100
AcDbLine
  8
COTE
 62
1
370
-1
  6
CONTINUOUS
 10
35.8375470000000007
 20
137.750503000000009
 30
0.0
 11
38.5642190000000014
 21
137.750503000000009
 31
0.0
  0
LINE
  5
CF
100
AcDbEntity
100
AcDbLine
  8
COTE
 62
1
370
-1
  6
CONTINUOUS
 10
35.9642920000000004
 20
137.550502999999992
 30
0.0
 11
38.4374729999999971
 21
137.550502999999992
 31
0.0
  0
LINE
  5
D0
100
AcDbEntity
100
AcDbLine
  8
COTE
 62
1
370
-1
  6
CONTINUOUS
 10
37.2008829999999975
 20
135.5992119999999943
 30
0.0
 11
37.2008829999999975
 21
131.2124029999999948
 31
0.0
  0
LINE
  5
D1
100
AcDbEntity
100
AcDbLine
  8
COTE
 62
1
370
-1
  6
CONTINUOUS
 10
35.5840549999999993
 20
138.1505029999999863
 30
0.0
 11
37.2008829999999975
 21
135.5992119999999943
 31
0.0
  0
LINE
  5
D2
100
AcDbEntity
100
AcDbLine
  8
COTE
 62
1
370
-1
  6
CONTINUOUS
 10
37.1050049999999985
 20
135.750503000000009
 30
0.0
 11
37.296759999999999
 21
135.750503000000009
 31
0.0
  0
LINE
  5
D3
100
AcDbEntity
100
AcDbLine
  8
COTE
 62
1
370
-1
  6
CONTINUOUS
 10
37.7720330000000004
 20
140.1926829999999882
 30
0.0
 11
37.2008829999999975
 21
138.1505029999999863
 31
0.0
  0
LINE
  5
D4
100
AcDbEntity
100
AcDbLine
  8
COTE
 62
1
370
-1
  6
CONTINUOUS
 10
36.6297330000000017
 20
140.1926829999999882
 30
0.0
 11
37.2008829999999975
 21
138.1505029999999863
 31
0.0
  0
LINE
  5
D5
100
AcDbEntity
100
AcDbLine
  8
COTE
 62
1
370
-1
  6
CONTINUOUS
 10
36.9782590000000013
 20
135.9505029999999977
 30
0.0
 11
37.4235060000000033
 21
135.9505029999999977
 31
0.0
  0
LINE
  5
D6
100
AcDbEntity
100
AcDbLine
  8
COTE
 62
1
370
-1
  6
CONTINUOUS
 10
36.8515129999999971
 20
136.1505029999999863
 30
0.0
 11
37.5502520000000004
 21
136.1505029999999863
 31
0.0
  0
LINE
  5
D7
100
AcDbEntity
100
AcDbLine
  8
COTE
 62
1
370
-1
  6
CONTINUOUS
 10
36.7247679999999974
 20
136.3505030000000033
 30
0.0
 11
37.6769979999999975
 21
136.3505030000000033
 31
0.0
  0
LINE
  5
D8
100
AcDbEntity
100
AcDbLine
  8
COTE
 62
1
370
-1
  6
CONTINUOUS
 10
36.5980220000000003
 20
136.550502999999992
 30
0.0
 11
37.8037440000000018
 21
136.550502999999992
 31
0.0
  0
LINE
  5
D9
100
AcDbEntity
100
AcDbLine
  8
COTE
 62
1
370
-1
  6
CONTINUOUS
 10
36.4785809999999984
 20
136.750503000000009
 30
0.0
 11
37.9304899999999989
 21
136.750503000000009
 31
0.0
  0
LINE
  5
DA
100
AcDbEntity
100
AcDbLine
  8
COTE
 62
1
370
-1
  6
CONTINUOUS
 10
36.0910379999999975
 20
137.3505030000000033
 30
0.0
 11
38.310727
 21
137.3505030000000033
 31
0.0
  0
LINE
  5
DB
100
AcDbEntity
100
AcDbLine
  8
COTE
 62
1
370
-1
  6
CONTINUOUS
 10
36.2177840000000018
 20
137.1505029999999863
 30
0.0
 11
38.1839810000000028
 21
137.1505029999999863
 31
0.0
  0
LINE
  5
DC
100
AcDbEntity
100
AcDbLine
  8
COTE
 62
1
370
-1
  6
CONTINUOUS
 10
36.3445299999999989
 20
136.9505029999999977
 30
0.0
 11
38.0572360000000032
 21
136.9505029999999977
 31
0.0
  0
CIRCLE
  5
DD
100
AcDbEntity
100
AcDbCircle
  8
COTE
 62
1
370
-1
  6
CONTINUOUS
 10
44.5019830000000027
 20
146.3564049999999952
 30
0.0
 40
0.880888
  0
LINE
  5
DE
100
AcDbEntity
100
AcDbLine
  8
COTE
 62
1
370
-1
  6
CONTINUOUS
 10
44.2431160000000006
 20
147.6518550000000118
 30
0.0
 11
42.8545030000000011
 21
145.2966749999999934
 31
0.0
  0
LINE
  5
DF
100
AcDbEntity
100
AcDbLine
  8
COTE
 62
1
370
-1
  6
CONTINUOUS
 10
46.1434840000000008
 20
147.4338830000000087
 30
0.0
 11
44.7565260000000009
 21
145.0373250000000098
 31
0.0
  0
LINE
  5
E0
100
AcDbEntity
100
AcDbLine
  8
FIN
 62
5
370
-1
  6
CONTINUOUS
 10
82.5717899999999929
 20
132.7465210000000013
 30
0.0
 11
82.5717899999999929
 21
91.601545999999999
 31
0.0
  0
LINE
  5
E1
100
AcDbEntity
100
AcDbLine
  8
FORT
 62
7
370
-1
  6
CONTINUOUS
 10
88.4852230000000048
 20
88.0539449999999988
 30
0.0
 11
98.6270049999999969
 21
126.0422159999999963
 31
0.0
  0
LINE
  5
E2
100
AcDbEntity
100
AcDbLine
  8
FORT
 62
7
370
-1
  6
CONTINUOUS
 10
83.6462099999999964
 20
89.3326930000000061
 30
0.0
 11
93.4487220000000036
 21
126.0561330000000027
 31
0.0
  0
ARC
  5
E3
100
AcDbEntity
  8
FORT
 62
7
370
-1
  6
CONTINUOUS
100
AcDbCircle
 10
78.8153499999999951
 20
90.6221850000000018
 30
0.0
 40
5.0
100
AcDbArc
 50
273.7843219999999747
 51
345.0546079999999733
  0
ARC
  5
E4
100
AcDbEntity
  8
FORT
 62
7
370
-1
  6
CONTINUOUS
100
AcDbCircle
 10
78.8236069999999955
 20
90.6333199999999977
 30
0.0
 40
10.0
100
AcDbArc
 50
273.6522229999999922
 51
345.0522819999999911
  0
LINE
  5
E5
100
AcDbEntity
100
AcDbLine
  8
FORT
 62
7
370
-1
  6
CONTINUOUS
 10
79.4606079999999935
 20
80.6536300000000068
 30
0.0
 11
70.6886180000000053
 21
80.0937150000000031
 31
0.0
  0
LINE
  5
E6
100
AcDbEntity
100
AcDbLine
  8
FORT
 62
7
370
-1
  6
CONTINUOUS
 10
70.6886180000000053
 20
85.0737150000000071
 30
0.0
 11
79.1453539999999975
 21
85.6330870000000033
 31
0.0
  0
ARC
  5
E7
100
AcDbEntity
  8
FORT
 62
7
370
-1
  6
CONTINUOUS
100
AcDbCircle
 10
88.6178620000000024
 20
127.3456240000000008
 30
0.0
 40
5.0
100
AcDbArc
 50
345.0546079999999733
 51
86.287075999999999
  0
LINE
  5
E8
100
AcDbEntity
100
AcDbLine
  8
COTE
 62
1
370
-1
  6
CONTINUOUS
 10
56.565724000000003
 20
113.5227200000000067
 30
0.0
 11
87.6796810000000022
 21
113.5227200000000067
 31
0.0
  0
LINE
  5
E9
100
AcDbEntity
100
AcDbLine
  8
COTE
 62
1
370
-1
  6
CONTINUOUS
 10
56.565724000000003
 20
111.0417529999999999
 30
0.0
 11
56.565724000000003
 21
116.0467179999999985
 31
0.0
  0
ARC
  5
EA
100
AcDbEntity
  8
FORT
 62
7
370
-1
  6
CONTINUOUS
100
AcDbCircle
 10
103.4578130000000016
 20
124.7525279999999981
 30
0.0
 40
5.0
100
AcDbArc
 50
93.5982929999999982
 51
165.0522819999999911
  0
LINE
  5
EB
100
AcDbEntity
100
AcDbLine
  8
COTE
 62
1
370
-1
  6
CONTINUOUS
 10
85.6375019999999978
 20
114.0938709999999929
 30
0.0
 11
87.6796810000000022
 21
113.5227200000000067
 31
0.0
  0
LINE
  5
EC
100
AcDbEntity
100
AcDbLine
  8
COTE
 62
1
370
-1
  6
CONTINUOUS
 10
85.6375019999999978
 20
112.9515700000000038
 30
0.0
 11
87.6796810000000022
 21
113.5227200000000067
 31
0.0
  0
LINE
  5
ED
100
AcDbEntity
100
AcDbLine
  8
COTE
 62
1
370
-1
  6
CONTINUOUS
 10
80.8124020000000058
 20
146.3630510000000129
 30
0.0
 11
56.991973999999999
 21
146.3630510000000129
 31
0.0
  0
ARC
  5
EE
100
AcDbEntity
  8
FORT
 62
7
370
-1
  6
CONTINUOUS
100
AcDbCircle
 10
81.6866179999999957
 20
137.8164510000000007
 30
0.0
 40
5.0
100
AcDbArc
 50
180.0
 51
266.2870760000000132
  0
LINE
  5
EF
100
AcDbEntity
100
AcDbLine
  8
COTE
 62
1
370
-1
  6
CONTINUOUS
 10
80.8124020000000058
 20
138.077715000000012
 30
0.0
 11
80.8124020000000058
 21
146.3630510000000129
 31
0.0
  0
LINE
  5
F0
100
AcDbEntity
100
AcDbLine
  8
FORT
 62
7
370
-1
  6
CONTINUOUS
 10
76.6866179999999957
 20
138.077715000000012
 30
0.0
 11
87.7146180000000015
 21
138.077715000000012
 31
0.0
  0
LINE
  5
F1
100
AcDbEntity
100
AcDbLine
  8
COTE
 62
1
370
-1
  6
CONTINUOUS
 10
81.3835530000000063
 20
140.1198950000000139
 30
0.0
 11
80.8124020000000058
 21
138.077715000000012
 31
0.0
  0
LINE
  5
F2
100
AcDbEntity
100
AcDbLine
  8
COTE
 62
1
370
-1
  6
CONTINUOUS
 10
80.2412520000000029
 20
140.1198950000000139
 30
0.0
 11
80.8124020000000058
 21
138.077715000000012
 31
0.0
  0
LINE
  5
F3
100
AcDbEntity
100
AcDbLine
  8
FORT
 62
7
370
-1
  6
CONTINUOUS
 10
81.3628309999999999
 20
132.8269459999999924
 30
0.0
 11
88.9416489999999982
 21
132.3351289999999949
 31
0.0
  0
LINE
  5
F4
100
AcDbEntity
100
AcDbLine
  8
COTE
 62
1
370
-1
  6
CONTINUOUS
 10
128.6826599999999985
 20
59.1125830000000008
 30
0.0
 11
128.6826599999999985
 21
136.9048180000000059
 31
0.0
  0
LINE
  5
F5
100
AcDbEntity
100
AcDbLine
  8
COTE
 62
1
370
-1
  6
CONTINUOUS
 10
126.6404809999999941
 20
61.6837340000000012
 30
0.0
 11
128.6826599999999985
 21
61.1125830000000008
 31
0.0
  0
LINE
  5
F6
100
AcDbEntity
100
AcDbLine
  8
COTE
 62
1
370
-1
  6
CONTINUOUS
 10
126.6404809999999941
 20
60.5414329999999978
 30
0.0
 11
128.6826599999999985
 21
61.1125830000000008
 31
0.0
  0
LINE
  5
F7
100
AcDbEntity
100
AcDbLine
  8
COTE
 62
1
370
-1
  6
CONTINUOUS
 10
153.9235559999999907
 20
111.0417529999999999
 30
0.0
 11
173.900385
 21
111.0417529999999999
 31
0.0
  0
LINE
  5
F8
100
AcDbEntity
100
AcDbLine
  8
COTE
 62
1
370
-1
  6
CONTINUOUS
 10
153.9235559999999907
 20
116.0467179999999985
 30
0.0
 11
173.900385
 21
116.0467179999999985
 31
0.0
  0
LINE
  5
F9
100
AcDbEntity
100
AcDbLine
  8
COTE
 62
1
370
-1
  6
CONTINUOUS
 10
142.6983769999999936
 20
139.0937150000000031
 30
0.0
 11
187.7344080000000019
 21
139.0937150000000031
 31
0.0
  0
LINE
  5
FA
100
AcDbEntity
100
AcDbLine
  8
COTE
 62
1
370
-1
  6
CONTINUOUS
 10
130.7248400000000004
 20
112.9515700000000038
 30
0.0
 11
128.6826599999999985
 21
113.5227200000000067
 31
0.0
  0
LINE
  5
FB
100
AcDbEntity
100
AcDbLine
  8
COTE
 62
1
370
-1
  6
CONTINUOUS
 10
130.7248400000000004
 20
114.0938709999999929
 30
0.0
 11
128.6826599999999985
 21
113.5227200000000067
 31
0.0
  0
LINE
  5
FC
100
AcDbEntity
100
AcDbLine
  8
COTE
 62
1
370
-1
  6
CONTINUOUS
 10
153.9235559999999907
 20
111.0417529999999999
 30
0.0
 11
153.9235559999999907
 21
116.0467179999999985
 31
0.0
  0
LINE
  5
FD
100
AcDbEntity
100
AcDbLine
  8
COTE
 62
1
370
-1
  6
CONTINUOUS
 10
156.7506400000000042
 20
113.8893699999999995
 30
0.0
 11
155.7410399999999981
 21
112.1647750000000059
 31
0.0
  0
LINE
  5
FE
100
AcDbEntity
100
AcDbLine
  8
COTE
 62
1
370
-1
  6
CONTINUOUS
 10
156.8764260000000093
 20
113.8049610000000058
 30
0.0
 11
156.6248539999999991
 21
113.9737789999999933
 31
0.0
  0
LINE
  5
FF
100
AcDbEntity
100
AcDbLine
  8
COTE
 62
1
370
-1
  6
CONTINUOUS
 10
156.6248539999999991
 20
113.9737789999999933
 30
0.0
 11
157.255439999999993
 21
114.7731830000000031
 31
0.0
  0
LINE
  5
100
100
AcDbEntity
100
AcDbLine
  8
COTE
 62
1
370
-1
  6
CONTINUOUS
 10
157.255439999999993
 20
114.7731830000000031
 30
0.0
 11
156.8764260000000093
 21
113.8049610000000058
 31
0.0
  0
LINE
  5
101
100
AcDbEntity
100
AcDbLine
  8
COTE
 62
1
370
-1
  6
CONTINUOUS
 10
128.6826599999999985
 20
113.5227200000000067
 30
0.0
 11
153.9235559999999907
 21
113.5227200000000067
 31
0.0
  0
LINE
  5
102
100
AcDbEntity
100
AcDbLine
  8
COTE
 62
1
370
-1
  6
CONTINUOUS
 10
158.8854890000000069
 20
116.0467179999999985
 30
0.0
 11
158.8854890000000069
 21
111.0417529999999999
 31
0.0
  0
LINE
  5
103
100
AcDbEntity
100
AcDbLine
  8
COTE
 62
1
370
-1
  6
CONTINUOUS
 10
167.3810210000000041
 20
111.0417529999999999
 30
0.0
 11
167.3810210000000041
 21
116.0467179999999985
 31
0.0
  0
LINE
  5
104
100
AcDbEntity
100
AcDbLine
  8
COTE
 62
1
370
-1
  6
CONTINUOUS
 10
156.5723189999999931
 20
144.8773960000000045
 30
0.0
 11
171.5855599999999868
 21
144.8773960000000045
 31
0.0
  0
ARC
  5
105
100
AcDbEntity
  8
FORT
 62
7
370
-1
  6
CONTINUOUS
100
AcDbCircle
 10
135.7166180000000111
 20
136.8008680000000084
 30
0.0
 40
5.0
100
AcDbArc
 50
273.5982930000000124
 51
0.0
  0
LINE
  5
106
100
AcDbEntity
100
AcDbLine
  8
COTE
 62
1
370
-1
  6
CONTINUOUS
 10
135.6248339999999928
 20
139.0937150000000031
 30
0.0
 11
135.6248339999999928
 21
147.379051000000004
 31
0.0
  0
LINE
  5
107
100
AcDbEntity
100
AcDbLine
  8
COTE
 62
1
370
-1
  6
CONTINUOUS
 10
135.0536840000000041
 20
141.135895000000005
 30
0.0
 11
135.6248339999999928
 21
139.0937150000000031
 31
0.0
  0
LINE
  5
108
100
AcDbEntity
100
AcDbLine
  8
COTE
 62
1
370
-1
  6
CONTINUOUS
 10
136.1959850000000074
 20
141.135895000000005
 30
0.0
 11
135.6248339999999928
 21
139.0937150000000031
 31
0.0
  0
LINE
  5
109
100
AcDbEntity
100
AcDbLine
  8
FORT
 62
7
370
-1
  6
CONTINUOUS
 10
128.7226180000000113
 20
139.0937150000000031
 30
0.0
 11
140.7166180000000111
 21
139.0937150000000031
 31
0.0
  0
LINE
  5
10A
100
AcDbEntity
100
AcDbLine
  8
COTE
 62
1
370
-1
  6
CONTINUOUS
 10
135.6248339999999928
 20
147.379051000000004
 30
0.0
 11
156.5723189999999931
 21
147.379051000000004
 31
0.0
  0
CIRCLE
  5
10B
100
AcDbEntity
100
AcDbCircle
  8
COTE
 62
1
370
-1
  6
CONTINUOUS
 10
159.0955679999999859
 20
147.3724049999999863
 30
0.0
 40
0.880888
  0
LINE
  5
10C
100
AcDbEntity
100
AcDbLine
  8
COTE
 62
1
370
-1
  6
CONTINUOUS
 10
160.7370699999999886
 20
148.4498829999999998
 30
0.0
 11
159.3501119999999958
 21
146.053325000000001
 31
0.0
  0
LWPOLYLINE
  5
10D
  8
COTE
 62
1
370
-1
  6
CONTINUOUS
100
AcDbEntity
100
AcDbPolyline
 90
2
 70
0
 10
180.2534410000000094
 20
132.1556150000000116
 10
180.2534410000000094
 20
127.1506499999999988
  0
LWPOLYLINE
  5
10E
  8
COTE
 62
1
370
-1
  6
CONTINUOUS
100
AcDbEntity
100
AcDbPolyline
 90
2
 70
0
 10
185.2567510000000084
 20
127.1506499999999988
 10
185.2567510000000084
 20
132.1556150000000116
  0
LWPOLYLINE
  5
10F
  8
COTE
 62
1
370
-1
  6
CONTINUOUS
100
AcDbEntity
100
AcDbPolyline
 90
2
 70
0
 10
180.2534410000000094
 20
127.1506499999999988
 10
185.2567510000000084
 20
127.1506499999999988
  0
LINE
  5
110
100
AcDbEntity
100
AcDbLine
  8
COTE
 62
1
370
-1
  6
CONTINUOUS
 10
173.900385
 20
116.0467179999999985
 30
0.0
 11
173.900385
 21
111.0417529999999999
 31
0.0
  0
LWPOLYLINE
  5
111
  8
COTE
 62
1
370
-1
  6
CONTINUOUS
100
AcDbEntity
100
AcDbPolyline
 90
2
 70
0
 10
185.2567510000000084
 20
132.1556150000000116
 10
180.2534410000000094
 20
132.1556150000000116
  0
LINE
  5
112
100
AcDbEntity
100
AcDbLine
  8
COTE
 62
1
370
-1
  6
CONTINUOUS
 10
181.2443260000000009
 20
138.893714999999986
 30
0.0
 11
184.224490000000003
 21
138.893714999999986
 31
0.0
  0
LINE
  5
113
100
AcDbEntity
100
AcDbLine
  8
COTE
 62
1
370
-1
  6
CONTINUOUS
 10
181.3710719999999981
 20
138.6937149999999974
 30
0.0
 11
184.0977440000000058
 21
138.6937149999999974
 31
0.0
  0
LINE
  5
114
100
AcDbEntity
100
AcDbLine
  8
COTE
 62
1
370
-1
  6
CONTINUOUS
 10
181.4978179999999952
 20
138.4937150000000088
 30
0.0
 11
183.9709990000000062
 21
138.4937150000000088
 31
0.0
  0
LINE
  5
115
100
AcDbEntity
100
AcDbLine
  8
COTE
 62
1
370
-1
  6
CONTINUOUS
 10
181.6245639999999923
 20
138.2937149999999917
 30
0.0
 11
183.844253000000009
 21
138.2937149999999917
 31
0.0
  0
LINE
  5
116
100
AcDbEntity
100
AcDbLine
  8
COTE
 62
1
370
-1
  6
CONTINUOUS
 10
181.7513099999999895
 20
138.0937150000000031
 30
0.0
 11
183.7175070000000119
 21
138.0937150000000031
 31
0.0
  0
LINE
  5
117
100
AcDbEntity
100
AcDbLine
  8
COTE
 62
1
370
-1
  6
CONTINUOUS
 10
181.1175800000000038
 20
139.0937150000000031
 30
0.0
 11
182.7344080000000019
 21
136.5424240000000111
 31
0.0
  0
LINE
  5
118
100
AcDbEntity
100
AcDbLine
  8
COTE
 62
1
370
-1
  6
CONTINUOUS
 10
183.3055579999999907
 20
141.135895000000005
 30
0.0
 11
182.7344080000000019
 21
139.0937150000000031
 31
0.0
  0
LINE
  5
119
100
AcDbEntity
100
AcDbLine
  8
COTE
 62
1
370
-1
  6
CONTINUOUS
 10
182.7344080000000019
 20
136.5424240000000111
 30
0.0
 11
184.3512360000000001
 21
139.0937150000000031
 31
0.0
  0
LINE
  5
11A
100
AcDbEntity
100
AcDbLine
  8
COTE
 62
1
370
-1
  6
CONTINUOUS
 10
182.5117850000000033
 20
136.893714999999986
 30
0.0
 11
182.9570319999999981
 21
136.893714999999986
 31
0.0
  0
LINE
  5
11B
100
AcDbEntity
100
AcDbLine
  8
COTE
 62
1
370
-1
  6
CONTINUOUS
 10
182.3850390000000061
 20
137.0937150000000031
 30
0.0
 11
183.0837779999999952
 21
137.0937150000000031
 31
0.0
  0
LINE
  5
11C
100
AcDbEntity
100
AcDbLine
  8
COTE
 62
1
370
-1
  6
CONTINUOUS
 10
182.258293000000009
 20
137.2937149999999917
 30
0.0
 11
183.2105229999999949
 21
137.2937149999999917
 31
0.0
  0
LINE
  5
11D
100
AcDbEntity
100
AcDbLine
  8
COTE
 62
1
370
-1
  6
CONTINUOUS
 10
182.1315470000000118
 20
137.4937150000000088
 30
0.0
 11
183.337268999999992
 21
137.4937150000000088
 31
0.0
  0
LINE
  5
11E
100
AcDbEntity
100
AcDbLine
  8
COTE
 62
1
370
-1
  6
CONTINUOUS
 10
182.0121059999999886
 20
137.6937149999999974
 30
0.0
 11
183.4640149999999892
 21
137.6937149999999974
 31
0.0
  0
LINE
  5
11F
100
AcDbEntity
100
AcDbLine
  8
COTE
 62
1
370
-1
  6
CONTINUOUS
 10
181.8780549999999891
 20
137.893714999999986
 30
0.0
 11
183.5907609999999863
 21
137.893714999999986
 31
0.0
  0
LINE
  5
120
100
AcDbEntity
100
AcDbLine
  8
COTE
 62
1
370
-1
  6
CONTINUOUS
 10
182.7344080000000019
 20
136.5424240000000111
 30
0.0
 11
182.7344080000000019
 21
132.1556150000000116
 31
0.0
  0
LINE
  5
121
100
AcDbEntity
100
AcDbLine
  8
COTE
 62
1
370
-1
  6
CONTINUOUS
 10
182.1632580000000132
 20
141.135895000000005
 30
0.0
 11
182.7344080000000019
 21
139.0937150000000031
 31
0.0
  0
LINE
  5
122
100
AcDbEntity
100
AcDbLine
  8
COTE
 62
1
370
-1
  6
CONTINUOUS
 10
182.6385310000000004
 20
136.6937149999999974
 30
0.0
 11
182.830286000000001
 21
136.6937149999999974
 31
0.0
  0
LINE
  5
123
100
AcDbEntity
100
AcDbLine
  8
FORT
 62
7
370
-1
  6
CONTINUOUS
 10
87.7146180000000015
 20
177.4637150000000076
 30
0.0
 11
128.7226180000000113
 21
174.8717149999999947
 31
0.0
  0
LINE
  5
124
100
AcDbEntity
100
AcDbLine
  8
FORT
 62
7
370
-1
  6
CONTINUOUS
 10
128.7226180000000113
 20
186.4077149999999961
 30
0.0
 11
87.7146180000000015
 21
183.8157150000000115
 31
0.0
  0
LWPOLYLINE
  5
125
  8
HACHURE
 62
5
370
-1
  6
CONTINUOUS
100
AcDbEntity
100
AcDbPolyline
 90
12
 70
1
 10
128.7226180000000113
 20
186.4077149999999961
 10
87.7146180000000015
 20
183.8157150000000115
 10
87.7146180000000015
 20
181.1197150000000136
 10
76.6866179999999957
 20
181.1197150000000136
 10
76.6866179999999957
 20
180.1577149999999961
 10
87.7146180000000015
 20
180.1577149999999961
 10
87.7146180000000015
 20
177.4637150000000076
 10
128.7226180000000113
 20
174.8717149999999947
 10
128.7226180000000113
 20
179.1417150000000049
 10
140.7166180000000111
 20
179.1417150000000049
 10
140.7166180000000111
 20
180.103714999999994
 10
128.7226180000000113
 20
180.103714999999994
  0
INSERT
  5
126
100
AcDbEntity
100
AcDbBlockReference
  8
HACHURE
 62
256
370
-1
  6
ByLayer
  2
DESDEF19-G2
 10
0.0
 20
0.0
 30
0.0
  0
LINE
  5
127
100
AcDbEntity
100
AcDbLine
  8
FORT
 62
7
370
-1
  6
CONTINUOUS
 10
87.7146180000000015
 20
218.4737149999999986
 30
0.0
 11
128.7226180000000113
 21
215.881715000000014
 31
0.0
  0
LINE
  5
128
100
AcDbEntity
100
AcDbLine
  8
FORT
 62
7
370
-1
  6
CONTINUOUS
 10
136.0266880000000072
 20
226.4695159999999987
 30
0.0
 11
92.1549820000000039
 21
229.1954210000000103
 31
0.0
  0
LWPOLYLINE
  5
129
  8
HACHURE
 62
5
370
-1
  6
CONTINUOUS
100
AcDbEntity
100
AcDbPolyline
 90
15
 70
1
 10
136.0266880000000072
 20
226.4695159999999987
 10
92.1549820000000039
 20
229.1954210000000103
 42
-0.2936870000000036
 10
87.7964389999999639
 20
232.3958100000000115
 42
0.2938040000000006
 10
80.8193250000000063
 20
237.5166470000000061
 10
70.6886180000000053
 20
238.1417150000000049
 10
70.6886180000000053
 20
233.1597150000000056
 10
79.6648179999999968
 20
232.5997059999999976
 42
-0.8432809999999999
 10
80.3194409999999976
 20
226.5238619999999798
 42
0.3352319995962977
 10
76.6866179999999957
 20
221.7144100072582944
 10
76.6866179999999957
 20
221.167714999999987
 10
87.7146180000000015
 20
221.167714999999987
 10
87.7146180000000015
 20
218.4737149999999986
 10
128.7226180000000113
 20
215.881715000000014
 10
128.7226180000000113
 20
222.1837150000000065
 10
140.6667270000000087
 20
222.1837150000000065
 42
0.3558080000000006
  0
INSERT
  5
12A
100
AcDbEntity
100
AcDbBlockReference
  8
HACHURE
 62
256
370
-1
  6
ByLayer
  2
DESDEF19-G3
 10
0.0
 20
0.0
 30
0.0
  0
MTEXT
  5
12B
100
AcDbEntity
100
AcDbMText
  8
TEXTE
 62
7
370
-1
  6
CONTINUOUS
 10
104.1364109999999954
 20
263.832761000000005
 30
0.0
 40
4.1666670000000003
 41
100.0
 71
7
 72
2
  1
A-A
  7
iso9
 50
0.0
 73
0
 44
1.0
  0
LINE
  5
12C
100
AcDbEntity
100
AcDbLine
  8
COTE
 62
1
370
-1
  6
CONTINUOUS
 10
37.2008829999999975
 20
223.7190060000000074
 30
0.0
 11
37.2008829999999975
 21
228.1058150000000069
 31
0.0
  0
LINE
  5
12D
100
AcDbEntity
100
AcDbLine
  8
COTE
 62
1
370
-1
  6
CONTINUOUS
 10
87.7146180000000015
 20
223.5603849999999966
 30
0.0
 11
87.7146180000000015
 21
257.5181660000000079
 31
0.0
  0
ARC
  5
12E
100
AcDbEntity
  8
FORT
 62
7
370
-1
  6
CONTINUOUS
100
AcDbCircle
 10
81.6866179999999957
 20
221.7144099999999867
 30
0.0
 40
5.0
100
AcDbArc
 50
105.8688049999999947
 51
180.0
  0
LINE
  5
12F
100
AcDbEntity
100
AcDbLine
  8
COTE
 62
1
370
-1
  6
CONTINUOUS
 10
35.2008829999999975
 20
181.1313040000000001
 30
0.0
 11
74.3363049999999959
 21
181.1313040000000001
 31
0.0
  0
LINE
  5
130
100
AcDbEntity
100
AcDbLine
  8
COTE
 62
1
370
-1
  6
CONTINUOUS
 10
35.2008829999999975
 20
180.121703999999994
 30
0.0
 11
74.3363049999999959
 21
180.121703999999994
 31
0.0
  0
LINE
  5
131
100
AcDbEntity
100
AcDbLine
  8
COTE
 62
1
370
-1
  6
CONTINUOUS
 10
41.9787329999999983
 20
148.8647060000000124
 30
0.0
 11
56.991973999999999
 21
148.8647060000000124
 31
0.0
  0
LINE
  5
132
100
AcDbEntity
100
AcDbLine
  8
COTE
 62
1
370
-1
  6
CONTINUOUS
 10
41.9787329999999983
 20
210.3807239999999865
 30
0.0
 11
56.991973999999999
 21
210.3807239999999865
 31
0.0
  0
LINE
  5
133
100
AcDbEntity
100
AcDbLine
  8
COTE
 62
1
370
-1
  6
CONTINUOUS
 10
32.2008829999999975
 20
221.167714999999987
 30
0.0
 11
74.3363049999999959
 21
221.167714999999987
 31
0.0
  0
LINE
  5
134
100
AcDbEntity
100
AcDbLine
  8
COTE
 62
1
370
-1
  6
CONTINUOUS
 10
41.9787329999999983
 20
215.384034000000014
 30
0.0
 11
56.991973999999999
 21
215.384034000000014
 31
0.0
  0
LINE
  5
135
100
AcDbEntity
100
AcDbLine
  8
COTE
 62
1
370
-1
  6
CONTINUOUS
 10
37.2008829999999975
 20
181.1313040000000001
 30
0.0
 11
37.2008829999999975
 21
221.167714999999987
 31
0.0
  0
LINE
  5
136
100
AcDbEntity
100
AcDbLine
  8
COTE
 62
1
370
-1
  6
CONTINUOUS
 10
31.7475500000000004
 20
153.2047110000000032
 30
0.0
 11
36.1169060000000002
 21
151.6972039999999993
 31
0.0
  0
LINE
  5
137
100
AcDbEntity
100
AcDbLine
  8
COTE
 62
1
370
-1
  6
CONTINUOUS
 10
37.7720330000000004
 20
183.173484000000002
 30
0.0
 11
37.2008829999999975
 21
181.1313040000000001
 31
0.0
  0
LINE
  5
138
100
AcDbEntity
100
AcDbLine
  8
COTE
 62
1
370
-1
  6
CONTINUOUS
 10
36.6297330000000017
 20
183.173484000000002
 30
0.0
 11
37.2008829999999975
 21
181.1313040000000001
 31
0.0
  0
LINE
  5
139
100
AcDbEntity
100
AcDbLine
  8
COTE
 62
1
370
-1
  6
CONTINUOUS
 10
37.7720330000000004
 20
178.0795249999999896
 30
0.0
 11
37.2008829999999975
 21
180.121703999999994
 31
0.0
  0
LINE
  5
13A
100
AcDbEntity
100
AcDbLine
  8
COTE
 62
1
370
-1
  6
CONTINUOUS
 10
36.6297330000000017
 20
178.0795249999999896
 30
0.0
 11
37.2008829999999975
 21
180.121703999999994
 31
0.0
  0
LINE
  5
13B
100
AcDbEntity
100
AcDbLine
  8
COTE
 62
1
370
-1
  6
CONTINUOUS
 10
41.9787329999999983
 20
210.3807239999999865
 30
0.0
 11
41.9787329999999983
 21
215.384034000000014
 31
0.0
  0
LINE
  5
13C
100
AcDbEntity
100
AcDbLine
  8
COTE
 62
1
370
-1
  6
CONTINUOUS
 10
46.9836979999999969
 20
215.384034000000014
 30
0.0
 11
46.9836979999999969
 21
210.3807239999999865
 31
0.0
  0
CIRCLE
  5
13D
100
AcDbEntity
100
AcDbCircle
  8
COTE
 62
1
370
-1
  6
CONTINUOUS
 10
44.5019830000000027
 20
212.8757329999999968
 30
0.0
 40
0.880888
  0
LINE
  5
13E
100
AcDbEntity
100
AcDbLine
  8
COTE
 62
1
370
-1
  6
CONTINUOUS
 10
44.2431160000000006
 20
214.1711830000000134
 30
0.0
 11
42.8545030000000011
 21
211.8160029999999949
 31
0.0
  0
LINE
  5
13F
100
AcDbEntity
100
AcDbLine
  8
COTE
 62
1
370
-1
  6
CONTINUOUS
 10
46.1434840000000008
 20
213.9532110000000102
 30
0.0
 11
44.7565260000000009
 21
211.5566530000000114
 31
0.0
  0
LINE
  5
140
100
AcDbEntity
100
AcDbLine
  8
COTE
 62
1
370
-1
  6
CONTINUOUS
 10
32.0926060000000035
 20
196.1079029999999932
 30
0.0
 11
36.4619619999999998
 21
195.0526480000000049
 31
0.0
  0
LINE
  5
141
100
AcDbEntity
100
AcDbLine
  8
COTE
 62
1
370
-1
  6
CONTINUOUS
 10
37.2008829999999975
 20
223.7190060000000074
 30
0.0
 11
38.8177110000000027
 21
221.167714999999987
 31
0.0
  0
LINE
  5
142
100
AcDbEntity
100
AcDbLine
  8
COTE
 62
1
370
-1
  6
CONTINUOUS
 10
35.7108009999999965
 20
221.367715000000004
 30
0.0
 11
38.6909649999999985
 21
221.367715000000004
 31
0.0
  0
LINE
  5
143
100
AcDbEntity
100
AcDbLine
  8
COTE
 62
1
370
-1
  6
CONTINUOUS
 10
35.8375470000000007
 20
221.5677149999999926
 30
0.0
 11
38.5642190000000014
 21
221.5677149999999926
 31
0.0
  0
LINE
  5
144
100
AcDbEntity
100
AcDbLine
  8
COTE
 62
1
370
-1
  6
CONTINUOUS
 10
35.9642920000000004
 20
221.7677150000000097
 30
0.0
 11
38.4374729999999971
 21
221.7677150000000097
 31
0.0
  0
LINE
  5
145
100
AcDbEntity
100
AcDbLine
  8
COTE
 62
1
370
-1
  6
CONTINUOUS
 10
37.7720330000000004
 20
219.125536000000011
 30
0.0
 11
37.2008829999999975
 21
221.167714999999987
 31
0.0
  0
LINE
  5
146
100
AcDbEntity
100
AcDbLine
  8
COTE
 62
1
370
-1
  6
CONTINUOUS
 10
36.6297330000000017
 20
219.125536000000011
 30
0.0
 11
37.2008829999999975
 21
221.167714999999987
 31
0.0
  0
LINE
  5
147
100
AcDbEntity
100
AcDbLine
  8
COTE
 62
1
370
-1
  6
CONTINUOUS
 10
35.5840549999999993
 20
221.167714999999987
 30
0.0
 11
37.2008829999999975
 21
223.7190060000000074
 31
0.0
  0
LINE
  5
148
100
AcDbEntity
100
AcDbLine
  8
COTE
 62
1
370
-1
  6
CONTINUOUS
 10
37.1050049999999985
 20
223.5677149999999926
 30
0.0
 11
37.296759999999999
 21
223.5677149999999926
 31
0.0
  0
LINE
  5
149
100
AcDbEntity
100
AcDbLine
  8
COTE
 62
1
370
-1
  6
CONTINUOUS
 10
36.9782590000000013
 20
223.367715000000004
 30
0.0
 11
37.4235060000000033
 21
223.367715000000004
 31
0.0
  0
LINE
  5
14A
100
AcDbEntity
100
AcDbLine
  8
COTE
 62
1
370
-1
  6
CONTINUOUS
 10
36.8515129999999971
 20
223.167714999999987
 30
0.0
 11
37.5502520000000004
 21
223.167714999999987
 31
0.0
  0
LINE
  5
14B
100
AcDbEntity
100
AcDbLine
  8
COTE
 62
1
370
-1
  6
CONTINUOUS
 10
36.7247679999999974
 20
222.9677149999999983
 30
0.0
 11
37.6769979999999975
 21
222.9677149999999983
 31
0.0
  0
LINE
  5
14C
100
AcDbEntity
100
AcDbLine
  8
COTE
 62
1
370
-1
  6
CONTINUOUS
 10
36.5980220000000003
 20
222.7677150000000097
 30
0.0
 11
37.8037440000000018
 21
222.7677150000000097
 31
0.0
  0
LINE
  5
14D
100
AcDbEntity
100
AcDbLine
  8
COTE
 62
1
370
-1
  6
CONTINUOUS
 10
36.4785809999999984
 20
222.5677149999999926
 30
0.0
 11
37.9304899999999989
 21
222.5677149999999926
 31
0.0
  0
LINE
  5
14E
100
AcDbEntity
100
AcDbLine
  8
COTE
 62
1
370
-1
  6
CONTINUOUS
 10
36.0910379999999975
 20
221.9677149999999983
 30
0.0
 11
38.310727
 21
221.9677149999999983
 31
0.0
  0
LINE
  5
14F
100
AcDbEntity
100
AcDbLine
  8
COTE
 62
1
370
-1
  6
CONTINUOUS
 10
36.2177840000000018
 20
222.167714999999987
 30
0.0
 11
38.1839810000000028
 21
222.167714999999987
 31
0.0
  0
LINE
  5
150
100
AcDbEntity
100
AcDbLine
  8
COTE
 62
1
370
-1
  6
CONTINUOUS
 10
36.3445299999999989
 20
222.367715000000004
 30
0.0
 11
38.0572360000000032
 21
222.367715000000004
 31
0.0
  0
LINE
  5
151
100
AcDbEntity
100
AcDbLine
  8
FORT
 62
7
370
-1
  6
CONTINUOUS
 10
87.7146180000000015
 20
221.167714999999987
 30
0.0
 11
87.7146180000000015
 21
181.1197150000000136
 31
0.0
  0
LINE
  5
152
100
AcDbEntity
100
AcDbLine
  8
FORT
 62
7
370
-1
  6
CONTINUOUS
 10
76.6866179999999957
 20
180.1577149999999961
 30
0.0
 11
87.7146180000000015
 21
180.1577149999999961
 31
0.0
  0
LINE
  5
153
100
AcDbEntity
100
AcDbLine
  8
FORT
 62
7
370
-1
  6
CONTINUOUS
 10
76.6866179999999957
 20
181.1197150000000136
 30
0.0
 11
87.7146180000000015
 21
181.1197150000000136
 31
0.0
  0
LINE
  5
154
100
AcDbEntity
100
AcDbLine
  8
COTE
 62
1
370
-1
  6
CONTINUOUS
 10
56.991973999999999
 20
210.3807239999999865
 30
0.0
 11
56.991973999999999
 21
215.384034000000014
 31
0.0
  0
LINE
  5
155
100
AcDbEntity
100
AcDbLine
  8
COTE
 62
1
370
-1
  6
CONTINUOUS
 10
80.8124020000000058
 20
221.167714999999987
 30
0.0
 11
80.8124020000000058
 21
212.882378999999986
 31
0.0
  0
LINE
  5
156
100
AcDbEntity
100
AcDbLine
  8
COTE
 62
1
370
-1
  6
CONTINUOUS
 10
80.8124020000000058
 20
212.882378999999986
 30
0.0
 11
56.991973999999999
 21
212.882378999999986
 31
0.0
  0
LINE
  5
157
100
AcDbEntity
100
AcDbLine
  8
FORT
 62
7
370
-1
  6
CONTINUOUS
 10
76.6866179999999957
 20
221.167714999999987
 30
0.0
 11
87.7146180000000015
 21
221.167714999999987
 31
0.0
  0
LINE
  5
158
100
AcDbEntity
100
AcDbLine
  8
COTE
 62
1
370
-1
  6
CONTINUOUS
 10
81.3835530000000063
 20
219.125536000000011
 30
0.0
 11
80.8124020000000058
 21
221.167714999999987
 31
0.0
  0
LINE
  5
159
100
AcDbEntity
100
AcDbLine
  8
COTE
 62
1
370
-1
  6
CONTINUOUS
 10
80.2412520000000029
 20
219.125536000000011
 30
0.0
 11
80.8124020000000058
 21
221.167714999999987
 31
0.0
  0
LINE
  5
15A
100
AcDbEntity
100
AcDbLine
  8
COTE
 62
1
370
-1
  6
CONTINUOUS
 10
36.6238320000000002
 20
255.0421640000000139
 30
0.0
 11
56.6006610000000023
 21
255.0421640000000139
 31
0.0
  0
LINE
  5
15B
100
AcDbEntity
100
AcDbLine
  8
COTE
 62
1
370
-1
  6
CONTINUOUS
 10
36.6238320000000002
 20
250.0371989999999869
 30
0.0
 11
56.6006610000000023
 21
250.0371989999999869
 31
0.0
  0
LWPOLYLINE
  5
15C
  8
COTE
 62
1
370
-1
  6
CONTINUOUS
100
AcDbEntity
100
AcDbPolyline
 90
2
 70
0
 10
34.6768840000000012
 20
228.1058150000000069
 10
39.6818489999999997
 20
228.1058150000000069
  0
LWPOLYLINE
  5
15D
  8
COTE
 62
1
370
-1
  6
CONTINUOUS
100
AcDbEntity
100
AcDbPolyline
 90
2
 70
0
 10
39.6818489999999997
 20
233.1107810000000029
 10
34.6768840000000012
 20
233.1107810000000029
  0
LWPOLYLINE
  5
15E
  8
COTE
 62
1
370
-1
  6
CONTINUOUS
100
AcDbEntity
100
AcDbPolyline
 90
2
 70
0
 10
34.6768840000000012
 20
233.1107810000000029
 10
34.6768840000000012
 20
228.1058150000000069
  0
LINE
  5
15F
100
AcDbEntity
100
AcDbLine
  8
COTE
 62
1
370
-1
  6
CONTINUOUS
 10
36.6238320000000002
 20
250.0371989999999869
 30
0.0
 11
36.6238320000000002
 21
255.0421640000000139
 31
0.0
  0
LWPOLYLINE
  5
160
  8
COTE
 62
1
370
-1
  6
CONTINUOUS
100
AcDbEntity
100
AcDbPolyline
 90
2
 70
0
 10
39.6818489999999997
 20
228.1058150000000069
 10
39.6818489999999997
 20
233.1107810000000029
  0
LINE
  5
161
100
AcDbEntity
100
AcDbLine
  8
COTE
 62
1
370
-1
  6
CONTINUOUS
 10
39.9557160000000025
 20
253.7686290000000042
 30
0.0
 11
39.5767019999999974
 21
252.800407000000007
 31
0.0
  0
LINE
  5
162
100
AcDbEntity
100
AcDbLine
  8
COTE
 62
1
370
-1
  6
CONTINUOUS
 10
39.3251300000000015
 20
252.9692249999999945
 30
0.0
 11
39.9557160000000025
 21
253.7686290000000042
 31
0.0
  0
LINE
  5
163
100
AcDbEntity
100
AcDbLine
  8
COTE
 62
1
370
-1
  6
CONTINUOUS
 10
39.5767019999999974
 20
252.800407000000007
 30
0.0
 11
39.3251300000000015
 21
252.9692249999999945
 31
0.0
  0
LINE
  5
164
100
AcDbEntity
100
AcDbLine
  8
COTE
 62
1
370
-1
  6
CONTINUOUS
 10
39.4509159999999994
 20
252.8848160000000007
 30
0.0
 11
38.4413160000000005
 21
251.1602210000000071
 31
0.0
  0
LINE
  5
165
100
AcDbEntity
100
AcDbLine
  8
COTE
 62
1
370
-1
  6
CONTINUOUS
 10
50.0812969999999993
 20
250.0371989999999869
 30
0.0
 11
50.0812969999999993
 21
255.0421640000000139
 31
0.0
  0
LINE
  5
166
100
AcDbEntity
100
AcDbLine
  8
COTE
 62
1
370
-1
  6
CONTINUOUS
 10
41.5857650000000021
 20
255.0421640000000139
 30
0.0
 11
41.5857650000000021
 21
250.0371989999999869
 31
0.0
  0
LINE
  5
167
100
AcDbEntity
100
AcDbLine
  8
COTE
 62
1
370
-1
  6
CONTINUOUS
 10
56.6006610000000023
 20
252.5181660000000079
 30
0.0
 11
87.7146180000000015
 21
252.5181660000000079
 31
0.0
  0
LINE
  5
168
100
AcDbEntity
100
AcDbLine
  8
COTE
 62
1
370
-1
  6
CONTINUOUS
 10
56.6006610000000023
 20
250.0371989999999869
 30
0.0
 11
56.6006610000000023
 21
255.0421640000000139
 31
0.0
  0
ARC
  5
169
100
AcDbEntity
  8
FORT
 62
7
370
-1
  6
CONTINUOUS
100
AcDbCircle
 10
79.4717899999999986
 20
229.5057219999999916
 30
0.0
 40
3.1000000000000001
100
AcDbArc
 50
285.8688050000000089
 51
86.4300470000000018
  0
ARC
  5
16A
100
AcDbEntity
  8
FORT
 62
7
370
-1
  6
CONTINUOUS
100
AcDbCircle
 10
92.465052
 20
234.185797000000008
 30
0.0
 40
5.0
100
AcDbArc
 50
200.9772609999999986
 51
266.4445810000000279
  0
ARC
  5
16B
100
AcDbEntity
  8
FORT
 62
7
370
-1
  6
CONTINUOUS
100
AcDbCircle
 10
80.3266579999999948
 20
229.531831000000011
 30
0.0
 40
8.0
100
AcDbArc
 50
20.9772609999999986
 51
86.4693029999999965
  0
LINE
  5
16C
100
AcDbEntity
100
AcDbLine
  8
FORT
 62
7
370
-1
  6
CONTINUOUS
 10
70.6886180000000053
 20
233.1597150000000056
 30
0.0
 11
79.6648179999999968
 21
232.5997059999999976
 31
0.0
  0
LINE
  5
16D
100
AcDbEntity
100
AcDbLine
  8
FORT
 62
7
370
-1
  6
CONTINUOUS
 10
70.6886180000000053
 20
238.1417150000000049
 30
0.0
 11
80.8193250000000063
 21
237.5166470000000061
 31
0.0
  0
LINE
  5
16E
100
AcDbEntity
100
AcDbLine
  8
COTE
 62
1
370
-1
  6
CONTINUOUS
 10
85.6724389999999971
 20
253.0893159999999966
 30
0.0
 11
87.7146180000000015
 21
252.5181660000000079
 31
0.0
  0
LINE
  5
16F
100
AcDbEntity
100
AcDbLine
  8
COTE
 62
1
370
-1
  6
CONTINUOUS
 10
85.6724389999999971
 20
251.9470159999999908
 30
0.0
 11
87.7146180000000015
 21
252.5181660000000079
 31
0.0
  0
LINE
  5
170
100
AcDbEntity
100
AcDbLine
  8
COTE
 62
1
370
-1
  6
CONTINUOUS
 10
128.7226180000000113
 20
257.5181660000000079
 30
0.0
 11
128.7226180000000113
 21
224.670094000000006
 31
0.0
  0
ARC
  5
171
100
AcDbEntity
  8
FORT
 62
7
370
-1
  6
CONTINUOUS
100
AcDbCircle
 10
135.7166180000000111
 20
221.479140000000001
 30
0.0
 40
5.0
100
AcDbArc
 50
360.0
 51
86.4445809999999994
  0
LINE
  5
172
100
AcDbEntity
100
AcDbLine
  8
COTE
 62
1
370
-1
  6
CONTINUOUS
 10
182.7344080000000019
 20
224.7350059999999985
 30
0.0
 11
182.7344080000000019
 21
229.121814999999998
 31
0.0
  0
LINE
  5
173
100
AcDbEntity
100
AcDbLine
  8
COTE
 62
1
370
-1
  6
CONTINUOUS
 10
142.6983769999999936
 20
179.094114999999988
 30
0.0
 11
184.7344080000000019
 21
179.094114999999988
 31
0.0
  0
LINE
  5
174
100
AcDbEntity
100
AcDbLine
  8
COTE
 62
1
370
-1
  6
CONTINUOUS
 10
142.6983769999999936
 20
180.103714999999994
 30
0.0
 11
184.7344080000000019
 21
180.103714999999994
 31
0.0
  0
LINE
  5
175
100
AcDbEntity
100
AcDbLine
  8
COTE
 62
1
370
-1
  6
CONTINUOUS
 10
153.9635140000000035
 20
173.3588619999999878
 30
0.0
 11
173.9403430000000128
 21
173.3588619999999878
 31
0.0
  0
LINE
  5
176
100
AcDbEntity
100
AcDbLine
  8
COTE
 62
1
370
-1
  6
CONTINUOUS
 10
153.9635140000000035
 20
168.3538959999999918
 30
0.0
 11
173.9403430000000128
 21
168.3538959999999918
 31
0.0
  0
LINE
  5
177
100
AcDbEntity
100
AcDbLine
  8
COTE
 62
1
370
-1
  6
CONTINUOUS
 10
150.1800330000000088
 20
159.117715000000004
 30
0.0
 11
175.6125639999999919
 21
159.117715000000004
 31
0.0
  0
LINE
  5
178
100
AcDbEntity
100
AcDbLine
  8
COTE
 62
1
370
-1
  6
CONTINUOUS
 10
153.9635140000000035
 20
185.8865680000000111
 30
0.0
 11
173.9403430000000128
 21
185.8865680000000111
 31
0.0
  0
LINE
  5
179
100
AcDbEntity
100
AcDbLine
  8
COTE
 62
1
370
-1
  6
CONTINUOUS
 10
153.9635140000000035
 20
190.8915340000000072
 30
0.0
 11
173.9403430000000128
 21
190.8915340000000072
 31
0.0
  0
LINE
  5
17A
100
AcDbEntity
100
AcDbLine
  8
COTE
 62
1
370
-1
  6
CONTINUOUS
 10
150.1800330000000088
 20
201.143714999999986
 30
0.0
 11
175.6125639999999919
 21
201.143714999999986
 31
0.0
  0
LINE
  5
17B
100
AcDbEntity
100
AcDbLine
  8
COTE
 62
1
370
-1
  6
CONTINUOUS
 10
142.6983769999999936
 20
222.1837150000000065
 30
0.0
 11
187.7344080000000019
 21
222.1837150000000065
 31
0.0
  0
LINE
  5
17C
100
AcDbEntity
100
AcDbLine
  8
FORT
 62
7
370
-1
  6
CONTINUOUS
 10
128.7226180000000113
 20
180.103714999999994
 30
0.0
 11
128.7226180000000113
 21
222.1837150000000065
 31
0.0
  0
LINE
  5
17D
100
AcDbEntity
100
AcDbLine
  8
COTE
 62
1
370
-1
  6
CONTINUOUS
 10
135.6248339999999928
 20
180.103714999999994
 30
0.0
 11
135.6248339999999928
 21
188.3890509999999949
 31
0.0
  0
LINE
  5
17E
100
AcDbEntity
100
AcDbLine
  8
COTE
 62
1
370
-1
  6
CONTINUOUS
 10
153.9635140000000035
 20
185.8865680000000111
 30
0.0
 11
153.9635140000000035
 21
190.8915340000000072
 31
0.0
  0
LINE
  5
17F
100
AcDbEntity
100
AcDbLine
  8
COTE
 62
1
370
-1
  6
CONTINUOUS
 10
158.9684799999999996
 20
190.8915340000000072
 30
0.0
 11
158.9684799999999996
 21
185.8865680000000111
 31
0.0
  0
LINE
  5
180
100
AcDbEntity
100
AcDbLine
  8
COTE
 62
1
370
-1
  6
CONTINUOUS
 10
168.9353769999999884
 20
185.8865680000000111
 30
0.0
 11
168.9353769999999884
 21
190.8915340000000072
 31
0.0
  0
LINE
  5
181
100
AcDbEntity
100
AcDbLine
  8
COTE
 62
1
370
-1
  6
CONTINUOUS
 10
160.3961099999999931
 20
186.4252820000000099
 30
0.0
 11
161.5883629999999869
 21
190.2796030000000087
 31
0.0
  0
LINE
  5
182
100
AcDbEntity
100
AcDbLine
  8
COTE
 62
1
370
-1
  6
CONTINUOUS
 10
156.5723189999999931
 20
149.8807060000000035
 30
0.0
 11
171.5855599999999868
 21
149.8807060000000035
 31
0.0
  0
CIRCLE
  5
183
100
AcDbEntity
100
AcDbCircle
  8
COTE
 62
1
370
-1
  6
CONTINUOUS
 10
156.4659969999999873
 20
170.856379000000004
 30
0.0
 40
1.463598
  0
LINE
  5
184
100
AcDbEntity
100
AcDbLine
  8
COTE
 62
1
370
-1
  6
CONTINUOUS
 10
135.6248339999999928
 20
170.856379000000004
 30
0.0
 11
135.6248339999999928
 21
179.1417150000000049
 31
0.0
  0
LINE
  5
185
100
AcDbEntity
100
AcDbLine
  8
COTE
 62
1
370
-1
  6
CONTINUOUS
 10
153.9635140000000035
 20
168.3538959999999918
 30
0.0
 11
153.9635140000000035
 21
173.3588619999999878
 31
0.0
  0
CIRCLE
  5
186
100
AcDbEntity
100
AcDbCircle
  8
COTE
 62
1
370
-1
  6
CONTINUOUS
 10
156.4659969999999873
 20
170.856379000000004
 30
0.0
 40
0.735307
  0
LINE
  5
187
100
AcDbEntity
100
AcDbLine
  8
COTE
 62
1
370
-1
  6
CONTINUOUS
 10
135.6248339999999928
 20
170.856379000000004
 30
0.0
 11
153.9635140000000035
 21
170.856379000000004
 31
0.0
  0
LINE
  5
188
100
AcDbEntity
100
AcDbLine
  8
COTE
 62
1
370
-1
  6
CONTINUOUS
 10
135.0536840000000041
 20
182.1458949999999959
 30
0.0
 11
135.6248339999999928
 21
180.103714999999994
 31
0.0
  0
LINE
  5
189
100
AcDbEntity
100
AcDbLine
  8
COTE
 62
1
370
-1
  6
CONTINUOUS
 10
136.1959850000000074
 20
182.1458949999999959
 30
0.0
 11
135.6248339999999928
 21
180.103714999999994
 31
0.0
  0
LINE
  5
18A
100
AcDbEntity
100
AcDbLine
  8
FORT
 62
7
370
-1
  6
CONTINUOUS
 10
128.7226180000000113
 20
179.1417150000000049
 30
0.0
 11
140.7166180000000111
 21
179.1417150000000049
 31
0.0
  0
LINE
  5
18B
100
AcDbEntity
100
AcDbLine
  8
COTE
 62
1
370
-1
  6
CONTINUOUS
 10
135.0536840000000041
 20
177.0995360000000005
 30
0.0
 11
135.6248339999999928
 21
179.1417150000000049
 31
0.0
  0
LINE
  5
18C
100
AcDbEntity
100
AcDbLine
  8
COTE
 62
1
370
-1
  6
CONTINUOUS
 10
136.1959850000000074
 20
177.0995360000000005
 30
0.0
 11
135.6248339999999928
 21
179.1417150000000049
 31
0.0
  0
LINE
  5
18D
100
AcDbEntity
100
AcDbLine
  8
FORT
 62
7
370
-1
  6
CONTINUOUS
 10
128.7226180000000113
 20
180.103714999999994
 30
0.0
 11
140.7166180000000111
 21
180.103714999999994
 31
0.0
  0
LINE
  5
18E
100
AcDbEntity
100
AcDbLine
  8
COTE
 62
1
370
-1
  6
CONTINUOUS
 10
158.9684799999999996
 20
173.3588619999999878
 30
0.0
 11
158.9684799999999996
 21
168.3538959999999918
 31
0.0
  0
LINE
  5
18F
100
AcDbEntity
100
AcDbLine
  8
COTE
 62
1
370
-1
  6
CONTINUOUS
 10
168.9353769999999884
 20
168.3538959999999918
 30
0.0
 11
168.9353769999999884
 21
173.3588619999999878
 31
0.0
  0
LINE
  5
190
100
AcDbEntity
100
AcDbLine
  8
COTE
 62
1
370
-1
  6
CONTINUOUS
 10
160.3961099999999931
 20
168.8926099999999906
 30
0.0
 11
161.5883629999999869
 21
172.7469309999999894
 31
0.0
  0
LINE
  5
191
100
AcDbEntity
100
AcDbLine
  8
COTE
 62
1
370
-1
  6
CONTINUOUS
 10
160.7370699999999886
 20
214.9692110000000014
 30
0.0
 11
159.3501119999999958
 21
212.5726530000000025
 31
0.0
  0
LINE
  5
192
100
AcDbEntity
100
AcDbLine
  8
COTE
 62
1
370
-1
  6
CONTINUOUS
 10
158.836701000000005
 20
215.1871830000000045
 30
0.0
 11
157.4480880000000127
 21
212.8320029999999861
 31
0.0
  0
CIRCLE
  5
193
100
AcDbEntity
100
AcDbCircle
  8
COTE
 62
1
370
-1
  6
CONTINUOUS
 10
159.0955679999999859
 20
213.8917329999999879
 30
0.0
 40
0.880888
  0
LINE
  5
194
100
AcDbEntity
100
AcDbLine
  8
COTE
 62
1
370
-1
  6
CONTINUOUS
 10
161.5772839999999917
 20
216.4000340000000051
 30
0.0
 11
161.5772839999999917
 21
211.3967240000000061
 31
0.0
  0
LINE
  5
195
100
AcDbEntity
100
AcDbLine
  8
COTE
 62
1
370
-1
  6
CONTINUOUS
 10
156.5723189999999931
 20
211.3967240000000061
 30
0.0
 11
156.5723189999999931
 21
216.4000340000000051
 31
0.0
  0
LINE
  5
196
100
AcDbEntity
100
AcDbLine
  8
COTE
 62
1
370
-1
  6
CONTINUOUS
 10
171.5855599999999868
 20
211.3967240000000061
 30
0.0
 11
171.5855599999999868
 21
216.4000340000000051
 31
0.0
  0
CIRCLE
  5
197
100
AcDbEntity
100
AcDbCircle
  8
COTE
 62
1
370
-1
  6
CONTINUOUS
 10
156.4659969999999873
 20
188.3890509999999949
 30
0.0
 40
1.463598
  0
LINE
  5
198
100
AcDbEntity
100
AcDbLine
  8
COTE
 62
1
370
-1
  6
CONTINUOUS
 10
156.5723189999999931
 20
211.3967240000000061
 30
0.0
 11
171.5855599999999868
 21
211.3967240000000061
 31
0.0
  0
CIRCLE
  5
199
100
AcDbEntity
100
AcDbCircle
  8
COTE
 62
1
370
-1
  6
CONTINUOUS
 10
156.4659969999999873
 20
188.3890509999999949
 30
0.0
 40
0.735307
  0
LINE
  5
19A
100
AcDbEntity
100
AcDbLine
  8
COTE
 62
1
370
-1
  6
CONTINUOUS
 10
135.6248339999999928
 20
188.3890509999999949
 30
0.0
 11
153.9635140000000035
 21
188.3890509999999949
 31
0.0
  0
LINE
  5
19B
100
AcDbEntity
100
AcDbLine
  8
COTE
 62
1
370
-1
  6
CONTINUOUS
 10
156.5723189999999931
 20
216.4000340000000051
 30
0.0
 11
171.5855599999999868
 21
216.4000340000000051
 31
0.0
  0
LINE
  5
19C
100
AcDbEntity
100
AcDbLine
  8
FORT
 62
7
370
-1
  6
CONTINUOUS
 10
128.7226180000000113
 20
222.1837150000000065
 30
0.0
 11
140.6667270000000087
 21
222.1837150000000065
 31
0.0
  0
LINE
  5
19D
100
AcDbEntity
100
AcDbLine
  8
COTE
 62
1
370
-1
  6
CONTINUOUS
 10
135.0536840000000041
 20
220.1415360000000021
 30
0.0
 11
135.6248339999999928
 21
222.1837150000000065
 31
0.0
  0
LINE
  5
19E
100
AcDbEntity
100
AcDbLine
  8
COTE
 62
1
370
-1
  6
CONTINUOUS
 10
136.1959850000000074
 20
220.1415360000000021
 30
0.0
 11
135.6248339999999928
 21
222.1837150000000065
 31
0.0
  0
LINE
  5
19F
100
AcDbEntity
100
AcDbLine
  8
COTE
 62
1
370
-1
  6
CONTINUOUS
 10
135.6248339999999928
 20
213.8983790000000056
 30
0.0
 11
135.6248339999999928
 21
222.1837150000000065
 31
0.0
  0
LINE
  5
1A0
100
AcDbEntity
100
AcDbLine
  8
COTE
 62
1
370
-1
  6
CONTINUOUS
 10
135.6248339999999928
 20
213.8983790000000056
 30
0.0
 11
156.5723189999999931
 21
213.8983790000000056
 31
0.0
  0
LINE
  5
1A1
100
AcDbEntity
100
AcDbLine
  8
COTE
 62
1
370
-1
  6
CONTINUOUS
 10
182.7344080000000019
 20
180.103714999999994
 30
0.0
 11
182.7344080000000019
 21
222.1837150000000065
 31
0.0
  0
LINE
  5
1A2
100
AcDbEntity
100
AcDbLine
  8
COTE
 62
1
370
-1
  6
CONTINUOUS
 10
194.0698899999999867
 20
159.117715000000004
 30
0.0
 11
194.0698899999999867
 21
201.143714999999986
 31
0.0
  0
LINE
  5
1A3
100
AcDbEntity
100
AcDbLine
  8
COTE
 62
1
370
-1
  6
CONTINUOUS
 10
173.9403430000000128
 20
185.8865680000000111
 30
0.0
 11
173.9403430000000128
 21
190.8915340000000072
 31
0.0
  0
LINE
  5
1A4
100
AcDbEntity
100
AcDbLine
  8
COTE
 62
1
370
-1
  6
CONTINUOUS
 10
173.9403430000000128
 20
168.3538959999999918
 30
0.0
 11
173.9403430000000128
 21
173.3588619999999878
 31
0.0
  0
LINE
  5
1A5
100
AcDbEntity
100
AcDbLine
  8
COTE
 62
1
370
-1
  6
CONTINUOUS
 10
177.2810749999999871
 20
153.2047110000000032
 30
0.0
 11
181.6504309999999975
 21
151.6972039999999993
 31
0.0
  0
LINE
  5
1A6
100
AcDbEntity
100
AcDbLine
  8
COTE
 62
1
370
-1
  6
CONTINUOUS
 10
183.8844919999999945
 20
159.117715000000004
 30
0.0
 11
196.0698899999999867
 21
159.117715000000004
 31
0.0
  0
LINE
  5
1A7
100
AcDbEntity
100
AcDbLine
  8
COTE
 62
1
370
-1
  6
CONTINUOUS
 10
193.498739999999998
 20
161.1598950000000059
 30
0.0
 11
194.0698899999999867
 21
159.117715000000004
 31
0.0
  0
LINE
  5
1A8
100
AcDbEntity
100
AcDbLine
  8
COTE
 62
1
370
-1
  6
CONTINUOUS
 10
194.6410400000000038
 20
161.1598950000000059
 30
0.0
 11
194.0698899999999867
 21
159.117715000000004
 31
0.0
  0
LINE
  5
1A9
100
AcDbEntity
100
AcDbLine
  8
COTE
 62
1
370
-1
  6
CONTINUOUS
 10
183.3055579999999907
 20
182.1458949999999959
 30
0.0
 11
182.7344080000000019
 21
180.103714999999994
 31
0.0
  0
LINE
  5
1AA
100
AcDbEntity
100
AcDbLine
  8
COTE
 62
1
370
-1
  6
CONTINUOUS
 10
183.3055579999999907
 20
177.051936000000012
 30
0.0
 11
182.7344080000000019
 21
179.094114999999988
 31
0.0
  0
LINE
  5
1AB
100
AcDbEntity
100
AcDbLine
  8
COTE
 62
1
370
-1
  6
CONTINUOUS
 10
182.1632580000000132
 20
182.1458949999999959
 30
0.0
 11
182.7344080000000019
 21
180.103714999999994
 31
0.0
  0
LINE
  5
1AC
100
AcDbEntity
100
AcDbLine
  8
COTE
 62
1
370
-1
  6
CONTINUOUS
 10
182.1632580000000132
 20
177.051936000000012
 30
0.0
 11
182.7344080000000019
 21
179.094114999999988
 31
0.0
  0
LINE
  5
1AD
100
AcDbEntity
100
AcDbLine
  8
COTE
 62
1
370
-1
  6
CONTINUOUS
 10
177.6261320000000126
 20
196.1079029999999932
 30
0.0
 11
181.9954879999999946
 21
195.0526480000000049
 31
0.0
  0
LINE
  5
1AE
100
AcDbEntity
100
AcDbLine
  8
COTE
 62
1
370
-1
  6
CONTINUOUS
 10
183.8844919999999945
 20
201.143714999999986
 30
0.0
 11
196.0698899999999867
 21
201.143714999999986
 31
0.0
  0
LINE
  5
1AF
100
AcDbEntity
100
AcDbLine
  8
COTE
 62
1
370
-1
  6
CONTINUOUS
 10
193.498739999999998
 20
199.1015360000000101
 30
0.0
 11
194.0698899999999867
 21
201.143714999999986
 31
0.0
  0
LINE
  5
1B0
100
AcDbEntity
100
AcDbLine
  8
COTE
 62
1
370
-1
  6
CONTINUOUS
 10
194.6410400000000038
 20
199.1015360000000101
 30
0.0
 11
194.0698899999999867
 21
201.143714999999986
 31
0.0
  0
LINE
  5
1B1
100
AcDbEntity
100
AcDbLine
  8
COTE
 62
1
370
-1
  6
CONTINUOUS
 10
181.3710719999999981
 20
222.5837150000000122
 30
0.0
 11
184.0977440000000058
 21
222.5837150000000122
 31
0.0
  0
LINE
  5
1B2
100
AcDbEntity
100
AcDbLine
  8
COTE
 62
1
370
-1
  6
CONTINUOUS
 10
181.2443260000000009
 20
222.3837149999999951
 30
0.0
 11
184.224490000000003
 21
222.3837149999999951
 31
0.0
  0
LINE
  5
1B3
100
AcDbEntity
100
AcDbLine
  8
COTE
 62
1
370
-1
  6
CONTINUOUS
 10
181.7513099999999895
 20
223.1837150000000065
 30
0.0
 11
183.7175070000000119
 21
223.1837150000000065
 31
0.0
  0
LINE
  5
1B4
100
AcDbEntity
100
AcDbLine
  8
COTE
 62
1
370
-1
  6
CONTINUOUS
 10
181.6245639999999923
 20
222.9837149999999895
 30
0.0
 11
183.844253000000009
 21
222.9837149999999895
 31
0.0
  0
LINE
  5
1B5
100
AcDbEntity
100
AcDbLine
  8
COTE
 62
1
370
-1
  6
CONTINUOUS
 10
181.4978179999999952
 20
222.7837150000000008
 30
0.0
 11
183.9709990000000062
 21
222.7837150000000008
 31
0.0
  0
LINE
  5
1B6
100
AcDbEntity
100
AcDbLine
  8
COTE
 62
1
370
-1
  6
CONTINUOUS
 10
181.1175800000000038
 20
222.1837150000000065
 30
0.0
 11
182.7344080000000019
 21
224.7350059999999985
 31
0.0
  0
LINE
  5
1B7
100
AcDbEntity
100
AcDbLine
  8
COTE
 62
1
370
-1
  6
CONTINUOUS
 10
181.8780549999999891
 20
223.3837149999999951
 30
0.0
 11
183.5907609999999863
 21
223.3837149999999951
 31
0.0
  0
LINE
  5
1B8
100
AcDbEntity
100
AcDbLine
  8
COTE
 62
1
370
-1
  6
CONTINUOUS
 10
182.0121059999999886
 20
223.5837150000000122
 30
0.0
 11
183.4640149999999892
 21
223.5837150000000122
 31
0.0
  0
LINE
  5
1B9
100
AcDbEntity
100
AcDbLine
  8
COTE
 62
1
370
-1
  6
CONTINUOUS
 10
182.1315470000000118
 20
223.7837150000000008
 30
0.0
 11
183.337268999999992
 21
223.7837150000000008
 31
0.0
  0
LINE
  5
1BA
100
AcDbEntity
100
AcDbLine
  8
COTE
 62
1
370
-1
  6
CONTINUOUS
 10
182.258293000000009
 20
223.9837149999999895
 30
0.0
 11
183.2105229999999949
 21
223.9837149999999895
 31
0.0
  0
LINE
  5
1BB
100
AcDbEntity
100
AcDbLine
  8
COTE
 62
1
370
-1
  6
CONTINUOUS
 10
182.3850390000000061
 20
224.1837150000000065
 30
0.0
 11
183.0837779999999952
 21
224.1837150000000065
 31
0.0
  0
LINE
  5
1BC
100
AcDbEntity
100
AcDbLine
  8
COTE
 62
1
370
-1
  6
CONTINUOUS
 10
182.5117850000000033
 20
224.3837149999999951
 30
0.0
 11
182.9570319999999981
 21
224.3837149999999951
 31
0.0
  0
LINE
  5
1BD
100
AcDbEntity
100
AcDbLine
  8
COTE
 62
1
370
-1
  6
CONTINUOUS
 10
182.7344080000000019
 20
224.7350059999999985
 30
0.0
 11
184.3512360000000001
 21
222.1837150000000065
 31
0.0
  0
LINE
  5
1BE
100
AcDbEntity
100
AcDbLine
  8
COTE
 62
1
370
-1
  6
CONTINUOUS
 10
183.3055579999999907
 20
220.1415360000000021
 30
0.0
 11
182.7344080000000019
 21
222.1837150000000065
 31
0.0
  0
LINE
  5
1BF
100
AcDbEntity
100
AcDbLine
  8
COTE
 62
1
370
-1
  6
CONTINUOUS
 10
182.6385310000000004
 20
224.5837150000000122
 30
0.0
 11
182.830286000000001
 21
224.5837150000000122
 31
0.0
  0
LINE
  5
1C0
100
AcDbEntity
100
AcDbLine
  8
COTE
 62
1
370
-1
  6
CONTINUOUS
 10
182.1632580000000132
 20
220.1415360000000021
 30
0.0
 11
182.7344080000000019
 21
222.1837150000000065
 31
0.0
  0
LINE
  5
1C1
100
AcDbEntity
100
AcDbLine
  8
COTE
 62
1
370
-1
  6
CONTINUOUS
 10
153.9635140000000035
 20
250.0371989999999869
 30
0.0
 11
173.9403430000000128
 21
250.0371989999999869
 31
0.0
  0
LINE
  5
1C2
100
AcDbEntity
100
AcDbLine
  8
COTE
 62
1
370
-1
  6
CONTINUOUS
 10
153.9635140000000035
 20
255.0421640000000139
 30
0.0
 11
173.9403430000000128
 21
255.0421640000000139
 31
0.0
  0
LINE
  5
1C3
100
AcDbEntity
100
AcDbLine
  8
COTE
 62
1
370
-1
  6
CONTINUOUS
 10
130.7647980000000132
 20
251.9470159999999908
 30
0.0
 11
128.7226180000000113
 21
252.5181660000000079
 31
0.0
  0
LINE
  5
1C4
100
AcDbEntity
100
AcDbLine
  8
COTE
 62
1
370
-1
  6
CONTINUOUS
 10
130.7647980000000132
 20
253.0893159999999966
 30
0.0
 11
128.7226180000000113
 21
252.5181660000000079
 31
0.0
  0
LINE
  5
1C5
100
AcDbEntity
100
AcDbLine
  8
COTE
 62
1
370
-1
  6
CONTINUOUS
 10
153.9635140000000035
 20
250.0371989999999869
 30
0.0
 11
153.9635140000000035
 21
255.0421640000000139
 31
0.0
  0
LINE
  5
1C6
100
AcDbEntity
100
AcDbLine
  8
COTE
 62
1
370
-1
  6
CONTINUOUS
 10
156.7905979999999886
 20
252.8848160000000007
 30
0.0
 11
155.780998000000011
 21
251.1602210000000071
 31
0.0
  0
LINE
  5
1C7
100
AcDbEntity
100
AcDbLine
  8
COTE
 62
1
370
-1
  6
CONTINUOUS
 10
156.9163839999999936
 20
252.800407000000007
 30
0.0
 11
156.6648120000000119
 21
252.9692249999999945
 31
0.0
  0
LINE
  5
1C8
100
AcDbEntity
100
AcDbLine
  8
COTE
 62
1
370
-1
  6
CONTINUOUS
 10
156.6648120000000119
 20
252.9692249999999945
 30
0.0
 11
157.2953980000000058
 21
253.7686290000000042
 31
0.0
  0
LINE
  5
1C9
100
AcDbEntity
100
AcDbLine
  8
COTE
 62
1
370
-1
  6
CONTINUOUS
 10
157.2953980000000058
 20
253.7686290000000042
 30
0.0
 11
156.9163839999999936
 21
252.800407000000007
 31
0.0
  0
LINE
  5
1CA
100
AcDbEntity
100
AcDbLine
  8
COTE
 62
1
370
-1
  6
CONTINUOUS
 10
128.7226180000000113
 20
252.5181660000000079
 30
0.0
 11
153.9635140000000035
 21
252.5181660000000079
 31
0.0
  0
LINE
  5
1CB
100
AcDbEntity
100
AcDbLine
  8
COTE
 62
1
370
-1
  6
CONTINUOUS
 10
158.9254469999999912
 20
255.0421640000000139
 30
0.0
 11
158.9254469999999912
 21
250.0371989999999869
 31
0.0
  0
LINE
  5
1CC
100
AcDbEntity
100
AcDbLine
  8
COTE
 62
1
370
-1
  6
CONTINUOUS
 10
167.4209789999999884
 20
250.0371989999999869
 30
0.0
 11
167.4209789999999884
 21
255.0421640000000139
 31
0.0
  0
LWPOLYLINE
  5
1CD
  8
COTE
 62
1
370
-1
  6
CONTINUOUS
100
AcDbEntity
100
AcDbPolyline
 90
2
 70
0
 10
180.2104089999999985
 20
229.121814999999998
 10
185.2153739999999971
 20
229.121814999999998
  0
LWPOLYLINE
  5
1CE
  8
COTE
 62
1
370
-1
  6
CONTINUOUS
100
AcDbEntity
100
AcDbPolyline
 90
2
 70
0
 10
185.2153739999999971
 20
234.126780999999994
 10
180.2104089999999985
 20
234.126780999999994
  0
LWPOLYLINE
  5
1CF
  8
COTE
 62
1
370
-1
  6
CONTINUOUS
100
AcDbEntity
100
AcDbPolyline
 90
2
 70
0
 10
180.2104089999999985
 20
234.126780999999994
 10
180.2104089999999985
 20
229.121814999999998
  0
LINE
  5
1D0
100
AcDbEntity
100
AcDbLine
  8
COTE
 62
1
370
-1
  6
CONTINUOUS
 10
173.9403430000000128
 20
255.0421640000000139
 30
0.0
 11
173.9403430000000128
 21
250.0371989999999869
 31
0.0
  0
LWPOLYLINE
  5
1D1
  8
COTE
 62
1
370
-1
  6
CONTINUOUS
100
AcDbEntity
100
AcDbPolyline
 90
2
 70
0
 10
185.2153739999999971
 20
229.121814999999998
 10
185.2153739999999971
 20
234.126780999999994
  0
CIRCLE
  5
1D2
100
AcDbEntity
100
AcDbCircle
  8
FIN
 62
5
370
-1
  6
CONTINUOUS
 10
305.3002940000000081
 20
159.117715000000004
 30
0.0
 40
72.3519500000000022
  0
CIRCLE
  5
1D3
100
AcDbEntity
100
AcDbCircle
  8
FORT
 62
7
370
-1
  6
CONTINUOUS
 10
305.3002940000000081
 20
159.117715000000004
 30
0.0
 40
21.0399999999999991
  0
CIRCLE
  5
1D4
100
AcDbEntity
100
AcDbCircle
  8
FORT
 62
7
370
-1
  6
CONTINUOUS
 10
305.3002940000000081
 20
159.117715000000004
 30
0.0
 40
18.2940000000000005
  0
CIRCLE
  5
1D5
100
AcDbEntity
100
AcDbCircle
  8
FORT
 62
7
370
-1
  6
CONTINUOUS
 10
305.3002940000000081
 20
159.117715000000004
 30
0.0
 40
15.7539999999999996
  0
ARC
  5
1D6
100
AcDbEntity
  8
FIN
 62
5
370
-1
  6
CONTINUOUS
100
AcDbCircle
 10
305.3002940000000081
 20
159.117715000000004
 30
0.0
 40
27.4421709999999983
100
AcDbArc
 50
140.6875929999999926
 51
39.3124070000000003
  0
ARC
  5
1D7
100
AcDbEntity
  8
FIN
 62
5
370
-1
  6
CONTINUOUS
100
AcDbCircle
 10
305.3002940000000081
 20
159.117715000000004
 30
0.0
 40
25.7030090000000015
100
AcDbArc
 50
140.687657999999999
 51
39.312342000000001
  0
LINE
  5
1D8
100
AcDbEntity
100
AcDbLine
  8
FORT
 62
7
370
-1
  6
CONTINUOUS
 10
305.3002940000000081
 20
71.1788180000000068
 30
0.0
 11
305.3002940000000081
 21
76.1788180000000068
 31
0.0
  0
LINE
  5
1D9
100
AcDbEntity
100
AcDbLine
  8
FORT
 62
7
370
-1
  6
CONTINUOUS
 10
314.718906000000004
 20
61.8454849999999965
 30
0.0
 11
305.3002940000000081
 21
61.8454849999999965
 31
0.0
  0
LINE
  5
1DA
100
AcDbEntity
100
AcDbLine
  8
FORT
 62
7
370
-1
  6
CONTINUOUS
 10
305.3002940000000081
 20
61.8454849999999965
 30
0.0
 11
308.1002940000000194
 21
60.9121510000000015
 31
0.0
  0
LINE
  5
1DB
100
AcDbEntity
100
AcDbLine
  8
FORT
 62
7
370
-1
  6
CONTINUOUS
 10
305.3002940000000081
 20
61.8454849999999965
 30
0.0
 11
308.1002940000000194
 21
62.7788180000000011
 31
0.0
  0
LINE
  5
1DC
100
AcDbEntity
100
AcDbLine
  8
FORT
 62
7
370
-1
  6
CONTINUOUS
 10
305.3002940000000081
 20
57.1788179999999997
 30
0.0
 11
305.3002940000000081
 21
67.1788180000000068
 31
0.0
  0
LINE
  5
1DD
100
AcDbEntity
100
AcDbLine
  8
FORT
 62
7
370
-1
  6
CONTINUOUS
 10
305.3002940000000081
 20
68.1788180000000068
 30
0.0
 11
305.3002940000000081
 21
70.1788180000000068
 31
0.0
  0
LINE
  5
1DE
100
AcDbEntity
100
AcDbLine
  8
FORT
 62
7
370
-1
  6
CONTINUOUS
 10
305.3002940000000081
 20
65.5121510000000029
 30
0.0
 11
305.3002940000000081
 21
57.1788179999999997
 31
0.0
  0
LINE
  5
1DF
100
AcDbEntity
100
AcDbLine
  8
FORT
 62
7
370
-1
  6
CONTINUOUS
 10
305.3002940000000081
 20
65.5121510000000029
 30
0.0
 11
305.3002940000000081
 21
57.1788179999999997
 31
0.0
  0
MTEXT
  5
1E0
100
AcDbEntity
100
AcDbMText
  8
TEXTE
 62
7
370
-1
  6
CONTINUOUS
 10
306.4306889999999726
 20
51.3795610000000025
 30
0.0
 40
4.1666670000000003
 41
100.0
 71
9
 72
2
  1
A
  7
iso9
 50
0.0
 73
0
 44
1.0
  0
ARC
  5
1E1
100
AcDbEntity
  8
FIN
 62
5
370
-1
  6
CONTINUOUS
100
AcDbCircle
 10
305.3002940000000081
 20
201.143714999999986
 30
0.0
 40
26.4420000000000002
100
AcDbArc
 50
322.8296490000000176
 51
217.1703510000000108
  0
ARC
  5
1E2
100
AcDbEntity
  8
FIN
 62
5
370
-1
  6
CONTINUOUS
100
AcDbCircle
 10
305.3002940000000081
 20
201.143714999999986
 30
0.0
 40
24.7029999999999994
100
AcDbArc
 50
322.8293630000000007
 51
217.1706369999999993
  0
CIRCLE
  5
1E3
100
AcDbEntity
100
AcDbCircle
  8
FORT
 62
7
370
-1
  6
CONTINUOUS
 10
305.3002940000000081
 20
201.143714999999986
 30
0.0
 40
20.0240000000000009
  0
CIRCLE
  5
1E4
100
AcDbEntity
100
AcDbCircle
  8
FORT
 62
7
370
-1
  6
CONTINUOUS
 10
305.3002940000000081
 20
201.143714999999986
 30
0.0
 40
14.7379999999999995
  0
CIRCLE
  5
1E5
100
AcDbEntity
100
AcDbCircle
  8
FORT
 62
7
370
-1
  6
CONTINUOUS
 10
305.3002940000000081
 20
201.143714999999986
 30
0.0
 40
17.3299999999999983
  0
ARC
  5
1E6
100
AcDbEntity
  8
FIN
 62
5
370
-1
  6
CONTINUOUS
100
AcDbCircle
 10
278.6522820000000138
 20
180.9384980000000098
 30
0.0
 40
7.0
100
AcDbArc
 50
320.6875929999999926
 51
37.1703509999999966
  0
ARC
  5
1E7
100
AcDbEntity
  8
FIN
 62
5
370
-1
  6
CONTINUOUS
100
AcDbCircle
 10
278.6523829999999862
 20
180.938366000000002
 30
0.0
 40
8.7390000000000008
100
AcDbArc
 50
320.687657999999999
 51
37.1706369999999993
  0
ARC
  5
1E8
100
AcDbEntity
  8
FIN
 62
5
370
-1
  6
CONTINUOUS
100
AcDbCircle
 10
331.9483069999999998
 20
180.9384980000000098
 30
0.0
 40
7.0
100
AcDbArc
 50
142.8296489999999892
 51
219.3124070000000074
  0
ARC
  5
1E9
100
AcDbEntity
  8
FIN
 62
5
370
-1
  6
CONTINUOUS
100
AcDbCircle
 10
331.9482060000000274
 20
180.938366000000002
 30
0.0
 40
8.7390000000000008
100
AcDbArc
 50
142.8293630000000007
 51
219.312342000000001
  0
MTEXT
  5
1EA
100
AcDbEntity
100
AcDbMText
  8
TEXTE
 62
7
370
-1
  6
CONTINUOUS
 10
306.4306889999999726
 20
262.6892030000000204
 30
0.0
 40
4.1666670000000003
 41
100.0
 71
9
 72
2
  1
A
  7
iso9
 50
0.0
 73
0
 44
1.0
  0
LINE
  5
1EB
100
AcDbEntity
100
AcDbLine
  8
FORT
 62
7
370
-1
  6
CONTINUOUS
 10
305.3002940000000081
 20
261.0566130000000271
 30
0.0
 11
305.3002940000000081
 21
251.0566129999999987
 31
0.0
  0
LINE
  5
1EC
100
AcDbEntity
100
AcDbLine
  8
FORT
 62
7
370
-1
  6
CONTINUOUS
 10
305.3002940000000081
 20
252.7232789999999909
 30
0.0
 11
305.3002940000000081
 21
261.0566130000000271
 31
0.0
  0
LINE
  5
1ED
100
AcDbEntity
100
AcDbLine
  8
FORT
 62
7
370
-1
  6
CONTINUOUS
 10
305.3002940000000081
 20
252.7232789999999909
 30
0.0
 11
305.3002940000000081
 21
261.0566130000000271
 31
0.0
  0
LINE
  5
1EE
100
AcDbEntity
100
AcDbLine
  8
FORT
 62
7
370
-1
  6
CONTINUOUS
 10
305.3002940000000081
 20
250.0566129999999987
 30
0.0
 11
305.3002940000000081
 21
248.0566129999999987
 31
0.0
  0
LINE
  5
1EF
100
AcDbEntity
100
AcDbLine
  8
FORT
 62
7
370
-1
  6
CONTINUOUS
 10
305.3002940000000081
 20
247.0566129999999987
 30
0.0
 11
305.3002940000000081
 21
242.0566129999999987
 31
0.0
  0
LINE
  5
1F0
100
AcDbEntity
100
AcDbLine
  8
FORT
 62
7
370
-1
  6
CONTINUOUS
 10
314.718906000000004
 20
256.389946000000009
 30
0.0
 11
305.3002940000000081
 21
256.389946000000009
 31
0.0
  0
LINE
  5
1F1
100
AcDbEntity
100
AcDbLine
  8
FORT
 62
7
370
-1
  6
CONTINUOUS
 10
305.3002940000000081
 20
256.389946000000009
 30
0.0
 11
308.1002940000000194
 21
257.3232790000000136
 31
0.0
  0
LINE
  5
1F2
100
AcDbEntity
100
AcDbLine
  8
FORT
 62
7
370
-1
  6
CONTINUOUS
 10
305.3002940000000081
 20
256.389946000000009
 30
0.0
 11
308.1002940000000194
 21
255.4566130000000044
 31
0.0
  0
LINE
  5
1F3
100
AcDbEntity
100
AcDbLine
  8
FIN
 62
5
370
-1
  6
CONTINUOUS
 10
230.5
 20
10.500000000000032
 30
0.0
 11
419.5
 21
10.5
 31
0.0
  0
LINE
  5
1F4
100
AcDbEntity
100
AcDbLine
  8
FIN
 62
5
370
-1
  6
CONTINUOUS
 10
260.0
 20
0.4999999999999932
 30
0.0
 11
260.0
 21
30.4999999999999964
 31
0.0
  0
LINE
  5
1F5
100
AcDbEntity
100
AcDbLine
  8
FORT
 62
7
370
-1
  6
CONTINUOUS
 10
20.0
 20
277.0
 30
0.0
 11
420.0
 21
277.0
 31
0.0
  0
LINE
  5
1F6
100
AcDbEntity
100
AcDbLine
  8
FORT
 62
7
370
-1
  6
CONTINUOUS
 10
20.0
 20
277.0
 30
0.0
 11
20.0
 21
0.000000000000049
 31
0.0
  0
LINE
  5
1F7
100
AcDbEntity
100
AcDbLine
  8
FORT
 62
7
370
-1
  6
CONTINUOUS
 10
20.0
 20
0.000000000000049
 30
0.0
 11
230.0
 21
0.0000000000000233
 31
0.0
  0
LINE
  5
1F8
100
AcDbEntity
100
AcDbLine
  8
FORT
 62
7
370
-1
  6
CONTINUOUS
 10
230.0
 20
0.0000000000000233
 30
0.0
 11
230.0
 21
31.0000000000000604
 31
0.0
  0
LINE
  5
1F9
100
AcDbEntity
100
AcDbLine
  8
FORT
 62
256
370
70
  6
CONTINUOUS
 10
230.0
 20
31.0000000000000604
 30
0.0
 11
230.0
 21
0.0000000000000233
 31
0.0
  0
LINE
  5
1FA
100
AcDbEntity
100
AcDbLine
  8
FORT
 62
256
370
70
  6
ByLayer
 10
230.0
 20
0.0000000000000233
 30
0.0
 11
420.0
 21
0.0
 31
0.0
  0
LINE
  5
1FB
100
AcDbEntity
100
AcDbLine
  8
FORT
 62
256
370
70
  6
CONTINUOUS
 10
230.0
 20
31.0000000000000604
 30
0.0
 11
420.0
 21
31.0
 31
0.0
  0
LINE
  5
1FC
100
AcDbEntity
100
AcDbLine
  8
FORT
 62
7
370
-1
  6
CONTINUOUS
 10
420.0
 20
31.0
 30
0.0
 11
420.0
 21
277.0
 31
0.0
  0
LINE
  5
1FD
100
AcDbEntity
100
AcDbLine
  8
FORT
 62
256
370
70
  6
ByLayer
 10
420.0
 20
31.0
 30
0.0
 11
420.0
 21
0.0
 31
0.0
  0
MTEXT
  5
1FE
100
AcDbEntity
100
AcDbMText
  8
TEXTE
 62
7
370
-1
  6
CONTINUOUS
 10
234.6599572334866934
 20
22.31865099999996
 30
0.0
 40
5.0
 41
100.0
 71
7
 72
2
  1
Echelle
  7
iso9
 50
0.0
 73
1
 44
1.0
  0
MTEXT
  5
1FF
100
AcDbEntity
100
AcDbMText
  8
TEXTE
 62
7
370
-1
  6
CONTINUOUS
 10
240.7977192334867027
 20
13.3186510000000045
 30
0.0
 40
5.0
 41
100.0
 71
7
 72
2
  1
1:1
  7
iso9
 50
0.0
 73
1
 44
1.0
  0
LINE
  5
200
100
AcDbEntity
100
AcDbLine
  8
AXES
 62
256
370
-1
  6
ByLayer
 10
210.0525739999999928
 20
159.117715000000004
 30
0.0
 11
400.5480150000000208
 21
159.117715000000004
 31
0.0
  0
LINE
  5
201
100
AcDbEntity
100
AcDbLine
  8
AXES
 62
256
370
-1
  6
ByLayer
 10
62.5320940000000007
 20
201.143714999999986
 30
0.0
 11
150.1800330000000088
 21
201.143714999999986
 31
0.0
  0
LINE
  5
202
100
AcDbEntity
100
AcDbLine
  8
AXES
 62
256
370
-1
  6
ByLayer
 10
62.5320940000000007
 20
159.117715000000004
 30
0.0
 11
150.1800330000000088
 21
159.117715000000004
 31
0.0
  0
LINE
  5
203
100
AcDbEntity
100
AcDbLine
  8
AXES
 62
256
370
-1
  6
ByLayer
 10
305.3002940000000081
 20
76.1788180000000068
 30
0.0
 11
305.3002940000000081
 21
242.0566129999999987
 31
0.0
  0
LINE
  5
204
100
AcDbEntity
100
AcDbLine
  8
AXES
 62
256
370
-1
  6
ByLayer
 10
272.8765480000000139
 20
201.143714999999986
 30
0.0
 11
337.7240409999999997
 21
201.143714999999986
 31
0.0
  0
MTEXT
  5
205
100
AcDbEntity
100
AcDbMText
  8
COTE
 62
1
370
-1
  6
CONTINUOUS
 10
77.9571179999999941
 20
62.9140110000000021
 30
0.0
 40
3.0
 41
100.0
 71
7
 72
2
  1
11
  7
iso9
 50
0.0
 73
0
 44
1.0
  0
MTEXT
  5
206
100
AcDbEntity
100
AcDbMText
  8
COTE
 62
1
370
-1
  6
CONTINUOUS
 10
103.4705380000000048
 20
62.7286530000000013
 30
0.0
 40
3.0
 41
100.0
 71
7
 72
2
  1
41
  7
iso9
 50
0.0
 73
0
 44
1.0
  0
MTEXT
  5
207
100
AcDbEntity
100
AcDbMText
  8
COTE
 62
1
370
-1
  6
CONTINUOUS
 10
60.4017750000000007
 20
62.7286530000000013
 30
0.0
 40
3.0
 41
100.0
 71
7
 72
2
  1
6
  7
iso9
 50
0.0
 73
0
 44
1.0
  0
MTEXT
  5
208
100
AcDbEntity
100
AcDbMText
  8
COTE
 62
1
370
-1
  6
CONTINUOUS
 10
181.1740680000000054
 20
151.6036760000000072
 30
0.0
 40
3.0
 41
100.0
 71
7
 72
2
  1
O 40 H8
  7
iso9
 50
90.0
 73
0
 44
1.0
  0
MTEXT
  5
209
100
AcDbEntity
100
AcDbMText
  8
COTE
 62
1
370
-1
  6
CONTINUOUS
 10
192.6688430000000096
 20
173.964523000000014
 30
0.0
 40
3.0
 41
100.0
 71
7
 72
2
  1
42
  7
iso9
 50
90.0
 73
0
 44
1.0
  0
MTEXT
  5
20A
100
AcDbEntity
100
AcDbMText
  8
COTE
 62
1
370
-1
  6
CONTINUOUS
 10
181.5367999999999995
 20
194.7007380000000012
 30
0.0
 40
3.0
 41
100.0
 71
7
 72
2
  1
O 42 H8
  7
iso9
 50
90.0
 73
0
 44
1.0
  0
MTEXT
  5
20B
100
AcDbEntity
100
AcDbMText
  8
COTE
 62
1
370
-1
  6
CONTINUOUS
 10
35.640543000000001
 20
151.6036760000000072
 30
0.0
 40
3.0
 41
100.0
 71
7
 72
2
  1
O 42 H8
  7
iso9
 50
90.0
 73
0
 44
1.0
  0
MTEXT
  5
20C
100
AcDbEntity
100
AcDbMText
  8
COTE
 62
1
370
-1
  6
CONTINUOUS
 10
36.0032750000000021
 20
194.7007380000000012
 30
0.0
 40
3.0
 41
100.0
 71
7
 72
2
  1
O 40 H8
  7
iso9
 50
90.0
 73
0
 44
1.0
  0
MTEXT
  5
20D
100
AcDbEntity
100
AcDbMText
  8
COTE
 62
1
370
-1
  6
CONTINUOUS
 10
42.0911180000000016
 20
111.8430489999999935
 30
0.0
 40
3.0
 41
100.0
 71
7
 72
2
  1
0,05
  7
iso9
 50
0.0
 73
0
 44
1.0
  0
MTEXT
  5
20E
100
AcDbEntity
100
AcDbMText
  8
COTE
 62
1
370
-1
  6
CONTINUOUS
 10
51.103313
 20
111.9097210000000047
 30
0.0
 40
3.0
 41
100.0
 71
7
 72
2
  1
AB
  7
iso9
 50
0.0
 73
0
 44
1.0
  0
MTEXT
  5
20F
100
AcDbEntity
100
AcDbMText
  8
COTE
 62
1
370
-1
  6
CONTINUOUS
 10
159.4257800000000032
 20
111.8430489999999935
 30
0.0
 40
3.0
 41
100.0
 71
7
 72
2
  1
0,05
  7
iso9
 50
0.0
 73
0
 44
1.0
  0
MTEXT
  5
210
100
AcDbEntity
100
AcDbMText
  8
COTE
 62
1
370
-1
  6
CONTINUOUS
 10
168.437973999999997
 20
111.9097210000000047
 30
0.0
 40
3.0
 41
100.0
 71
7
 72
2
  1
AB
  7
iso9
 50
0.0
 73
0
 44
1.0
  0
MTEXT
  5
211
100
AcDbEntity
100
AcDbMText
  8
COTE
 62
1
370
-1
  6
CONTINUOUS
 10
36.2571119999999993
 20
126.9620100000000065
 30
0.0
 40
3.0
 41
100.0
 71
7
 72
2
  1
A
  7
iso9
 50
0.0
 73
0
 44
1.0
  0
MTEXT
  5
212
100
AcDbEntity
100
AcDbMText
  8
COTE
 62
1
370
-1
  6
CONTINUOUS
 10
181.8803509999999903
 20
127.9361540000000019
 30
0.0
 40
3.0
 41
100.0
 71
7
 72
2
  1
B
  7
iso9
 50
0.0
 73
0
 44
1.0
  0
MTEXT
  5
213
100
AcDbEntity
100
AcDbMText
  8
COTE
 62
1
370
-1
  6
CONTINUOUS
 10
36.4315429999999978
 20
228.8359409999999912
 30
0.0
 40
3.0
 41
100.0
 71
7
 72
2
  1
C
  7
iso9
 50
0.0
 73
0
 44
1.0
  0
MTEXT
  5
214
100
AcDbEntity
100
AcDbMText
  8
COTE
 62
1
370
-1
  6
CONTINUOUS
 10
181.8757579999999905
 20
229.8764769999999942
 30
0.0
 40
3.0
 41
100.0
 71
7
 72
2
  1
D
  7
iso9
 50
0.0
 73
0
 44
1.0
  0
MTEXT
  5
215
100
AcDbEntity
100
AcDbMText
  8
COTE
 62
1
370
-1
  6
CONTINUOUS
 10
48.1793600000000026
 20
144.6298040000000071
 30
0.0
 40
3.0
 41
100.0
 71
7
 72
2
  1
0,02
  7
iso9
 50
0.0
 73
0
 44
1.0
  0
MTEXT
  5
216
100
AcDbEntity
100
AcDbMText
  8
COTE
 62
1
370
-1
  6
CONTINUOUS
 10
162.7729449999999929
 20
145.6458039999999983
 30
0.0
 40
3.0
 41
100.0
 71
7
 72
2
  1
0,02
  7
iso9
 50
0.0
 73
0
 44
1.0
  0
MTEXT
  5
217
100
AcDbEntity
100
AcDbMText
  8
COTE
 62
1
370
-1
  6
CONTINUOUS
 10
48.1793600000000026
 20
211.1491320000000087
 30
0.0
 40
3.0
 41
100.0
 71
7
 72
2
  1
0,02
  7
iso9
 50
0.0
 73
0
 44
1.0
  0
MTEXT
  5
218
100
AcDbEntity
100
AcDbMText
  8
COTE
 62
1
370
-1
  6
CONTINUOUS
 10
160.1451050000000009
 20
169.0650750000000073
 30
0.0
 40
3.0
 41
100.0
 71
7
 72
2
  1
O0,1
  7
iso9
 50
0.0
 73
0
 44
1.0
  0
MTEXT
  5
219
100
AcDbEntity
100
AcDbMText
  8
COTE
 62
1
370
-1
  6
CONTINUOUS
 10
170.5212559999999939
 20
169.1179329999999936
 30
0.0
 40
3.0
 41
100.0
 71
7
 72
2
  1
A
  7
iso9
 50
0.0
 73
0
 44
1.0
  0
MTEXT
  5
21A
100
AcDbEntity
100
AcDbMText
  8
COTE
 62
1
370
-1
  6
CONTINUOUS
 10
160.1451050000000009
 20
186.5977469999999983
 30
0.0
 40
3.0
 41
100.0
 71
7
 72
2
  1
O0,1
  7
iso9
 50
0.0
 73
0
 44
1.0
  0
MTEXT
  5
21B
100
AcDbEntity
100
AcDbMText
  8
COTE
 62
1
370
-1
  6
CONTINUOUS
 10
170.476852000000008
 20
186.618220000000008
 30
0.0
 40
3.0
 41
100.0
 71
7
 72
2
  1
C
  7
iso9
 50
0.0
 73
0
 44
1.0
  0
MTEXT
  5
21C
100
AcDbEntity
100
AcDbMText
  8
COTE
 62
1
370
-1
  6
CONTINUOUS
 10
162.7729449999999929
 20
212.1651319999999998
 30
0.0
 40
3.0
 41
100.0
 71
7
 72
2
  1
0,02
  7
iso9
 50
0.0
 73
0
 44
1.0
  0
MTEXT
  5
21D
100
AcDbEntity
100
AcDbMText
  8
COTE
 62
1
370
-1
  6
CONTINUOUS
 10
42.1260550000000009
 20
250.8384949999999947
 30
0.0
 40
3.0
 41
100.0
 71
7
 72
2
  1
0,05
  7
iso9
 50
0.0
 73
0
 44
1.0
  0
MTEXT
  5
21E
100
AcDbEntity
100
AcDbMText
  8
COTE
 62
1
370
-1
  6
CONTINUOUS
 10
51.1382499999999993
 20
250.9051660000000084
 30
0.0
 40
3.0
 41
100.0
 71
7
 72
2
  1
CD
  7
iso9
 50
0.0
 73
0
 44
1.0
  0
MTEXT
  5
21F
100
AcDbEntity
100
AcDbMText
  8
COTE
 62
1
370
-1
  6
CONTINUOUS
 10
159.4657379999999876
 20
250.8384949999999947
 30
0.0
 40
3.0
 41
100.0
 71
7
 72
2
  1
0,05
  7
iso9
 50
0.0
 73
0
 44
1.0
  0
MTEXT
  5
220
100
AcDbEntity
100
AcDbMText
  8
COTE
 62
1
370
-1
  6
CONTINUOUS
 10
168.4779320000000098
 20
250.9051660000000084
 30
0.0
 40
3.0
 41
100.0
 71
7
 72
2
  1
CD
  7
iso9
 50
0.0
 73
0
 44
1.0
  0
MTEXT
  5
221
100
AcDbEntity
100
AcDbMText
  8
TEXTE
 62
7
370
70
  6
CONTINUOUS
 10
241.0037869999999884
 20
1.9279770000000378
 30
0.0
 40
7.0
 41
100.0
 71
7
 72
2
  1
A3
  7
iso9
 50
0.0
 73
1
 44
1.0
  0
MTEXT
  5
222
100
AcDbEntity
100
AcDbMText
  8
TEXTE
 62
7
370
-1
  6
CONTINUOUS
 10
286.3270456193866949
 20
3.1105767884971143
 30
0.0
 40
5.0
 41
100.0
 71
7
 72
2
  1
Dessin du porte satellite 19
  7
iso9
 50
0.0
 73
1
 44
1.0
  0
CIRCLE
  5
223
100
AcDbEntity
100
AcDbCircle
  8
INTERROMPU
 62
256
370
-1
  6
ByLayer
 10
305.3002940000000081
 20
159.117715000000004
 30
0.0
 40
20.0240000000000009
  0
CIRCLE
  5
224
100
AcDbEntity
100
AcDbCircle
  8
INTERROMPU
 62
256
370
-1
  6
ByLayer
 10
305.3002940000000081
 20
201.143714999999986
 30
0.0
 40
21.0399999999999991
  0
MTEXT
  5
225
100
AcDbEntity
100
AcDbMText
  8
TEXTE
 62
7
370
70
  6
CONTINUOUS
 10
284.6168599999999742
 20
16.6764562728905261
 30
0.0
 40
7.0
 41
100.0
 71
7
 72
2
  1
BATTEUR MELANGEUR
  7
iso9
 50
0.0
 73
1
 44
1.0
  0
MTEXT
  5
226
100
AcDbEntity
100
AcDbMText
  8
COTE
 62
1
370
25
  6
CONTINUOUS
 10
62.810177000000003
 20
64.3947511933806709
 30
0.0
 40
2.0
 41
100.0
 71
7
 72
2
  1
-
  7
iso9
 50
0.0
 73
0
 44
1.0
  0
MTEXT
  5
227
100
AcDbEntity
100
AcDbMText
  8
COTE
 62
1
370
-1
  6
CONTINUOUS
 10
62.810177000000003
 20
65.0437130465032283
 30
0.0
 40
2.0
 41
100.0
 71
7
 72
2
  1
+0,1
  7
iso9
 50
0.0
 73
0
 44
1.0
  0
MTEXT
  5
228
100
AcDbEntity
100
AcDbMText
  8
COTE
 62
1
370
-1
  6
CONTINUOUS
 10
81.5304739999999981
 20
66.7120182507088231
 30
0.0
 40
2.0
 41
100.0
 71
7
 72
2
  1
+0,2
  7
iso9
 50
0.0
 73
0
 44
1.0
  0
MTEXT
  5
229
100
AcDbEntity
100
AcDbMText
  8
COTE
 62
1
370
-1
  6
CONTINUOUS
 10
83.1040812507088162
 20
63.8027487124653803
 30
0.0
 40
2.0
 41
100.0
 71
7
 72
2
  1
0
  7
iso9
 50
0.0
 73
0
 44
1.0
  0
MTEXT
  5
22A
100
AcDbEntity
100
AcDbMText
  8
COTE
 62
1
370
-1
  6
CONTINUOUS
 10
109.7045449815871052
 20
66.7120182507088231
 30
0.0
 40
2.0
 41
100.0
 71
7
 72
2
  1
0
  7
iso9
 50
0.0
 73
0
 44
1.0
  0
MTEXT
  5
22B
100
AcDbEntity
100
AcDbMText
  8
COTE
 62
1
370
-1
  6
CONTINUOUS
 10
108.1026070000000061
 20
63.9064760488675176
 30
0.0
 40
2.0
 41
100.0
 71
7
 72
2
  1
-0,1
  7
iso9
 50
0.0
 73
0
 44
1.0
  0
MTEXT
  5
22C
100
AcDbEntity
100
AcDbMText
  8
COTE
 62
1
370
-1
  6
CONTINUOUS
 10
190.1571072311618025
 20
179.6667963230594864
 30
0.0
 40
2.0
 41
100.0
 71
7
 72
2
  1
+0,04
  7
iso9
 50
90.0
 73
0
 44
1.0
  0
MTEXT
  5
22D
100
AcDbEntity
100
AcDbMText
  8
COTE
 62
1
370
25
  6
CONTINUOUS
 10
191.0646650906701325
 20
179.620701183882062
 30
0.0
 40
2.0
 41
100.0
 71
7
 72
2
  1
-
  7
iso9
 50
90.0
 73
0
 44
1.0
  0
ENDSEC
  0
SECTION
  2
OBJECTS
  0
DICTIONARY
  5
C
100
AcDbDictionary
280
0
281
1
  3
ACAD_GROUP
350
D
  3
ACAD_LAYOUT
350
1A
  3
ACAD_MLINESTYLE
350
17
  3
ACAD_PLOTSETTINGS
350
19
  3
ACAD_PLOTSTYLENAME
350
E
  3
AcDbVariableDictionary
350
22E
  0
DICTIONARY
  5
D
100
AcDbDictionary
280
0
281
1
  0
ACDBDICTIONARYWDFLT
  5
E
100
AcDbDictionary
281
1
  3
Normal
350
F
100
AcDbDictionaryWithDefault
340
F
  0
ACDBPLACEHOLDER
  5
F
  0
DICTIONARY
  5
17
100
AcDbDictionary
280
0
281
1
  3
Standard
350
18
  0
MLINESTYLE
  5
18
100
AcDbMlineStyle
  2
STANDARD
 70
0
  3

 62
256
 51
90.0
 52
90.0
 71
2
 49
0.5
 62
256
  6
BYLAYER
 49
-0.5
 62
256
  6
BYLAYER
  0
DICTIONARY
  5
19
100
AcDbDictionary
280
0
281
1
  0
DICTIONARY
  5
1A
100
AcDbDictionary
281
1
  3
Layout1
350
1E
  3
Layout2
350
26
  3
Model
350
22
  0
LAYOUT
  5
1E
100
AcDbPlotSettings
  1

  2
C:\Program Files\AutoCAD 2002\plotters\DWF ePlot (optimized for plotting).pc3
  4

  6

 40
0.0
 41
0.0
 42
0.0
 43
0.0
 44
0.0
 45
0.0
 46
0.0
 47
0.0
 48
0.0
 49
0.0
140
0.0
141
0.0
142
1.0
143
1.0
 70
688
 72
0
 73
0
 74
5
  7

 75
16
147
1.0
148
0.0
149
0.0
100
AcDbLayout
  1
Layout1
 70
1
 71
1
 10
0.0
 20
0.0
 11
420.0
 21
297.0
 12
0.0
 22
0.0
 32
0.0
 14
100000000000000000000.0
 24
100000000000000000000.0
 34
100000000000000000000.0
 15
-100000000000000000000.0
 25
-100000000000000000000.0
 35
-100000000000000000000.0
146
0.0
 13
0.0
 23
0.0
 33
0.0
 16
1.0
 26
0.0
 36
0.0
 17
0.0
 27
1.0
 37
0.0
 76
0
330
1B
  0
LAYOUT
  5
22
100
AcDbPlotSettings
  1

  2
C:\Program Files\AutoCAD 2002\plotters\DWF ePlot (optimized for plotting).pc3
  4

  6

 40
0.0
 41
0.0
 42
0.0
 43
0.0
 44
0.0
 45
0.0
 46
0.0
 47
0.0
 48
0.0
 49
0.0
140
0.0
141
0.0
142
1.0
143
1.0
 70
1712
 72
0
 73
0
 74
0
  7

 75
0
147
1.0
148
0.0
149
0.0
100
AcDbLayout
  1
Model
 70
1
 71
0
 10
0.0
 20
0.0
 11
12.0
 21
9.0
 12
0.0
 22
0.0
 32
0.0
 14
0.0
 24
0.0
 34
0.0
 15
0.0
 25
0.0
 35
0.0
146
0.0
 13
0.0
 23
0.0
 33
0.0
 16
1.0
 26
0.0
 36
0.0
 17
0.0
 27
1.0
 37
0.0
 76
0
330
1F
  0
LAYOUT
  5
26
100
AcDbPlotSettings
  1

  2
C:\Program Files\AutoCAD 2002\plotters\DWF ePlot (optimized for plotting).pc3
  4

  6

 40
0.0
 41
0.0
 42
0.0
 43
0.0
 44
0.0
 45
0.0
 46
0.0
 47
0.0
 48
0.0
 49
0.0
140
0.0
141
0.0
142
1.0
143
1.0
 70
688
 72
0
 73
0
 74
5
  7

 75
16
147
1.0
148
0.0
149
0.0
100
AcDbLayout
  1
Layout2
 70
1
 71
2
 10
0.0
 20
0.0
 11
12.0
 21
9.0
 12
0.0
 22
0.0
 32
0.0
 14
0.0
 24
0.0
 34
0.0
 15
0.0
 25
0.0
 35
0.0
146
0.0
 13
0.0
 23
0.0
 33
0.0
 16
1.0
 26
0.0
 36
0.0
 17
0.0
 27
1.0
 37
0.0
 76
0
330
23
  0
DICTIONARY
  5
22E
100
AcDbDictionary
281
1
  3
DIMASSOC
350
230
  3
HIDETEXT
350
22F
  0
DICTIONARYVAR
  5
22F
100
DictionaryVariables
280
0
  1
2
  0
DICTIONARYVAR
  5
230
100
DictionaryVariables
280
0
  1
1
  0
ENDSEC
  0
EOF
