999
dxflib 2.0.4.8
  0
SECTION
  2
HEADER
  9
$ACADVER
  1
AC1015
  9
$HANDSEED
  5
FFFF
  9
$DIMTAD
 70
0
  9
$AXISUNIT
 10
0.0
 20
0.0
 30
0.0
  9
$USERR4
 40
0.0
  9
$VIEWSIZE
 40
9.0
  9
$SNAPBASE
 10
0.0
 20
0.0
 30
0.0
  9
$CLAYER
  8
FORT
  9
$MENU
  1
acad
  9
$VIEWDIR
 10
0.0
 20
0.0
 30
1.0
  9
$CHAMFERA
 40
10.0
  9
$ATTREQ
 70
1
  9
$USERR5
 40
0.0
  9
$EXTMIN
 10
0.0
 20
0.0
 30
0.0
  9
$ORTHOMODE
 70
0
  9
$REGENMODE
 70
1
  9
$TRACEWID
 40
0.05
  9
$CHAMFERB
 40
10.0
  9
$DIMADEC
 70
0
  9
$GRIDUNIT
 10
0.0
 20
0.0
  9
$DIMASZ
 40
0.18
  9
$SNAPSTYLE
 70
0
  9
$DIMSHO
 70
1
  9
$DIMALT
 70
0
  9
$SKETCHINC
 40
0.1
  9
$USRTIMER
 70
1
  9
$ANGBASE
 50
0.0
  9
$DIMGAP
 40
0.625
  9
$LIMMIN
 10
0.0
 20
-4.592784
  9
$DIMTSZ
 40
0.0
  9
$AXISMODE
 70
0
  9
$SPLFRAME
 70
0
  9
$BLIPMODE
 70
1
  9
$LUNITS
 70
2
  9
$AUPREC
 70
0
  9
$SPLINESEGS
 70
10
  9
$INSBASE
 10
0.0
 20
0.0
 30
0.0
  9
$DIMRND
 40
0.0
  9
$DIMCEN
 40
0.09
  9
$ELEVATION
 40
0.0
  9
$SKPOLY
 70
0
  9
$USERI1
 70
0
  9
$EXTMAX
 10
210.0
 20
297.0
 30
0.0
  9
$FILLMODE
 70
1
  9
$DRAGMODE
 70
2
  9
$TEXTSIZE
 40
0.2
  9
$USERI2
 70
0
  9
$INSUNITS
 70
4
  9
$DIMEXO
 40
0.0625
  9
$VIEWCTR
 10
6.0
 20
4.5
  9
$DIMSCALE
 40
1.0
  9
$DIMDLE
 40
0.0
  9
$DIMZIN
 70
0
  9
$TDUSRTIMER
 40
0.0
  9
$ANGDIR
 70
0
  9
$USERI3
 70
0
  9
$LIMMAX
 10
490.6569349999999758
 20
301.5927839999999946
  9
$QTEXTMODE
 70
0
  9
$OSMODE
 70
0
  9
$USERI4
 70
0
  9
$DIMLUNIT
 70
2
  9
$ATTMODE
 70
1
  9
$DIMLIM
 70
0
  9
$DIMSE1
 70
0
  9
$THICKNESS
 40
0.0
  9
$LIMCHECK
 70
0
  9
$FASTZOOM
 70
1
  9
$PDMODE
 70
0
  9
$USERI5
 70
0
  9
$DIMTXT
 40
0.18
  9
$GRIDMODE
 70
1
  9
$CELTYPE
  6
CONTINUOUS
  9
$DIMTOH
 70
1
  9
$DIMSE2
 70
0
  9
$DIMLFAC
 40
1.0
  9
$TDINDWG
 40
0.0
  9
$LUPREC
 70
4
  9
$SNAPMODE
 70
0
  9
$SNAPANG
 50
0.0
  9
$CECOLOR
 62
5
  9
$DIMDLI
 40
0.38
  9
$DIMTM
 40
0.0
  9
$DIMASO
 70
1
  9
$PLINEWID
 40
0.0
  9
$DIMSTYLE
  2
Standard
  9
$LTSCALE
 40
0.3
  9
$DIMTIH
 70
1
  9
$DIMALTD
 70
2
  9
$FILLETRAD
 40
10.0
  9
$TDUPDATE
 40
0.0
  9
$PLIMMIN
 10
0.0
 20
0.0
  9
$PLIMMAX
 10
210.0
 20
297.0
  9
$PDSIZE
 40
0.0
  9
$ATTDIA
 70
0
  9
$USERR1
 40
0.0
  9
$PINSBASE
 10
0.0
 20
0.0
 30
0.0
  9
$DIMEXE
 40
0.18
  9
$SNAPUNIT
 10
1.0
 20
1.0
 30
0.0
  9
$SNAPISOPAIR
 70
0
  9
$TEXTSTYLE
  7
STANDARD
  9
$DIMTP
 40
0.0
  9
$DIMTOL
 70
0
  9
$DIMALTF
 40
25.3999999999999986
  9
$TDCREATE
 40
0.0
  9
$COORDS
 70
2
  9
$USERR2
 40
0.0
  9
$DIMAUNIT
 70
0
  9
$USERR3
 40
0.0
  9
$AUNITS
 70
0
  0
ENDSEC
  0
SECTION
  2
TABLES
  0
TABLE
  2
VPORT
  5
8
100
AcDbSymbolTable
 70
1
  0
VPORT
  5
30
100
AcDbSymbolTableRecord
100
AcDbViewportTableRecord
  2
*Active
 70
0
 10
0.0
 20
0.0
 11
1.0
 21
1.0
 12
286.3055555555554861
 22
148.5
 13
0.0
 23
0.0
 14
10.0
 24
10.0
 15
10.0
 25
10.0
 16
0.0
 26
0.0
 36
1.0
 17
0.0
 27
0.0
 37
0.0
 40
297.0
 41
1.92798353909465
 42
50.0
 43
0.0
 44
0.0
 50
0.0
 51
0.0
 71
0
 72
100
 73
1
 74
3
 75
1
 76
1
 77
0
 78
0
281
0
 65
1
110
0.0
120
0.0
130
0.0
111
1.0
121
0.0
131
0.0
112
0.0
122
1.0
132
0.0
 79
0
146
0.0
  0
ENDTAB
  0
TABLE
  2
LTYPE
  5
5
100
AcDbSymbolTable
 70
21
  0
LTYPE
  5
14
100
AcDbSymbolTableRecord
100
AcDbLinetypeTableRecord
  2
ByBlock
 70
0
  3

 72
65
 73
0
 40
0.0
  0
LTYPE
  5
15
100
AcDbSymbolTableRecord
100
AcDbLinetypeTableRecord
  2
ByLayer
 70
0
  3

 72
65
 73
0
 40
0.0
  0
LTYPE
  5
16
100
AcDbSymbolTableRecord
100
AcDbLinetypeTableRecord
  2
CONTINUOUS
 70
0
  3
Solid line
 72
65
 73
0
 40
0.0
  0
LTYPE
  5
31
100
AcDbSymbolTableRecord
100
AcDbLinetypeTableRecord
  2
DOT
 70
0
  3
Dot . . . . . . . . . . . . . . . . . . . . . .
 72
65
 73
2
 40
6.3499999999999996
 49
0.0
 74
0
 49
-6.3499999999999996
 74
0
  0
LTYPE
  5
32
100
AcDbSymbolTableRecord
100
AcDbLinetypeTableRecord
  2
DOT2
 70
0
  3
Dot (.5x) .....................................
 72
65
 73
2
 40
3.1749999999999998
 49
0.0
 74
0
 49
-3.1749999999999998
 74
0
  0
LTYPE
  5
33
100
AcDbSymbolTableRecord
100
AcDbLinetypeTableRecord
  2
DOTX2
 70
0
  3
Dot (2x) .  .  .  .  .  .  .  .  .  .  .  .  .
 72
65
 73
2
 40
12.6999999999999993
 49
0.0
 74
0
 49
-12.6999999999999993
 74
0
  0
LTYPE
  5
34
100
AcDbSymbolTableRecord
100
AcDbLinetypeTableRecord
  2
DASHED
 70
0
  3
Dashed __ __ __ __ __ __ __ __ __ __ __ __ __ _
 72
65
 73
2
 40
19.0500000000000007
 49
12.6999999999999993
 74
0
 49
-6.3499999999999996
 74
0
  0
LTYPE
  5
35
100
AcDbSymbolTableRecord
100
AcDbLinetypeTableRecord
  2
DASHED2
 70
0
  3
Dashed (.5x) _ _ _ _ _ _ _ _ _ _ _ _ _ _ _ _ _
 72
65
 73
2
 40
9.5250000000000004
 49
6.3499999999999996
 74
0
 49
-3.1749999999999998
 74
0
  0
LTYPE
  5
36
100
AcDbSymbolTableRecord
100
AcDbLinetypeTableRecord
  2
DASHEDX2
 70
0
  3
Dashed (2x) ____  ____  ____  ____  ____  ___
 72
65
 73
2
 40
38.1000000000000014
 49
25.3999999999999986
 74
0
 49
-12.6999999999999993
 74
0
  0
LTYPE
  5
37
100
AcDbSymbolTableRecord
100
AcDbLinetypeTableRecord
  2
DASHDOT
 70
0
  3
Dash dot __ . __ . __ . __ . __ . __ . __ . __
 72
65
 73
4
 40
25.3999999999999986
 49
12.6999999999999993
 74
0
 49
-6.3499999999999996
 74
0
 49
0.0
 74
0
 49
-6.3499999999999996
 74
0
  0
LTYPE
  5
38
100
AcDbSymbolTableRecord
100
AcDbLinetypeTableRecord
  2
DASHDOT2
 70
0
  3
Dash dot (.5x) _._._._._._._._._._._._._._._.
 72
65
 73
4
 40
12.6999999999999993
 49
6.3499999999999996
 74
0
 49
-3.1749999999999998
 74
0
 49
0.0
 74
0
 49
-3.1749999999999998
 74
0
  0
LTYPE
  5
39
100
AcDbSymbolTableRecord
100
AcDbLinetypeTableRecord
  2
DASHDOTX2
 70
0
  3
Dash dot (2x) ____  .  ____  .  ____  .  ___
 72
65
 73
4
 40
50.7999999999999972
 49
25.3999999999999986
 74
0
 49
-12.6999999999999993
 74
0
 49
0.0
 74
0
 49
-12.6999999999999993
 74
0
  0
LTYPE
  5
3A
100
AcDbSymbolTableRecord
100
AcDbLinetypeTableRecord
  2
DIVIDE
 70
0
  3
Divide ____ . . ____ . . ____ . . ____ . . ____
 72
65
 73
6
 40
31.75
 49
12.6999999999999993
 74
0
 49
-6.3499999999999996
 74
0
 49
0.0
 74
0
 49
-6.3499999999999996
 74
0
 49
0.0
 74
0
 49
-6.3499999999999996
 74
0
  0
LTYPE
  5
3B
100
AcDbSymbolTableRecord
100
AcDbLinetypeTableRecord
  2
DIVIDE2
 70
0
  3
Divide (.5x) __..__..__..__..__..__..__..__.._
 72
65
 73
6
 40
15.875
 49
6.3499999999999996
 74
0
 49
-3.1749999999999998
 74
0
 49
0.0
 74
0
 49
-3.1749999999999998
 74
0
 49
0.0
 74
0
 49
-3.1749999999999998
 74
0
  0
LTYPE
  5
3C
100
AcDbSymbolTableRecord
100
AcDbLinetypeTableRecord
  2
DIVIDEX2
 70
0
  3
Divide (2x) ________  .  .  ________  .  .  _
 72
65
 73
6
 40
63.5
 49
25.3999999999999986
 74
0
 49
-12.6999999999999993
 74
0
 49
0.0
 74
0
 49
-12.6999999999999993
 74
0
 49
0.0
 74
0
 49
-12.6999999999999993
 74
0
  0
LTYPE
  5
3D
100
AcDbSymbolTableRecord
100
AcDbLinetypeTableRecord
  2
CENTER
 70
0
  3
Center ____ _ ____ _ ____ _ ____ _ ____ _ ____
 72
65
 73
4
 40
50.7999999999999972
 49
31.75
 74
0
 49
-6.3499999999999996
 74
0
 49
6.3499999999999996
 74
0
 49
-6.3499999999999996
 74
0
  0
LTYPE
  5
3E
100
AcDbSymbolTableRecord
100
AcDbLinetypeTableRecord
  2
CENTER2
 70
0
  3
Center (.5x) ___ _ ___ _ ___ _ ___ _ ___ _ ___
 72
65
 73
4
 40
28.5749999999999993
 49
19.0500000000000007
 74
0
 49
-3.1749999999999998
 74
0
 49
3.1749999999999998
 74
0
 49
-3.1749999999999998
 74
0
  0
LTYPE
  5
3F
100
AcDbSymbolTableRecord
100
AcDbLinetypeTableRecord
  2
CENTERX2
 70
0
  3
Center (2x) ________  __  ________  __  _____
 72
65
 73
4
 40
101.5999999999999943
 49
63.5
 74
0
 49
-12.6999999999999993
 74
0
 49
12.6999999999999993
 74
0
 49
-12.6999999999999993
 74
0
  0
LTYPE
  5
40
100
AcDbSymbolTableRecord
100
AcDbLinetypeTableRecord
  2
BORDER
 70
0
  3
Border __ __ . __ __ . __ __ . __ __ . __ __ .
 72
65
 73
6
 40
44.4500000000000028
 49
12.6999999999999993
 74
0
 49
-6.3499999999999996
 74
0
 49
12.6999999999999993
 74
0
 49
-6.3499999999999996
 74
0
 49
0.0
 74
0
 49
-6.3499999999999996
 74
0
  0
LTYPE
  5
41
100
AcDbSymbolTableRecord
100
AcDbLinetypeTableRecord
  2
BORDER2
 70
0
  3
Border (.5x) __.__.__.__.__.__.__.__.__.__.__.
 72
65
 73
6
 40
22.2250000000000014
 49
6.3499999999999996
 74
0
 49
-3.1749999999999998
 74
0
 49
6.3499999999999996
 74
0
 49
-3.1749999999999998
 74
0
 49
0.0
 74
0
 49
-3.1749999999999998
 74
0
  0
LTYPE
  5
42
100
AcDbSymbolTableRecord
100
AcDbLinetypeTableRecord
  2
BORDERX2
 70
0
  3
Border (2x) ____  ____  .  ____  ____  .  ___
 72
65
 73
6
 40
88.9000000000000057
 49
25.3999999999999986
 74
0
 49
-12.6999999999999993
 74
0
 49
25.3999999999999986
 74
0
 49
-12.6999999999999993
 74
0
 49
0.0
 74
0
 49
-12.6999999999999993
 74
0
  0
ENDTAB
  0
TABLE
  2
LAYER
  5
2
100
AcDbSymbolTable
 70
10
  0
LAYER
  5
10
100
AcDbSymbolTableRecord
100
AcDbLayerTableRecord
  2
0
 70
0
 62
7
  6
CONTINUOUS
390
F
  0
LAYER
  5
43
100
AcDbSymbolTableRecord
100
AcDbLayerTableRecord
  2
FORT
 70
0
 62
7
  6
CONTINUOUS
370
50
390
F
  0
LAYER
  5
44
100
AcDbSymbolTableRecord
100
AcDbLayerTableRecord
  2
INTERROMPU
 70
0
 62
5
  6
DASHED
370
20
390
F
  0
LAYER
  5
45
100
AcDbSymbolTableRecord
100
AcDbLayerTableRecord
  2
AXE
 70
0
 62
3
  6
CENTERX2
370
20
390
F
  0
LAYER
  5
46
100
AcDbSymbolTableRecord
100
AcDbLayerTableRecord
  2
FIN
 70
0
 62
5
  6
CONTINUOUS
370
20
390
F
  0
LAYER
  5
47
100
AcDbSymbolTableRecord
100
AcDbLayerTableRecord
  2
HACHURE
 70
0
 62
7
  6
CONTINUOUS
370
20
390
F
  0
LAYER
  5
48
100
AcDbSymbolTableRecord
100
AcDbLayerTableRecord
  2
TEXTE G
 70
0
 62
7
  6
CONTINUOUS
370
70
390
F
  0
LAYER
  5
49
100
AcDbSymbolTableRecord
100
AcDbLayerTableRecord
  2
RENFORCE
 70
0
 62
7
  6
CONTINUOUS
370
90
390
F
  0
LAYER
  5
4A
100
AcDbSymbolTableRecord
100
AcDbLayerTableRecord
  2
TEXTE M
 70
0
 62
7
  6
CONTINUOUS
370
50
390
F
  0
LAYER
  5
4B
100
AcDbSymbolTableRecord
100
AcDbLayerTableRecord
  2
TEXTE P
 70
0
 62
7
  6
CONTINUOUS
370
35
390
F
  0
ENDTAB
  0
TABLE
  2
STYLE
  5
3
100
AcDbSymbolTable
 70
1
  0
STYLE
  5
11
100
AcDbSymbolTableRecord
100
AcDbTextStyleTableRecord
  2
Standard
 70
0
 40
0.0
 41
0.75
 50
0.0
 71
0
 42
2.5
  3
txt
  4

  0
ENDTAB
  0
TABLE
  2
VIEW
  5
6
100
AcDbSymbolTable
 70
0
  0
ENDTAB
  0
TABLE
  2
UCS
  5
7
100
AcDbSymbolTable
 70
0
  0
ENDTAB
  0
TABLE
  2
APPID
  5
9
100
AcDbSymbolTable
 70
1
  0
APPID
  5
12
100
AcDbSymbolTableRecord
100
AcDbRegAppTableRecord
  2
ACAD
 70
0
  0
ENDTAB
  0
TABLE
  2
DIMSTYLE
  5
A
100
AcDbSymbolTable
 70
1
100
AcDbDimStyleTable
 71
0
  0
DIMSTYLE
105
27
100
AcDbSymbolTableRecord
100
AcDbDimStyleTableRecord
  2
Standard
 41
0.18
 42
0.0625
 43
3.75
 44
0.18
 70
0
 73
0
 74
0
 77
1
 78
8
140
0.18
141
2.5
143
0.03937007874016
147
0.625
171
3
172
1
271
2
272
2
274
3
278
44
283
0
284
8
340
11
  0
ENDTAB
  0
TABLE
  2
BLOCK_RECORD
  5
1
100
AcDbSymbolTable
 70
1
  0
BLOCK_RECORD
  5
1F
100
AcDbSymbolTableRecord
100
AcDbBlockTableRecord
  2
*Model_Space
340
22
  0
BLOCK_RECORD
  5
1B
100
AcDbSymbolTableRecord
100
AcDbBlockTableRecord
  2
*Paper_Space
340
1E
  0
BLOCK_RECORD
  5
23
100
AcDbSymbolTableRecord
100
AcDbBlockTableRecord
  2
*Paper_Space0
340
26
  0
BLOCK_RECORD
  5
4C
100
AcDbSymbolTableRecord
100
AcDbBlockTableRecord
  2
DESENS-G1
340
0
  0
BLOCK_RECORD
  5
4D
100
AcDbSymbolTableRecord
100
AcDbBlockTableRecord
  2
DESENS-G2
340
0
  0
ENDTAB
  0
ENDSEC
  0
SECTION
  2
BLOCKS
  0
BLOCK
  5
20
100
AcDbEntity
  8
0
100
AcDbBlockBegin
  2
*Model_Space
 70
0
 10
0.0
 20
0.0
 30
0.0
  3
*Model_Space
  1

  0
ENDBLK
  5
21
100
AcDbEntity
  8
0
100
AcDbBlockEnd
  0
BLOCK
  5
1C
100
AcDbEntity
 67
1
  8
0
100
AcDbBlockBegin
  2
*Paper_Space
 70
0
 10
0.0
 20
0.0
 30
0.0
  3
*Paper_Space
  1

  0
ENDBLK
  5
1D
100
AcDbEntity
 67
1
  8
0
100
AcDbBlockEnd
  0
BLOCK
  5
24
100
AcDbEntity
  8
0
100
AcDbBlockBegin
  2
*Paper_Space0
 70
0
 10
0.0
 20
0.0
 30
0.0
  3
*Paper_Space0
  1

  0
ENDBLK
  5
25
100
AcDbEntity
  8
0
100
AcDbBlockEnd
  0
BLOCK
  5
4E
100
AcDbEntity
  8
0
100
AcDbBlockBegin
  2
DESENS-G1
 70
0
 10
0.0
 20
0.0
 30
0.0
  3
DESENS-G1
  1

  0
LINE
  5
4F
100
AcDbEntity
100
AcDbLine
  8
HACHURE
 62
5
370
-1
  6
CONTINUOUS
 10
154.6739890000000059
 20
188.1281060000000025
 30
0.0
 11
144.6739890000000059
 21
198.1281060000000025
 31
0.0
  0
LINE
  5
50
100
AcDbEntity
100
AcDbLine
  8
HACHURE
 62
5
370
-1
  6
CONTINUOUS
 10
99.7167919999999981
 20
243.0853030000000103
 30
0.0
 11
94.8300849999999969
 21
247.9720100000000116
 31
0.0
  0
LINE
  5
51
100
AcDbEntity
100
AcDbLine
  8
HACHURE
 62
5
370
-1
  6
CONTINUOUS
 10
119.6739890000000059
 20
223.1281060000000025
 30
0.0
 11
115.7167919999999981
 21
227.0853030000000103
 31
0.0
  0
LINE
  5
52
100
AcDbEntity
100
AcDbLine
  8
HACHURE
 62
5
370
-1
  6
CONTINUOUS
 10
150.9616780000000063
 20
188.1281060000000025
 30
0.0
 11
140.9616780000000063
 21
198.1281060000000025
 31
0.0
  0
LINE
  5
53
100
AcDbEntity
100
AcDbLine
  8
HACHURE
 62
5
370
-1
  6
CONTINUOUS
 10
99.7167919999999981
 20
239.3729920000000106
 30
0.0
 11
94.571085999999994
 21
244.5186980000000005
 31
0.0
  0
LINE
  5
54
100
AcDbEntity
100
AcDbLine
  8
HACHURE
 62
5
370
-1
  6
CONTINUOUS
 10
115.9616780000000063
 20
223.1281060000000025
 30
0.0
 11
115.7167919999999981
 21
223.3729920000000106
 31
0.0
  0
LINE
  5
55
100
AcDbEntity
100
AcDbLine
  8
HACHURE
 62
5
370
-1
  6
CONTINUOUS
 10
147.2493670000000066
 20
188.1281060000000025
 30
0.0
 11
137.2493670000000066
 21
198.1281060000000025
 31
0.0
  0
LINE
  5
56
100
AcDbEntity
100
AcDbLine
  8
HACHURE
 62
5
370
-1
  6
CONTINUOUS
 10
99.7167919999999981
 20
235.660681000000011
 30
0.0
 11
94.3120880000000028
 21
241.065384999999992
 31
0.0
  0
LINE
  5
57
100
AcDbEntity
100
AcDbLine
  8
HACHURE
 62
5
370
-1
  6
CONTINUOUS
 10
143.5370570000000043
 20
188.1281060000000025
 30
0.0
 11
133.5370570000000043
 21
198.1281060000000025
 31
0.0
  0
LINE
  5
58
100
AcDbEntity
100
AcDbLine
  8
HACHURE
 62
5
370
-1
  6
CONTINUOUS
 10
99.7167919999999981
 20
231.9483710000000087
 30
0.0
 11
94.0530899999999974
 21
237.6120730000000094
 31
0.0
  0
LINE
  5
59
100
AcDbEntity
100
AcDbLine
  8
HACHURE
 62
5
370
-1
  6
CONTINUOUS
 10
139.8247460000000046
 20
188.1281060000000025
 30
0.0
 11
129.8247460000000046
 21
198.1281060000000025
 31
0.0
  0
LINE
  5
5A
100
AcDbEntity
100
AcDbLine
  8
HACHURE
 62
5
370
-1
  6
CONTINUOUS
 10
99.7167919999999981
 20
228.236060000000009
 30
0.0
 11
93.7940909999999946
 21
234.1587609999999984
 31
0.0
  0
LINE
  5
5B
100
AcDbEntity
100
AcDbLine
  8
HACHURE
 62
5
370
-1
  6
CONTINUOUS
 10
136.1124360000000024
 20
188.1281060000000025
 30
0.0
 11
126.1124360000000024
 21
198.1281060000000025
 31
0.0
  0
LINE
  5
5C
100
AcDbEntity
100
AcDbLine
  8
HACHURE
 62
5
370
-1
  6
CONTINUOUS
 10
99.7167919999999981
 20
224.5237500000000068
 30
0.0
 11
91.1124360000000024
 21
233.1281060000000025
 31
0.0
  0
LINE
  5
5D
100
AcDbEntity
100
AcDbLine
  8
HACHURE
 62
5
370
-1
  6
CONTINUOUS
 10
132.4001250000000027
 20
188.1281060000000025
 30
0.0
 11
122.4001250000000027
 21
198.1281060000000025
 31
0.0
  0
LINE
  5
5E
100
AcDbEntity
100
AcDbLine
  8
HACHURE
 62
5
370
-1
  6
CONTINUOUS
 10
97.4001250000000027
 20
223.1281060000000025
 30
0.0
 11
87.4001250000000027
 21
233.1281060000000025
 31
0.0
  0
LINE
  5
5F
100
AcDbEntity
100
AcDbLine
  8
HACHURE
 62
5
370
-1
  6
CONTINUOUS
 10
128.687814000000003
 20
188.1281060000000025
 30
0.0
 11
118.687814000000003
 21
198.1281060000000025
 31
0.0
  0
LINE
  5
60
100
AcDbEntity
100
AcDbLine
  8
HACHURE
 62
5
370
-1
  6
CONTINUOUS
 10
93.687814000000003
 20
223.1281060000000025
 30
0.0
 11
83.687814000000003
 21
233.1281060000000025
 31
0.0
  0
LINE
  5
61
100
AcDbEntity
100
AcDbLine
  8
HACHURE
 62
5
370
-1
  6
CONTINUOUS
 10
124.9755040000000008
 20
188.1281060000000025
 30
0.0
 11
114.9755040000000008
 21
198.1281060000000025
 31
0.0
  0
LINE
  5
62
100
AcDbEntity
100
AcDbLine
  8
HACHURE
 62
5
370
-1
  6
CONTINUOUS
 10
89.9755040000000008
 20
223.1281060000000025
 30
0.0
 11
82.7167919999999981
 21
230.3868180000000052
 31
0.0
  0
LINE
  5
63
100
AcDbEntity
100
AcDbLine
  8
HACHURE
 62
5
370
-1
  6
CONTINUOUS
 10
121.2631930000000011
 20
188.1281060000000025
 30
0.0
 11
111.2631930000000011
 21
198.1281060000000025
 31
0.0
  0
LINE
  5
64
100
AcDbEntity
100
AcDbLine
  8
HACHURE
 62
5
370
-1
  6
CONTINUOUS
 10
86.2631930000000011
 20
223.1281060000000025
 30
0.0
 11
82.7167919999999981
 21
226.6745070000000055
 31
0.0
  0
LINE
  5
65
100
AcDbEntity
100
AcDbLine
  8
HACHURE
 62
5
370
-1
  6
CONTINUOUS
 10
117.5508829999999989
 20
188.1281060000000025
 30
0.0
 11
107.5508829999999989
 21
198.1281060000000025
 31
0.0
  0
LINE
  5
66
100
AcDbEntity
100
AcDbLine
  8
HACHURE
 62
5
370
-1
  6
CONTINUOUS
 10
113.8385719999999992
 20
188.1281060000000025
 30
0.0
 11
103.8385719999999992
 21
198.1281060000000025
 31
0.0
  0
LINE
  5
67
100
AcDbEntity
100
AcDbLine
  8
HACHURE
 62
5
370
-1
  6
CONTINUOUS
 10
110.1262609999999995
 20
188.1281060000000025
 30
0.0
 11
100.1262609999999995
 21
198.1281060000000025
 31
0.0
  0
LINE
  5
68
100
AcDbEntity
100
AcDbLine
  8
HACHURE
 62
5
370
-1
  6
CONTINUOUS
 10
106.4139509999999973
 20
188.1281060000000025
 30
0.0
 11
96.4139509999999973
 21
198.1281060000000025
 31
0.0
  0
LINE
  5
69
100
AcDbEntity
100
AcDbLine
  8
HACHURE
 62
5
370
-1
  6
CONTINUOUS
 10
102.7016399999999976
 20
188.1281060000000025
 30
0.0
 11
92.7016399999999976
 21
198.1281060000000025
 31
0.0
  0
LINE
  5
6A
100
AcDbEntity
100
AcDbLine
  8
HACHURE
 62
5
370
-1
  6
CONTINUOUS
 10
98.9893289999999979
 20
188.1281060000000025
 30
0.0
 11
88.9893289999999979
 21
198.1281060000000025
 31
0.0
  0
LINE
  5
6B
100
AcDbEntity
100
AcDbLine
  8
HACHURE
 62
5
370
-1
  6
CONTINUOUS
 10
95.2770189999999957
 20
188.1281060000000025
 30
0.0
 11
85.2770189999999957
 21
198.1281060000000025
 31
0.0
  0
LINE
  5
6C
100
AcDbEntity
100
AcDbLine
  8
HACHURE
 62
5
370
-1
  6
CONTINUOUS
 10
91.564707999999996
 20
188.1281060000000025
 30
0.0
 11
82.7167919999999981
 21
196.9760220000000004
 31
0.0
  0
LINE
  5
6D
100
AcDbEntity
100
AcDbLine
  8
HACHURE
 62
5
370
-1
  6
CONTINUOUS
 10
87.8523979999999938
 20
188.1281060000000025
 30
0.0
 11
82.7167919999999981
 21
193.2637119999999982
 31
0.0
  0
LINE
  5
6E
100
AcDbEntity
100
AcDbLine
  8
HACHURE
 62
5
370
-1
  6
CONTINUOUS
 10
84.1400869999999941
 20
188.1281060000000025
 30
0.0
 11
82.7167919999999981
 21
189.5514009999999985
 31
0.0
  0
LINE
  5
6F
100
AcDbEntity
100
AcDbLine
  8
HACHURE
 62
5
370
-1
  6
CONTINUOUS
 10
158.3862990000000082
 20
188.1281060000000025
 30
0.0
 11
148.3862990000000082
 21
198.1281060000000025
 31
0.0
  0
LINE
  5
70
100
AcDbEntity
100
AcDbLine
  8
HACHURE
 62
5
370
-1
  6
CONTINUOUS
 10
99.7167919999999981
 20
246.7976130000000126
 30
0.0
 11
95.0890830000000022
 21
251.4253219999999942
 31
0.0
  0
LINE
  5
71
100
AcDbEntity
100
AcDbLine
  8
HACHURE
 62
5
370
-1
  6
CONTINUOUS
 10
123.386298999999994
 20
223.1281060000000025
 30
0.0
 11
115.7167919999999981
 21
230.7976130000000126
 31
0.0
  0
LINE
  5
72
100
AcDbEntity
100
AcDbLine
  8
HACHURE
 62
5
370
-1
  6
CONTINUOUS
 10
162.0986100000000079
 20
188.1281060000000025
 30
0.0
 11
152.0986100000000079
 21
198.1281060000000025
 31
0.0
  0
LINE
  5
73
100
AcDbEntity
100
AcDbLine
  8
HACHURE
 62
5
370
-1
  6
CONTINUOUS
 10
99.7167919999999981
 20
250.5099240000000123
 30
0.0
 11
97.0986099999999936
 21
253.1281060000000025
 31
0.0
  0
LINE
  5
74
100
AcDbEntity
100
AcDbLine
  8
HACHURE
 62
5
370
-1
  6
CONTINUOUS
 10
127.0986099999999936
 20
223.1281060000000025
 30
0.0
 11
115.7167919999999981
 21
234.5099240000000123
 31
0.0
  0
LINE
  5
75
100
AcDbEntity
100
AcDbLine
  8
HACHURE
 62
5
370
-1
  6
CONTINUOUS
 10
165.8109200000000101
 20
188.1281060000000025
 30
0.0
 11
155.8109200000000101
 21
198.1281060000000025
 31
0.0
  0
LINE
  5
76
100
AcDbEntity
100
AcDbLine
  8
HACHURE
 62
5
370
-1
  6
CONTINUOUS
 10
130.8109200000000101
 20
223.1281060000000025
 30
0.0
 11
115.7167919999999981
 21
238.2222339999999861
 31
0.0
  0
LINE
  5
77
100
AcDbEntity
100
AcDbLine
  8
HACHURE
 62
5
370
-1
  6
CONTINUOUS
 10
168.7167919999999981
 20
188.9345450000000142
 30
0.0
 11
159.5232310000000098
 21
198.1281060000000025
 31
0.0
  0
LINE
  5
78
100
AcDbEntity
100
AcDbLine
  8
HACHURE
 62
5
370
-1
  6
CONTINUOUS
 10
121.4892430000000019
 20
236.1620939999999962
 30
0.0
 11
115.7167919999999981
 21
241.9345450000000142
 31
0.0
  0
LINE
  5
79
100
AcDbEntity
100
AcDbLine
  8
HACHURE
 62
5
370
-1
  6
CONTINUOUS
 10
134.5232310000000098
 20
223.1281060000000025
 30
0.0
 11
124.5232309999999956
 21
233.1281060000000025
 31
0.0
  0
LINE
  5
7A
100
AcDbEntity
100
AcDbLine
  8
HACHURE
 62
5
370
-1
  6
CONTINUOUS
 10
168.7167919999999981
 20
192.6468560000000139
 30
0.0
 11
163.2355420000000095
 21
198.1281060000000025
 31
0.0
  0
LINE
  5
7B
100
AcDbEntity
100
AcDbLine
  8
HACHURE
 62
5
370
-1
  6
CONTINUOUS
 10
121.1882449999999949
 20
240.1754029999999887
 30
0.0
 11
115.7167919999999981
 21
245.6468560000000139
 31
0.0
  0
LINE
  5
7C
100
AcDbEntity
100
AcDbLine
  8
HACHURE
 62
5
370
-1
  6
CONTINUOUS
 10
135.7167919999999981
 20
225.6468560000000139
 30
0.0
 11
128.2355420000000095
 21
233.1281060000000025
 31
0.0
  0
LINE
  5
7D
100
AcDbEntity
100
AcDbLine
  8
HACHURE
 62
5
370
-1
  6
CONTINUOUS
 10
168.7167919999999981
 20
196.3591659999999877
 30
0.0
 11
166.9478520000000117
 21
198.1281060000000025
 31
0.0
  0
LINE
  5
7E
100
AcDbEntity
100
AcDbLine
  8
HACHURE
 62
5
370
-1
  6
CONTINUOUS
 10
120.8872470000000021
 20
244.1887120000000095
 30
0.0
 11
115.7167919999999981
 21
249.3591659999999877
 31
0.0
  0
LINE
  5
7F
100
AcDbEntity
100
AcDbLine
  8
HACHURE
 62
5
370
-1
  6
CONTINUOUS
 10
135.7167919999999981
 20
229.3591659999999877
 30
0.0
 11
129.872446999999994
 21
235.2035109999999918
 31
0.0
  0
LINE
  5
80
100
AcDbEntity
100
AcDbLine
  8
HACHURE
 62
5
370
-1
  6
CONTINUOUS
 10
135.7167919999999981
 20
233.0714769999999874
 30
0.0
 11
130.1314460000000111
 21
238.6568230000000028
 31
0.0
  0
LINE
  5
81
100
AcDbEntity
100
AcDbLine
  8
HACHURE
 62
5
370
-1
  6
CONTINUOUS
 10
120.5862479999999977
 20
248.2020200000000045
 30
0.0
 11
115.7167919999999981
 21
253.0714769999999874
 31
0.0
  0
LINE
  5
82
100
AcDbEntity
100
AcDbLine
  8
HACHURE
 62
5
370
-1
  6
CONTINUOUS
 10
135.7167919999999981
 20
236.7837869999999896
 30
0.0
 11
130.3904440000000022
 21
242.1101350000000139
 31
0.0
  0
LINE
  5
83
100
AcDbEntity
100
AcDbLine
  8
HACHURE
 62
5
370
-1
  6
CONTINUOUS
 10
120.2852500000000049
 20
252.215328999999997
 30
0.0
 11
119.3724729999999994
 21
253.1281060000000025
 31
0.0
  0
LINE
  5
84
100
AcDbEntity
100
AcDbLine
  8
HACHURE
 62
5
370
-1
  6
CONTINUOUS
 10
153.0847840000000133
 20
223.1281060000000025
 30
0.0
 11
151.7167919999999981
 21
224.4960979999999893
 31
0.0
  0
LINE
  5
85
100
AcDbEntity
100
AcDbLine
  8
HACHURE
 62
5
370
-1
  6
CONTINUOUS
 10
135.7167919999999981
 20
240.4960979999999893
 30
0.0
 11
130.6494429999999909
 21
245.5634469999999965
 31
0.0
  0
LINE
  5
86
100
AcDbEntity
100
AcDbLine
  8
HACHURE
 62
5
370
-1
  6
CONTINUOUS
 10
156.797095000000013
 20
223.1281060000000025
 30
0.0
 11
151.7167919999999981
 21
228.208408999999989
 31
0.0
  0
LINE
  5
87
100
AcDbEntity
100
AcDbLine
  8
HACHURE
 62
5
370
-1
  6
CONTINUOUS
 10
135.7167919999999981
 20
244.208408999999989
 30
0.0
 11
130.9084410000000105
 21
249.016760000000005
 31
0.0
  0
LINE
  5
88
100
AcDbEntity
100
AcDbLine
  8
HACHURE
 62
5
370
-1
  6
CONTINUOUS
 10
160.5094049999999868
 20
223.1281060000000025
 30
0.0
 11
151.7167919999999981
 21
231.9207189999999912
 31
0.0
  0
LINE
  5
89
100
AcDbEntity
100
AcDbLine
  8
HACHURE
 62
5
370
-1
  6
CONTINUOUS
 10
135.7167919999999981
 20
247.9207189999999912
 30
0.0
 11
131.1674390000000017
 21
252.4700719999999876
 31
0.0
  0
LINE
  5
8A
100
AcDbEntity
100
AcDbLine
  8
HACHURE
 62
5
370
-1
  6
CONTINUOUS
 10
164.2217159999999865
 20
223.1281060000000025
 30
0.0
 11
151.7167919999999981
 21
235.6330299999999909
 31
0.0
  0
LINE
  5
8B
100
AcDbEntity
100
AcDbLine
  8
HACHURE
 62
5
370
-1
  6
CONTINUOUS
 10
135.7167919999999981
 20
251.6330299999999909
 30
0.0
 11
134.2217159999999865
 21
253.1281060000000025
 31
0.0
  0
LINE
  5
8C
100
AcDbEntity
100
AcDbLine
  8
HACHURE
 62
5
370
-1
  6
CONTINUOUS
 10
167.9340259999999887
 20
223.1281060000000025
 30
0.0
 11
157.9340259999999887
 21
233.1281060000000025
 31
0.0
  0
LINE
  5
8D
100
AcDbEntity
100
AcDbLine
  8
HACHURE
 62
5
370
-1
  6
CONTINUOUS
 10
157.6991779999999892
 20
233.362954000000002
 30
0.0
 11
151.7167919999999981
 21
239.3453399999999931
 31
0.0
  0
LINE
  5
8E
100
AcDbEntity
100
AcDbLine
  8
HACHURE
 62
5
370
-1
  6
CONTINUOUS
 10
168.7167919999999981
 20
226.0576509999999928
 30
0.0
 11
161.6463369999999884
 21
233.1281060000000025
 31
0.0
  0
LINE
  5
8F
100
AcDbEntity
100
AcDbLine
  8
HACHURE
 62
5
370
-1
  6
CONTINUOUS
 10
157.3981799999999964
 20
237.3762629999999945
 30
0.0
 11
151.7167919999999981
 21
243.0576509999999928
 31
0.0
  0
LINE
  5
90
100
AcDbEntity
100
AcDbLine
  8
HACHURE
 62
5
370
-1
  6
CONTINUOUS
 10
168.7167919999999981
 20
229.7699619999999925
 30
0.0
 11
165.3586479999999881
 21
233.1281060000000025
 31
0.0
  0
LINE
  5
91
100
AcDbEntity
100
AcDbLine
  8
HACHURE
 62
5
370
-1
  6
CONTINUOUS
 10
157.0971820000000037
 20
241.3895709999999895
 30
0.0
 11
151.7167919999999981
 21
246.7699619999999925
 31
0.0
  0
LINE
  5
92
100
AcDbEntity
100
AcDbLine
  8
HACHURE
 62
5
370
-1
  6
CONTINUOUS
 10
156.7961840000000109
 20
245.4028800000000103
 30
0.0
 11
151.7167919999999981
 21
250.4822719999999947
 31
0.0
  0
LINE
  5
93
100
AcDbEntity
100
AcDbLine
  8
HACHURE
 62
5
370
-1
  6
CONTINUOUS
 10
156.4951859999999897
 20
249.4161890000000028
 30
0.0
 11
152.78326899999999
 21
253.1281060000000025
 31
0.0
  0
LINE
  5
94
100
AcDbEntity
100
AcDbLine
  8
HACHURE
 62
5
370
-1
  6
CONTINUOUS
 10
82.7167919999999981
 20
197.5031060000000025
 30
0.0
 11
168.7167919999999981
 21
197.5031060000000025
 31
0.0
  0
LINE
  5
95
100
AcDbEntity
100
AcDbLine
  8
HACHURE
 62
5
370
-1
  6
CONTINUOUS
 10
82.7167919999999981
 20
194.8781060000000025
 30
0.0
 11
168.7167919999999981
 21
194.8781060000000025
 31
0.0
  0
LINE
  5
96
100
AcDbEntity
100
AcDbLine
  8
HACHURE
 62
5
370
-1
  6
CONTINUOUS
 10
82.7167919999999981
 20
192.2531060000000025
 30
0.0
 11
168.7167919999999981
 21
192.2531060000000025
 31
0.0
  0
LINE
  5
97
100
AcDbEntity
100
AcDbLine
  8
HACHURE
 62
5
370
-1
  6
CONTINUOUS
 10
82.7167919999999981
 20
189.6281060000000025
 30
0.0
 11
168.7167919999999981
 21
189.6281060000000025
 31
0.0
  0
LINE
  5
98
100
AcDbEntity
100
AcDbLine
  8
HACHURE
 62
5
370
-1
  6
CONTINUOUS
 10
82.7167919999999981
 20
223.7531060000000025
 30
0.0
 11
99.7167919999999981
 21
223.7531060000000025
 31
0.0
  0
LINE
  5
99
100
AcDbEntity
100
AcDbLine
  8
HACHURE
 62
5
370
-1
  6
CONTINUOUS
 10
151.7167919999999981
 20
223.7531060000000025
 30
0.0
 11
168.7167919999999981
 21
223.7531060000000025
 31
0.0
  0
LINE
  5
9A
100
AcDbEntity
100
AcDbLine
  8
HACHURE
 62
5
370
-1
  6
CONTINUOUS
 10
115.7167919999999981
 20
223.7531060000000025
 30
0.0
 11
135.7167919999999981
 21
223.7531060000000025
 31
0.0
  0
LINE
  5
9B
100
AcDbEntity
100
AcDbLine
  8
HACHURE
 62
5
370
-1
  6
CONTINUOUS
 10
82.7167919999999981
 20
226.3781060000000025
 30
0.0
 11
99.7167919999999981
 21
226.3781060000000025
 31
0.0
  0
LINE
  5
9C
100
AcDbEntity
100
AcDbLine
  8
HACHURE
 62
5
370
-1
  6
CONTINUOUS
 10
151.7167919999999981
 20
226.3781060000000025
 30
0.0
 11
168.7167919999999981
 21
226.3781060000000025
 31
0.0
  0
LINE
  5
9D
100
AcDbEntity
100
AcDbLine
  8
HACHURE
 62
5
370
-1
  6
CONTINUOUS
 10
115.7167919999999981
 20
226.3781060000000025
 30
0.0
 11
135.7167919999999981
 21
226.3781060000000025
 31
0.0
  0
LINE
  5
9E
100
AcDbEntity
100
AcDbLine
  8
HACHURE
 62
5
370
-1
  6
CONTINUOUS
 10
82.7167919999999981
 20
229.0031060000000025
 30
0.0
 11
99.7167919999999981
 21
229.0031060000000025
 31
0.0
  0
LINE
  5
9F
100
AcDbEntity
100
AcDbLine
  8
HACHURE
 62
5
370
-1
  6
CONTINUOUS
 10
151.7167919999999981
 20
229.0031060000000025
 30
0.0
 11
168.7167919999999981
 21
229.0031060000000025
 31
0.0
  0
LINE
  5
A0
100
AcDbEntity
100
AcDbLine
  8
HACHURE
 62
5
370
-1
  6
CONTINUOUS
 10
115.7167919999999981
 20
229.0031060000000025
 30
0.0
 11
135.7167919999999981
 21
229.0031060000000025
 31
0.0
  0
LINE
  5
A1
100
AcDbEntity
100
AcDbLine
  8
HACHURE
 62
5
370
-1
  6
CONTINUOUS
 10
82.7167919999999981
 20
231.6281060000000025
 30
0.0
 11
99.7167919999999981
 21
231.6281060000000025
 31
0.0
  0
LINE
  5
A2
100
AcDbEntity
100
AcDbLine
  8
HACHURE
 62
5
370
-1
  6
CONTINUOUS
 10
151.7167919999999981
 20
231.6281060000000025
 30
0.0
 11
168.7167919999999981
 21
231.6281060000000025
 31
0.0
  0
LINE
  5
A3
100
AcDbEntity
100
AcDbLine
  8
HACHURE
 62
5
370
-1
  6
CONTINUOUS
 10
115.7167919999999981
 20
231.6281060000000025
 30
0.0
 11
135.7167919999999981
 21
231.6281060000000025
 31
0.0
  0
LINE
  5
A4
100
AcDbEntity
100
AcDbLine
  8
HACHURE
 62
5
370
-1
  6
CONTINUOUS
 10
93.8011670000000066
 20
234.2531060000000025
 30
0.0
 11
99.7167919999999981
 21
234.2531060000000025
 31
0.0
  0
LINE
  5
A5
100
AcDbEntity
100
AcDbLine
  8
HACHURE
 62
5
370
-1
  6
CONTINUOUS
 10
151.7167919999999981
 20
234.2531060000000025
 30
0.0
 11
157.6324170000000038
 21
234.2531060000000025
 31
0.0
  0
LINE
  5
A6
100
AcDbEntity
100
AcDbLine
  8
HACHURE
 62
5
370
-1
  6
CONTINUOUS
 10
115.7167919999999981
 20
234.2531060000000025
 30
0.0
 11
121.6324170000000038
 21
234.2531060000000025
 31
0.0
  0
LINE
  5
A7
100
AcDbEntity
100
AcDbLine
  8
HACHURE
 62
5
370
-1
  6
CONTINUOUS
 10
129.8011669999999924
 20
234.2531060000000025
 30
0.0
 11
135.7167919999999981
 21
234.2531060000000025
 31
0.0
  0
LINE
  5
A8
100
AcDbEntity
100
AcDbLine
  8
HACHURE
 62
5
370
-1
  6
CONTINUOUS
 10
93.9980419999999981
 20
236.8781060000000025
 30
0.0
 11
99.7167919999999981
 21
236.8781060000000025
 31
0.0
  0
LINE
  5
A9
100
AcDbEntity
100
AcDbLine
  8
HACHURE
 62
5
370
-1
  6
CONTINUOUS
 10
151.7167919999999981
 20
236.8781060000000025
 30
0.0
 11
157.4355419999999981
 21
236.8781060000000025
 31
0.0
  0
LINE
  5
AA
100
AcDbEntity
100
AcDbLine
  8
HACHURE
 62
5
370
-1
  6
CONTINUOUS
 10
115.7167919999999981
 20
236.8781060000000025
 30
0.0
 11
121.4355419999999981
 21
236.8781060000000025
 31
0.0
  0
LINE
  5
AB
100
AcDbEntity
100
AcDbLine
  8
HACHURE
 62
5
370
-1
  6
CONTINUOUS
 10
129.9980419999999981
 20
236.8781060000000025
 30
0.0
 11
135.7167919999999981
 21
236.8781060000000025
 31
0.0
  0
LINE
  5
AC
100
AcDbEntity
100
AcDbLine
  8
HACHURE
 62
5
370
-1
  6
CONTINUOUS
 10
94.1949170000000038
 20
239.5031060000000025
 30
0.0
 11
99.7167919999999981
 21
239.5031060000000025
 31
0.0
  0
LINE
  5
AD
100
AcDbEntity
100
AcDbLine
  8
HACHURE
 62
5
370
-1
  6
CONTINUOUS
 10
151.7167919999999981
 20
239.5031060000000025
 30
0.0
 11
157.2386669999999924
 21
239.5031060000000025
 31
0.0
  0
LINE
  5
AE
100
AcDbEntity
100
AcDbLine
  8
HACHURE
 62
5
370
-1
  6
CONTINUOUS
 10
115.7167919999999981
 20
239.5031060000000025
 30
0.0
 11
121.2386670000000066
 21
239.5031060000000025
 31
0.0
  0
LINE
  5
AF
100
AcDbEntity
100
AcDbLine
  8
HACHURE
 62
5
370
-1
  6
CONTINUOUS
 10
130.1949170000000038
 20
239.5031060000000025
 30
0.0
 11
135.7167919999999981
 21
239.5031060000000025
 31
0.0
  0
LINE
  5
B0
100
AcDbEntity
100
AcDbLine
  8
HACHURE
 62
5
370
-1
  6
CONTINUOUS
 10
94.3917919999999953
 20
242.1281060000000025
 30
0.0
 11
99.7167919999999981
 21
242.1281060000000025
 31
0.0
  0
LINE
  5
B1
100
AcDbEntity
100
AcDbLine
  8
HACHURE
 62
5
370
-1
  6
CONTINUOUS
 10
151.7167919999999981
 20
242.1281060000000025
 30
0.0
 11
157.0417919999999867
 21
242.1281060000000025
 31
0.0
  0
LINE
  5
B2
100
AcDbEntity
100
AcDbLine
  8
HACHURE
 62
5
370
-1
  6
CONTINUOUS
 10
115.7167919999999981
 20
242.1281060000000025
 30
0.0
 11
121.0417920000000009
 21
242.1281060000000025
 31
0.0
  0
LINE
  5
B3
100
AcDbEntity
100
AcDbLine
  8
HACHURE
 62
5
370
-1
  6
CONTINUOUS
 10
130.3917920000000095
 20
242.1281060000000025
 30
0.0
 11
135.7167919999999981
 21
242.1281060000000025
 31
0.0
  0
LINE
  5
B4
100
AcDbEntity
100
AcDbLine
  8
HACHURE
 62
5
370
-1
  6
CONTINUOUS
 10
94.5886670000000009
 20
244.7531060000000025
 30
0.0
 11
99.7167919999999981
 21
244.7531060000000025
 31
0.0
  0
LINE
  5
B5
100
AcDbEntity
100
AcDbLine
  8
HACHURE
 62
5
370
-1
  6
CONTINUOUS
 10
151.7167919999999981
 20
244.7531060000000025
 30
0.0
 11
156.8449170000000095
 21
244.7531060000000025
 31
0.0
  0
LINE
  5
B6
100
AcDbEntity
100
AcDbLine
  8
HACHURE
 62
5
370
-1
  6
CONTINUOUS
 10
115.7167919999999981
 20
244.7531060000000025
 30
0.0
 11
120.8449169999999953
 21
244.7531060000000025
 31
0.0
  0
LINE
  5
B7
100
AcDbEntity
100
AcDbLine
  8
HACHURE
 62
5
370
-1
  6
CONTINUOUS
 10
130.5886669999999867
 20
244.7531060000000025
 30
0.0
 11
135.7167919999999981
 21
244.7531060000000025
 31
0.0
  0
LINE
  5
B8
100
AcDbEntity
100
AcDbLine
  8
HACHURE
 62
5
370
-1
  6
CONTINUOUS
 10
94.7855420000000066
 20
247.3781060000000025
 30
0.0
 11
99.7167919999999981
 21
247.3781060000000025
 31
0.0
  0
LINE
  5
B9
100
AcDbEntity
100
AcDbLine
  8
HACHURE
 62
5
370
-1
  6
CONTINUOUS
 10
151.7167919999999981
 20
247.3781060000000025
 30
0.0
 11
156.6480420000000038
 21
247.3781060000000025
 31
0.0
  0
LINE
  5
BA
100
AcDbEntity
100
AcDbLine
  8
HACHURE
 62
5
370
-1
  6
CONTINUOUS
 10
115.7167919999999981
 20
247.3781060000000025
 30
0.0
 11
120.6480420000000038
 21
247.3781060000000025
 31
0.0
  0
LINE
  5
BB
100
AcDbEntity
100
AcDbLine
  8
HACHURE
 62
5
370
-1
  6
CONTINUOUS
 10
130.7855419999999924
 20
247.3781060000000025
 30
0.0
 11
135.7167919999999981
 21
247.3781060000000025
 31
0.0
  0
LINE
  5
BC
100
AcDbEntity
100
AcDbLine
  8
HACHURE
 62
5
370
-1
  6
CONTINUOUS
 10
94.9824169999999981
 20
250.0031060000000025
 30
0.0
 11
99.7167919999999981
 21
250.0031060000000025
 31
0.0
  0
LINE
  5
BD
100
AcDbEntity
100
AcDbLine
  8
HACHURE
 62
5
370
-1
  6
CONTINUOUS
 10
151.7167919999999981
 20
250.0031060000000025
 30
0.0
 11
156.4511669999999981
 21
250.0031060000000025
 31
0.0
  0
LINE
  5
BE
100
AcDbEntity
100
AcDbLine
  8
HACHURE
 62
5
370
-1
  6
CONTINUOUS
 10
115.7167919999999981
 20
250.0031060000000025
 30
0.0
 11
120.4511669999999981
 21
250.0031060000000025
 31
0.0
  0
LINE
  5
BF
100
AcDbEntity
100
AcDbLine
  8
HACHURE
 62
5
370
-1
  6
CONTINUOUS
 10
130.9824169999999981
 20
250.0031060000000025
 30
0.0
 11
135.7167919999999981
 21
250.0031060000000025
 31
0.0
  0
LINE
  5
C0
100
AcDbEntity
100
AcDbLine
  8
HACHURE
 62
5
370
-1
  6
CONTINUOUS
 10
95.1792920000000038
 20
252.6281060000000025
 30
0.0
 11
99.7167919999999981
 21
252.6281060000000025
 31
0.0
  0
LINE
  5
C1
100
AcDbEntity
100
AcDbLine
  8
HACHURE
 62
5
370
-1
  6
CONTINUOUS
 10
151.7167919999999981
 20
252.6281060000000025
 30
0.0
 11
156.2542919999999924
 21
252.6281060000000025
 31
0.0
  0
LINE
  5
C2
100
AcDbEntity
100
AcDbLine
  8
HACHURE
 62
5
370
-1
  6
CONTINUOUS
 10
115.7167919999999981
 20
252.6281060000000025
 30
0.0
 11
120.2542920000000066
 21
252.6281060000000025
 31
0.0
  0
LINE
  5
C3
100
AcDbEntity
100
AcDbLine
  8
HACHURE
 62
5
370
-1
  6
CONTINUOUS
 10
131.1792920000000038
 20
252.6281060000000025
 30
0.0
 11
135.7167919999999981
 21
252.6281060000000025
 31
0.0
  0
ENDBLK
  5
C4
100
AcDbEntity
  8
0
100
AcDbBlockEnd
  0
BLOCK
  5
C5
100
AcDbEntity
  8
0
100
AcDbBlockBegin
  2
DESENS-G2
 70
0
 10
0.0
 20
0.0
 30
0.0
  3
DESENS-G2
  1

  0
LINE
  5
C6
100
AcDbEntity
100
AcDbLine
  8
HACHURE
 62
5
370
-1
  6
CONTINUOUS
 10
114.2574440000000067
 20
198.1281060000000025
 30
0.0
 11
117.1863759999999957
 21
201.0570380000000057
 31
0.0
  0
LINE
  5
C7
100
AcDbEntity
100
AcDbLine
  8
HACHURE
 62
5
370
-1
  6
CONTINUOUS
 10
131.3285119999999893
 20
215.1991739999999993
 30
0.0
 11
137.7167919999999981
 21
221.5874540000000081
 31
0.0
  0
LINE
  5
C8
100
AcDbEntity
100
AcDbLine
  8
HACHURE
 62
5
370
-1
  6
CONTINUOUS
 10
108.954143000000002
 20
198.1281060000000025
 30
0.0
 11
111.8830760000000026
 21
201.0570380000000057
 31
0.0
  0
LINE
  5
C9
100
AcDbEntity
100
AcDbLine
  8
HACHURE
 62
5
370
-1
  6
CONTINUOUS
 10
126.0252109999999988
 20
215.1991739999999993
 30
0.0
 11
133.9541429999999878
 21
223.1281060000000025
 31
0.0
  0
LINE
  5
CA
100
AcDbEntity
100
AcDbLine
  8
HACHURE
 62
5
370
-1
  6
CONTINUOUS
 10
103.6508429999999947
 20
198.1281060000000025
 30
0.0
 11
106.5797749999999979
 21
201.0570380000000057
 31
0.0
  0
LINE
  5
CB
100
AcDbEntity
100
AcDbLine
  8
HACHURE
 62
5
370
-1
  6
CONTINUOUS
 10
120.7219099999999941
 20
215.1991739999999993
 30
0.0
 11
128.6508430000000089
 21
223.1281060000000025
 31
0.0
  0
LINE
  5
CC
100
AcDbEntity
100
AcDbLine
  8
HACHURE
 62
5
370
-1
  6
CONTINUOUS
 10
98.3475420000000042
 20
198.1281060000000025
 30
0.0
 11
101.2764739999999932
 21
201.0570380000000057
 31
0.0
  0
LINE
  5
CD
100
AcDbEntity
100
AcDbLine
  8
HACHURE
 62
5
370
-1
  6
CONTINUOUS
 10
115.4186090000000036
 20
215.1991739999999993
 30
0.0
 11
123.3475420000000042
 21
223.1281060000000025
 31
0.0
  0
LINE
  5
CE
100
AcDbEntity
100
AcDbLine
  8
HACHURE
 62
5
370
-1
  6
CONTINUOUS
 10
93.0442409999999995
 20
198.1281060000000025
 30
0.0
 11
95.9731730000000027
 21
201.0570380000000057
 31
0.0
  0
LINE
  5
CF
100
AcDbEntity
100
AcDbLine
  8
HACHURE
 62
5
370
-1
  6
CONTINUOUS
 10
113.7167919999999981
 20
218.8006570000000011
 30
0.0
 11
118.0442409999999995
 21
223.1281060000000025
 31
0.0
  0
LINE
  5
D0
100
AcDbEntity
100
AcDbLine
  8
HACHURE
 62
5
370
-1
  6
CONTINUOUS
 10
99.5087070000000011
 20
215.1991739999999993
 30
0.0
 11
101.7167919999999981
 21
217.4072590000000105
 31
0.0
  0
LINE
  5
D1
100
AcDbEntity
100
AcDbLine
  8
HACHURE
 62
5
370
-1
  6
CONTINUOUS
 10
94.2054059999999964
 20
215.1991739999999993
 30
0.0
 11
101.7167919999999981
 21
222.7105599999999868
 31
0.0
  0
LINE
  5
D2
100
AcDbEntity
100
AcDbLine
  8
HACHURE
 62
5
370
-1
  6
CONTINUOUS
 10
90.7167919999999981
 20
217.013859999999994
 30
0.0
 11
96.8310369999999949
 21
223.1281060000000025
 31
0.0
  0
LINE
  5
D3
100
AcDbEntity
100
AcDbLine
  8
HACHURE
 62
5
370
-1
  6
CONTINUOUS
 10
90.7167919999999981
 20
222.3171609999999987
 30
0.0
 11
91.5277370000000019
 21
223.1281060000000025
 31
0.0
  0
LINE
  5
D4
100
AcDbEntity
100
AcDbLine
  8
HACHURE
 62
5
370
-1
  6
CONTINUOUS
 10
119.5607449999999972
 20
198.1281060000000025
 30
0.0
 11
122.4896770000000004
 21
201.0570380000000057
 31
0.0
  0
LINE
  5
D5
100
AcDbEntity
100
AcDbLine
  8
HACHURE
 62
5
370
-1
  6
CONTINUOUS
 10
136.631812999999994
 20
215.1991739999999993
 30
0.0
 11
137.7167919999999981
 21
216.2841530000000034
 31
0.0
  0
LINE
  5
D6
100
AcDbEntity
100
AcDbLine
  8
HACHURE
 62
5
370
-1
  6
CONTINUOUS
 10
124.8640460000000019
 20
198.1281060000000025
 30
0.0
 11
127.7929780000000051
 21
201.0570380000000057
 31
0.0
  0
LINE
  5
D7
100
AcDbEntity
100
AcDbLine
  8
HACHURE
 62
5
370
-1
  6
CONTINUOUS
 10
149.7167919999999981
 20
222.9808519999999987
 30
0.0
 11
149.8640460000000019
 21
223.1281060000000025
 31
0.0
  0
LINE
  5
D8
100
AcDbEntity
100
AcDbLine
  8
HACHURE
 62
5
370
-1
  6
CONTINUOUS
 10
130.1673470000000066
 20
198.1281060000000025
 30
0.0
 11
133.0962790000000098
 21
201.0570380000000057
 31
0.0
  0
LINE
  5
D9
100
AcDbEntity
100
AcDbLine
  8
HACHURE
 62
5
370
-1
  6
CONTINUOUS
 10
149.7167919999999981
 20
217.677550999999994
 30
0.0
 11
155.1673470000000066
 21
223.1281060000000025
 31
0.0
  0
LINE
  5
DA
100
AcDbEntity
100
AcDbLine
  8
HACHURE
 62
5
370
-1
  6
CONTINUOUS
 10
135.4706480000000113
 20
198.1281060000000025
 30
0.0
 11
138.3995799999999861
 21
201.0570380000000057
 31
0.0
  0
LINE
  5
DB
100
AcDbEntity
100
AcDbLine
  8
HACHURE
 62
5
370
-1
  6
CONTINUOUS
 10
152.5417160000000081
 20
215.1991739999999993
 30
0.0
 11
160.4706480000000113
 21
223.1281060000000025
 31
0.0
  0
LINE
  5
DC
100
AcDbEntity
100
AcDbLine
  8
HACHURE
 62
5
370
-1
  6
CONTINUOUS
 10
140.7739489999999876
 20
198.1281060000000025
 30
0.0
 11
143.7028809999999908
 21
201.0570380000000057
 31
0.0
  0
LINE
  5
DD
100
AcDbEntity
100
AcDbLine
  8
HACHURE
 62
5
370
-1
  6
CONTINUOUS
 10
157.8450159999999869
 20
215.1991739999999993
 30
0.0
 11
160.7167919999999981
 21
218.070949000000013
 31
0.0
  0
LINE
  5
DE
100
AcDbEntity
100
AcDbLine
  8
HACHURE
 62
5
370
-1
  6
CONTINUOUS
 10
146.0772489999999948
 20
198.1281060000000025
 30
0.0
 11
149.0061819999999955
 21
201.0570380000000057
 31
0.0
  0
LINE
  5
DF
100
AcDbEntity
100
AcDbLine
  8
HACHURE
 62
5
370
-1
  6
CONTINUOUS
 10
151.3805499999999995
 20
198.1281060000000025
 30
0.0
 11
154.3094820000000027
 21
201.0570380000000057
 31
0.0
  0
LINE
  5
E0
100
AcDbEntity
100
AcDbLine
  8
HACHURE
 62
5
370
-1
  6
CONTINUOUS
 10
156.6838510000000042
 20
198.1281060000000025
 30
0.0
 11
159.6127830000000074
 21
201.0570380000000057
 31
0.0
  0
LINE
  5
E1
100
AcDbEntity
100
AcDbLine
  8
HACHURE
 62
5
370
-1
  6
CONTINUOUS
 10
117.5133629999999982
 20
198.732373999999993
 30
0.0
 11
118.8391879999999929
 21
200.0581990000000019
 31
0.0
  0
LINE
  5
E2
100
AcDbEntity
100
AcDbLine
  8
HACHURE
 62
5
370
-1
  6
CONTINUOUS
 10
119.5020999999999987
 20
200.7211120000000051
 30
0.0
 11
119.8380269999999967
 21
201.0570380000000057
 31
0.0
  0
LINE
  5
E3
100
AcDbEntity
100
AcDbLine
  8
HACHURE
 62
5
370
-1
  6
CONTINUOUS
 10
133.9801620000000071
 20
215.1991739999999993
 30
0.0
 11
134.7490899999999954
 21
215.9681019999999876
 31
0.0
  0
LINE
  5
E4
100
AcDbEntity
100
AcDbLine
  8
HACHURE
 62
5
370
-1
  6
CONTINUOUS
 10
135.4120029999999986
 20
216.6310139999999933
 30
0.0
 11
136.7378280000000075
 21
217.9568390000000022
 31
0.0
  0
LINE
  5
E5
100
AcDbEntity
100
AcDbLine
  8
HACHURE
 62
5
370
-1
  6
CONTINUOUS
 10
137.4007410000000107
 20
218.6197520000000054
 30
0.0
 11
137.7167919999999981
 21
218.9358029999999928
 31
0.0
  0
LINE
  5
E6
100
AcDbEntity
100
AcDbLine
  8
HACHURE
 62
5
370
-1
  6
CONTINUOUS
 10
111.6057940000000031
 20
198.1281060000000025
 30
0.0
 11
112.2100619999999935
 21
198.732373999999993
 31
0.0
  0
LINE
  5
E7
100
AcDbEntity
100
AcDbLine
  8
HACHURE
 62
5
370
-1
  6
CONTINUOUS
 10
112.8729739999999993
 20
199.3952859999999987
 30
0.0
 11
114.1988000000000056
 21
200.7211120000000051
 31
0.0
  0
LINE
  5
E8
100
AcDbEntity
100
AcDbLine
  8
HACHURE
 62
5
370
-1
  6
CONTINUOUS
 10
128.7828770000000134
 20
215.3051890000000128
 30
0.0
 11
130.1087019999999939
 21
216.6310139999999933
 31
0.0
  0
LINE
  5
E9
100
AcDbEntity
100
AcDbLine
  8
HACHURE
 62
5
370
-1
  6
CONTINUOUS
 10
130.7716149999999971
 20
217.2939269999999965
 30
0.0
 11
132.097440000000006
 21
218.6197520000000054
 31
0.0
  0
LINE
  5
EA
100
AcDbEntity
100
AcDbLine
  8
HACHURE
 62
5
370
-1
  6
CONTINUOUS
 10
132.7603530000000092
 20
219.2826650000000086
 30
0.0
 11
134.0861779999999897
 21
220.6084899999999891
 31
0.0
  0
LINE
  5
EB
100
AcDbEntity
100
AcDbLine
  8
HACHURE
 62
5
370
-1
  6
CONTINUOUS
 10
134.7490899999999954
 20
221.2714029999999923
 30
0.0
 11
136.0749160000000018
 21
222.5972280000000012
 31
0.0
  0
LINE
  5
EC
100
AcDbEntity
100
AcDbLine
  8
HACHURE
 62
5
370
-1
  6
CONTINUOUS
 10
106.3024929999999983
 20
198.1281060000000025
 30
0.0
 11
107.5696729999999945
 21
199.3952859999999987
 31
0.0
  0
LINE
  5
ED
100
AcDbEntity
100
AcDbLine
  8
HACHURE
 62
5
370
-1
  6
CONTINUOUS
 10
108.2325859999999977
 20
200.0581990000000019
 30
0.0
 11
109.2314250000000015
 21
201.0570380000000057
 31
0.0
  0
LINE
  5
EE
100
AcDbEntity
100
AcDbLine
  8
HACHURE
 62
5
370
-1
  6
CONTINUOUS
 10
123.3735609999999951
 20
215.1991739999999993
 30
0.0
 11
123.4795759999999945
 21
215.3051890000000128
 31
0.0
  0
LINE
  5
EF
100
AcDbEntity
100
AcDbLine
  8
HACHURE
 62
5
370
-1
  6
CONTINUOUS
 10
124.1424889999999976
 20
215.9681019999999876
 30
0.0
 11
125.4683140000000066
 21
217.2939269999999965
 31
0.0
  0
LINE
  5
F0
100
AcDbEntity
100
AcDbLine
  8
HACHURE
 62
5
370
-1
  6
CONTINUOUS
 10
126.1312259999999981
 20
217.9568390000000022
 30
0.0
 11
127.4570520000000045
 21
219.2826650000000086
 31
0.0
  0
LINE
  5
F1
100
AcDbEntity
100
AcDbLine
  8
HACHURE
 62
5
370
-1
  6
CONTINUOUS
 10
128.1199640000000102
 20
219.9455769999999859
 30
0.0
 11
129.4457889999999907
 21
221.2714029999999923
 31
0.0
  0
LINE
  5
F2
100
AcDbEntity
100
AcDbLine
  8
HACHURE
 62
5
370
-1
  6
CONTINUOUS
 10
130.1087019999999939
 20
221.934314999999998
 30
0.0
 11
131.3024929999999983
 21
223.1281060000000025
 31
0.0
  0
LINE
  5
F3
100
AcDbEntity
100
AcDbLine
  8
HACHURE
 62
5
370
-1
  6
CONTINUOUS
 10
101.6034599999999983
 20
198.732373999999993
 30
0.0
 11
102.929284999999993
 21
200.0581990000000019
 31
0.0
  0
LINE
  5
F4
100
AcDbEntity
100
AcDbLine
  8
HACHURE
 62
5
370
-1
  6
CONTINUOUS
 10
103.5921979999999962
 20
200.7211120000000051
 30
0.0
 11
103.9281239999999968
 21
201.0570380000000057
 31
0.0
  0
LINE
  5
F5
100
AcDbEntity
100
AcDbLine
  8
HACHURE
 62
5
370
-1
  6
CONTINUOUS
 10
118.0702600000000047
 20
215.1991739999999993
 30
0.0
 11
118.8391879999999929
 21
215.9681019999999876
 31
0.0
  0
LINE
  5
F6
100
AcDbEntity
100
AcDbLine
  8
HACHURE
 62
5
370
-1
  6
CONTINUOUS
 10
119.5020999999999987
 20
216.6310139999999933
 30
0.0
 11
120.827926000000005
 21
217.9568390000000022
 31
0.0
  0
LINE
  5
F7
100
AcDbEntity
100
AcDbLine
  8
HACHURE
 62
5
370
-1
  6
CONTINUOUS
 10
121.4908379999999966
 20
218.6197520000000054
 30
0.0
 11
122.8166630000000055
 21
219.9455769999999859
 31
0.0
  0
LINE
  5
F8
100
AcDbEntity
100
AcDbLine
  8
HACHURE
 62
5
370
-1
  6
CONTINUOUS
 10
123.4795759999999945
 20
220.6084899999999891
 30
0.0
 11
124.8054010000000034
 21
221.934314999999998
 31
0.0
  0
LINE
  5
F9
100
AcDbEntity
100
AcDbLine
  8
HACHURE
 62
5
370
-1
  6
CONTINUOUS
 10
125.4683140000000066
 20
222.5972280000000012
 30
0.0
 11
125.9991919999999936
 21
223.1281060000000025
 31
0.0
  0
LINE
  5
FA
100
AcDbEntity
100
AcDbLine
  8
HACHURE
 62
5
370
-1
  6
CONTINUOUS
 10
95.6958910000000031
 20
198.1281060000000025
 30
0.0
 11
96.3001589999999936
 21
198.732373999999993
 31
0.0
  0
LINE
  5
FB
100
AcDbEntity
100
AcDbLine
  8
HACHURE
 62
5
370
-1
  6
CONTINUOUS
 10
96.9630719999999968
 20
199.3952859999999987
 30
0.0
 11
98.2888970000000057
 21
200.7211120000000051
 31
0.0
  0
LINE
  5
FC
100
AcDbEntity
100
AcDbLine
  8
HACHURE
 62
5
370
-1
  6
CONTINUOUS
 10
113.7167919999999981
 20
216.1490070000000117
 30
0.0
 11
114.1988000000000056
 21
216.6310139999999933
 31
0.0
  0
LINE
  5
FD
100
AcDbEntity
100
AcDbLine
  8
HACHURE
 62
5
370
-1
  6
CONTINUOUS
 10
114.8617119999999971
 20
217.2939269999999965
 30
0.0
 11
116.1875370000000061
 21
218.6197520000000054
 31
0.0
  0
LINE
  5
FE
100
AcDbEntity
100
AcDbLine
  8
HACHURE
 62
5
370
-1
  6
CONTINUOUS
 10
116.850449999999995
 20
219.2826650000000086
 30
0.0
 11
118.176275000000004
 21
220.6084899999999891
 31
0.0
  0
LINE
  5
FF
100
AcDbEntity
100
AcDbLine
  8
HACHURE
 62
5
370
-1
  6
CONTINUOUS
 10
118.8391879999999929
 20
221.2714029999999923
 30
0.0
 11
120.1650130000000019
 21
222.5972280000000012
 31
0.0
  0
LINE
  5
100
100
AcDbEntity
100
AcDbLine
  8
HACHURE
 62
5
370
-1
  6
CONTINUOUS
 10
90.7167919999999981
 20
198.4523069999999905
 30
0.0
 11
91.6597710000000063
 21
199.3952859999999987
 31
0.0
  0
LINE
  5
101
100
AcDbEntity
100
AcDbLine
  8
HACHURE
 62
5
370
-1
  6
CONTINUOUS
 10
92.3226829999999978
 20
200.0581990000000019
 30
0.0
 11
93.3215229999999991
 21
201.0570380000000057
 31
0.0
  0
LINE
  5
102
100
AcDbEntity
100
AcDbLine
  8
HACHURE
 62
5
370
-1
  6
CONTINUOUS
 10
114.1988000000000056
 20
221.934314999999998
 30
0.0
 11
115.3925899999999984
 21
223.1281060000000025
 31
0.0
  0
LINE
  5
103
100
AcDbEntity
100
AcDbLine
  8
HACHURE
 62
5
370
-1
  6
CONTINUOUS
 10
96.9630719999999968
 20
215.3051890000000128
 30
0.0
 11
98.2888970000000057
 21
216.6310139999999933
 31
0.0
  0
LINE
  5
104
100
AcDbEntity
100
AcDbLine
  8
HACHURE
 62
5
370
-1
  6
CONTINUOUS
 10
98.9518099999999947
 20
217.2939269999999965
 30
0.0
 11
100.2776350000000036
 21
218.6197520000000054
 31
0.0
  0
LINE
  5
105
100
AcDbEntity
100
AcDbLine
  8
HACHURE
 62
5
370
-1
  6
CONTINUOUS
 10
100.9405469999999951
 20
219.2826650000000086
 30
0.0
 11
101.7167919999999981
 21
220.0589089999999999
 31
0.0
  0
LINE
  5
106
100
AcDbEntity
100
AcDbLine
  8
HACHURE
 62
5
370
-1
  6
CONTINUOUS
 10
91.553756000000007
 20
215.1991739999999993
 30
0.0
 11
91.6597710000000063
 21
215.3051890000000128
 31
0.0
  0
LINE
  5
107
100
AcDbEntity
100
AcDbLine
  8
HACHURE
 62
5
370
-1
  6
CONTINUOUS
 10
92.3226829999999978
 20
215.9681019999999876
 30
0.0
 11
93.6485090000000042
 21
217.2939269999999965
 31
0.0
  0
LINE
  5
108
100
AcDbEntity
100
AcDbLine
  8
HACHURE
 62
5
370
-1
  6
CONTINUOUS
 10
94.3114209999999957
 20
217.9568390000000022
 30
0.0
 11
95.6372470000000021
 21
219.2826650000000086
 31
0.0
  0
LINE
  5
109
100
AcDbEntity
100
AcDbLine
  8
HACHURE
 62
5
370
-1
  6
CONTINUOUS
 10
96.3001589999999936
 20
219.9455769999999859
 30
0.0
 11
97.6259840000000025
 21
221.2714029999999923
 31
0.0
  0
LINE
  5
10A
100
AcDbEntity
100
AcDbLine
  8
HACHURE
 62
5
370
-1
  6
CONTINUOUS
 10
98.2888970000000057
 20
221.934314999999998
 30
0.0
 11
99.482687999999996
 21
223.1281060000000025
 31
0.0
  0
LINE
  5
10B
100
AcDbEntity
100
AcDbLine
  8
HACHURE
 62
5
370
-1
  6
CONTINUOUS
 10
90.7167919999999981
 20
219.6655110000000093
 30
0.0
 11
90.9968580000000031
 21
219.9455769999999859
 31
0.0
  0
LINE
  5
10C
100
AcDbEntity
100
AcDbLine
  8
HACHURE
 62
5
370
-1
  6
CONTINUOUS
 10
91.6597710000000063
 20
220.6084899999999891
 30
0.0
 11
92.985596000000001
 21
221.934314999999998
 31
0.0
  0
LINE
  5
10D
100
AcDbEntity
100
AcDbLine
  8
HACHURE
 62
5
370
-1
  6
CONTINUOUS
 10
93.6485090000000042
 20
222.5972280000000012
 30
0.0
 11
94.1793870000000055
 21
223.1281060000000025
 31
0.0
  0
LINE
  5
10E
100
AcDbEntity
100
AcDbLine
  8
HACHURE
 62
5
370
-1
  6
CONTINUOUS
 10
122.2123959999999983
 20
198.1281060000000025
 30
0.0
 11
123.4795759999999945
 21
199.3952859999999987
 31
0.0
  0
LINE
  5
10F
100
AcDbEntity
100
AcDbLine
  8
HACHURE
 62
5
370
-1
  6
CONTINUOUS
 10
124.1424889999999976
 20
200.0581990000000019
 30
0.0
 11
125.1413280000000015
 21
201.0570380000000057
 31
0.0
  0
LINE
  5
110
100
AcDbEntity
100
AcDbLine
  8
HACHURE
 62
5
370
-1
  6
CONTINUOUS
 10
127.5156960000000055
 20
198.1281060000000025
 30
0.0
 11
128.1199640000000102
 21
198.732373999999993
 31
0.0
  0
LINE
  5
111
100
AcDbEntity
100
AcDbLine
  8
HACHURE
 62
5
370
-1
  6
CONTINUOUS
 10
128.7828770000000134
 20
199.3952859999999987
 30
0.0
 11
130.1087019999999939
 21
200.7211120000000051
 31
0.0
  0
LINE
  5
112
100
AcDbEntity
100
AcDbLine
  8
HACHURE
 62
5
370
-1
  6
CONTINUOUS
 10
149.7167919999999981
 20
220.3292010000000118
 30
0.0
 11
149.9960800000000063
 21
220.6084899999999891
 31
0.0
  0
LINE
  5
113
100
AcDbEntity
100
AcDbLine
  8
HACHURE
 62
5
370
-1
  6
CONTINUOUS
 10
150.6589930000000095
 20
221.2714029999999923
 30
0.0
 11
151.98481799999999
 21
222.5972280000000012
 31
0.0
  0
LINE
  5
114
100
AcDbEntity
100
AcDbLine
  8
HACHURE
 62
5
370
-1
  6
CONTINUOUS
 10
133.4232649999999865
 20
198.732373999999993
 30
0.0
 11
134.7490899999999954
 21
200.0581990000000019
 31
0.0
  0
LINE
  5
115
100
AcDbEntity
100
AcDbLine
  8
HACHURE
 62
5
370
-1
  6
CONTINUOUS
 10
135.4120029999999986
 20
200.7211120000000051
 30
0.0
 11
135.7479289999999992
 21
201.0570380000000057
 31
0.0
  0
LINE
  5
116
100
AcDbEntity
100
AcDbLine
  8
HACHURE
 62
5
370
-1
  6
CONTINUOUS
 10
149.8900649999999928
 20
215.1991739999999993
 30
0.0
 11
150.6589930000000095
 21
215.9681019999999876
 31
0.0
  0
LINE
  5
117
100
AcDbEntity
100
AcDbLine
  8
HACHURE
 62
5
370
-1
  6
CONTINUOUS
 10
151.3219060000000127
 20
216.6310139999999933
 30
0.0
 11
152.6477309999999932
 21
217.9568390000000022
 31
0.0
  0
LINE
  5
118
100
AcDbEntity
100
AcDbLine
  8
HACHURE
 62
5
370
-1
  6
CONTINUOUS
 10
153.3106429999999989
 20
218.6197520000000054
 30
0.0
 11
154.6364690000000053
 21
219.9455769999999859
 31
0.0
  0
LINE
  5
119
100
AcDbEntity
100
AcDbLine
  8
HACHURE
 62
5
370
-1
  6
CONTINUOUS
 10
155.299381000000011
 20
220.6084899999999891
 30
0.0
 11
156.6252059999999915
 21
221.934314999999998
 31
0.0
  0
LINE
  5
11A
100
AcDbEntity
100
AcDbLine
  8
HACHURE
 62
5
370
-1
  6
CONTINUOUS
 10
157.2881189999999947
 20
222.5972280000000012
 30
0.0
 11
157.818996999999996
 21
223.1281060000000025
 31
0.0
  0
LINE
  5
11B
100
AcDbEntity
100
AcDbLine
  8
HACHURE
 62
5
370
-1
  6
CONTINUOUS
 10
138.1222980000000007
 20
198.1281060000000025
 30
0.0
 11
139.3894789999999944
 21
199.3952859999999987
 31
0.0
  0
LINE
  5
11C
100
AcDbEntity
100
AcDbLine
  8
HACHURE
 62
5
370
-1
  6
CONTINUOUS
 10
140.0523910000000001
 20
200.0581990000000019
 30
0.0
 11
141.0512300000000039
 21
201.0570380000000057
 31
0.0
  0
LINE
  5
11D
100
AcDbEntity
100
AcDbLine
  8
HACHURE
 62
5
370
-1
  6
CONTINUOUS
 10
155.1933659999999975
 20
215.1991739999999993
 30
0.0
 11
155.299381000000011
 21
215.3051890000000128
 31
0.0
  0
LINE
  5
11E
100
AcDbEntity
100
AcDbLine
  8
HACHURE
 62
5
370
-1
  6
CONTINUOUS
 10
155.9622940000000142
 20
215.9681019999999876
 30
0.0
 11
157.2881189999999947
 21
217.2939269999999965
 31
0.0
  0
LINE
  5
11F
100
AcDbEntity
100
AcDbLine
  8
HACHURE
 62
5
370
-1
  6
CONTINUOUS
 10
157.9510319999999979
 20
217.9568390000000022
 30
0.0
 11
159.2768570000000068
 21
219.2826650000000086
 31
0.0
  0
LINE
  5
120
100
AcDbEntity
100
AcDbLine
  8
HACHURE
 62
5
370
-1
  6
CONTINUOUS
 10
159.9397690000000125
 20
219.9455769999999859
 30
0.0
 11
160.7167919999999981
 21
220.7225999999999999
 31
0.0
  0
LINE
  5
121
100
AcDbEntity
100
AcDbLine
  8
HACHURE
 62
5
370
-1
  6
CONTINUOUS
 10
143.4255990000000054
 20
198.1281060000000025
 30
0.0
 11
144.0298669999999959
 21
198.732373999999993
 31
0.0
  0
LINE
  5
122
100
AcDbEntity
100
AcDbLine
  8
HACHURE
 62
5
370
-1
  6
CONTINUOUS
 10
144.6927790000000016
 20
199.3952859999999987
 30
0.0
 11
146.018605000000008
 21
200.7211120000000051
 31
0.0
  0
LINE
  5
123
100
AcDbEntity
100
AcDbLine
  8
HACHURE
 62
5
370
-1
  6
CONTINUOUS
 10
160.6026819999999873
 20
215.3051890000000128
 30
0.0
 11
160.7167919999999981
 21
215.4192989999999952
 31
0.0
  0
LINE
  5
124
100
AcDbEntity
100
AcDbLine
  8
HACHURE
 62
5
370
-1
  6
CONTINUOUS
 10
149.3331680000000006
 20
198.732373999999993
 30
0.0
 11
150.6589930000000095
 21
200.0581990000000019
 31
0.0
  0
LINE
  5
125
100
AcDbEntity
100
AcDbLine
  8
HACHURE
 62
5
370
-1
  6
CONTINUOUS
 10
151.3219060000000127
 20
200.7211120000000051
 30
0.0
 11
151.6578320000000133
 21
201.0570380000000057
 31
0.0
  0
LINE
  5
126
100
AcDbEntity
100
AcDbLine
  8
HACHURE
 62
5
370
-1
  6
CONTINUOUS
 10
154.0322009999999864
 20
198.1281060000000025
 30
0.0
 11
155.299381000000011
 21
199.3952859999999987
 31
0.0
  0
LINE
  5
127
100
AcDbEntity
100
AcDbLine
  8
HACHURE
 62
5
370
-1
  6
CONTINUOUS
 10
155.9622940000000142
 20
200.0581990000000019
 30
0.0
 11
156.9611329999999896
 21
201.0570380000000057
 31
0.0
  0
LINE
  5
128
100
AcDbEntity
100
AcDbLine
  8
HACHURE
 62
5
370
-1
  6
CONTINUOUS
 10
159.3355019999999911
 20
198.1281060000000025
 30
0.0
 11
159.9397690000000125
 21
198.732373999999993
 31
0.0
  0
LINE
  5
129
100
AcDbEntity
100
AcDbLine
  8
HACHURE
 62
5
370
-1
  6
CONTINUOUS
 10
160.6026819999999873
 20
199.3952859999999987
 30
0.0
 11
160.7167919999999981
 21
199.5093960000000095
 31
0.0
  0
ENDBLK
  5
12A
100
AcDbEntity
  8
0
100
AcDbBlockEnd
  0
ENDSEC
  0
SECTION
  2
ENTITIES
  0
LINE
  5
12B
100
AcDbEntity
100
AcDbLine
  8
FORT
 62
256
370
-1
  6
ByLayer
 10
10.0
 20
287.0
 30
0.0
 11
200.0
 21
287.0
 31
0.0
  0
LINE
  5
12C
100
AcDbEntity
100
AcDbLine
  8
RENFORCE
 62
256
370
-1
  6
ByLayer
 10
10.0
 20
13.0
 30
0.0
 11
200.0
 21
13.0
 31
0.0
  0
LINE
  5
12D
100
AcDbEntity
100
AcDbLine
  8
FORT
 62
256
370
-1
  6
ByLayer
 10
10.0
 20
43.0
 30
0.0
 11
10.0
 21
287.0
 31
0.0
  0
LINE
  5
12E
100
AcDbEntity
100
AcDbLine
  8
RENFORCE
 62
256
370
-1
  6
ByLayer
 10
10.0
 20
43.0
 30
0.0
 11
200.0
 21
43.0
 31
0.0
  0
LINE
  5
12F
100
AcDbEntity
100
AcDbLine
  8
FORT
 62
256
370
-1
  6
ByLayer
 10
200.0
 20
43.0
 30
0.0
 11
200.0
 21
287.0
 31
0.0
  0
LINE
  5
130
100
AcDbEntity
100
AcDbLine
  8
RENFORCE
 62
256
370
-1
  6
ByLayer
 10
10.0
 20
43.0
 30
0.0
 11
10.0
 21
13.0
 31
0.0
  0
LINE
  5
131
100
AcDbEntity
100
AcDbLine
  8
RENFORCE
 62
256
370
-1
  6
ByLayer
 10
200.0
 20
43.0
 30
0.0
 11
200.0
 21
13.0
 31
0.0
  0
LINE
  5
132
100
AcDbEntity
100
AcDbLine
  8
FIN
 62
256
370
-1
  6
ByLayer
 10
10.0
 20
23.0
 30
0.0
 11
200.0
 21
23.0
 31
0.0
  0
LINE
  5
133
100
AcDbEntity
100
AcDbLine
  8
FIN
 62
256
370
-1
  6
ByLayer
 10
10.0
 20
33.0
 30
0.0
 11
50.0
 21
33.0
 31
0.0
  0
LINE
  5
134
100
AcDbEntity
100
AcDbLine
  8
FIN
 62
256
370
-1
  6
ByLayer
 10
50.0
 20
43.0
 30
0.0
 11
50.0
 21
13.0
 31
0.0
  0
LINE
  5
135
100
AcDbEntity
100
AcDbLine
  8
AXE
 62
256
370
-1
  6
ByLayer
 10
13.0
 20
28.0
 30
0.0
 11
47.0
 21
28.0
 31
0.0
  0
CIRCLE
  5
136
100
AcDbEntity
100
AcDbCircle
  8
FORT
 62
256
370
-1
  6
ByLayer
 10
39.4912073672424384
 20
28.0
 30
0.0
 40
3.0
  0
CIRCLE
  5
137
100
AcDbEntity
100
AcDbCircle
  8
FORT
 62
256
370
-1
  6
ByLayer
 10
39.4912073672424384
 20
28.0
 30
0.0
 40
1.4142135623730951
  0
LINE
  5
138
100
AcDbEntity
100
AcDbLine
  8
AXE
 62
256
370
-1
  6
ByLayer
 10
39.4912073672424384
 20
32.0
 30
0.0
 11
39.4912073672424384
 21
24.0
 31
0.0
  0
LINE
  5
139
100
AcDbEntity
100
AcDbLine
  8
FORT
 62
256
370
-1
  6
ByLayer
 10
17.491207367242442
 20
29.4142135623730958
 30
0.0
 11
17.491207367242442
 21
26.5857864376269042
 31
0.0
  0
LINE
  5
13A
100
AcDbEntity
100
AcDbLine
  8
FORT
 62
256
370
-1
  6
ByLayer
 10
29.491207367242442
 20
31.0
 30
0.0
 11
29.491207367242442
 21
25.0
 31
0.0
  0
LINE
  5
13B
100
AcDbEntity
100
AcDbLine
  8
FORT
 62
256
370
-1
  6
ByLayer
 10
29.491207367242442
 20
31.0
 30
0.0
 11
17.491207367242442
 21
29.4142135623730958
 31
0.0
  0
LINE
  5
13C
100
AcDbEntity
100
AcDbLine
  8
FORT
 62
256
370
-1
  6
ByLayer
 10
29.491207367242442
 20
25.0
 30
0.0
 11
17.491207367242442
 21
26.5857864376269042
 31
0.0
  0
MTEXT
  5
13D
100
AcDbEntity
100
AcDbMText
  8
TEXTE P
 62
256
370
-1
  6
ByLayer
 10
16.0484730000000013
 20
54.0
 30
0.0
 40
3.5
 41
100.0
 71
7
 72
2
  1
1
  7
ISO9
 50
0.0
 73
0
 44
1.0
  0
MTEXT
  5
13E
100
AcDbEntity
100
AcDbMText
  8
TEXTE P
 62
256
370
-1
  6
ByLayer
 10
31.0484730000000013
 20
54.0
 30
0.0
 40
3.5
 41
100.0
 71
7
 72
2
  1
1
  7
ISO9
 50
0.0
 73
0
 44
1.0
  0
MTEXT
  5
13F
100
AcDbEntity
100
AcDbMText
  8
TEXTE P
 62
256
370
-1
  6
ByLayer
 10
44.0
 20
54.5
 30
0.0
 40
3.5
 41
100.0
 71
7
 72
2
  1
Corps
  7
ISO9
 50
0.0
 73
1
 44
1.0
  0
MTEXT
  5
140
100
AcDbEntity
100
AcDbMText
  8
TEXTE P
 62
256
370
-1
  6
ByLayer
 10
172.0
 20
45.5
 30
0.0
 40
3.5
 41
100.0
 71
7
 72
2
  1
OBS.
  7
ISO9
 50
0.0
 73
1
 44
1.0
  0
MTEXT
  5
141
100
AcDbEntity
100
AcDbMText
  8
TEXTE P
 62
256
370
-1
  6
ByLayer
 10
12.0
 20
45.5
 30
0.0
 40
3.5
 41
100.0
 71
7
 72
2
  1
REP.
  7
ISO9
 50
0.0
 73
1
 44
1.0
  0
MTEXT
  5
142
100
AcDbEntity
100
AcDbMText
  8
TEXTE P
 62
256
370
-1
  6
ByLayer
 10
29.0
 20
45.5
 30
0.0
 40
3.5
 41
100.0
 71
7
 72
2
  1
NB.
  7
ISO9
 50
0.0
 73
1
 44
1.0
  0
MTEXT
  5
143
100
AcDbEntity
100
AcDbMText
  8
TEXTE P
 62
256
370
-1
  6
ByLayer
 10
57.4193939999999969
 20
45.5999999999999943
 30
0.0
 40
3.5
 41
100.0
 71
7
 72
2
  1
DESIGNATION
  7
ISO9
 50
0.0
 73
1
 44
1.0
  0
MTEXT
  5
144
100
AcDbEntity
100
AcDbMText
  8
TEXTE P
 62
256
370
-1
  6
ByLayer
 10
122.0
 20
45.5
 30
0.0
 40
3.5
 41
100.0
 71
7
 72
2
  1
MATIERE
  7
ISO9
 50
0.0
 73
1
 44
1.0
  0
MTEXT
  5
145
100
AcDbEntity
100
AcDbMText
  8
TEXTE G
 62
256
370
-1
  6
ByLayer
 10
78.7422133770491826
 20
30.0
 30
0.0
 40
7.0
 41
100.0
 71
7
 72
2
  1
BLOC\~DE\~JONCTION
  7
ISO9
 50
0.0
 73
1
 44
1.0
  0
MTEXT
  5
146
100
AcDbEntity
100
AcDbMText
  8
TEXTE G
 62
256
370
-1
  6
ByLayer
 10
24.0037869999999991
 20
14.9279770000000003
 30
0.0
 40
7.0
 41
100.0
 71
7
 72
2
  1
A4
  7
ISO9
 50
0.0
 73
1
 44
1.0
  0
MTEXT
  5
147
100
AcDbEntity
100
AcDbMText
  8
TEXTE M
 62
256
370
-1
  6
ByLayer
 10
18.5955338097676339
 20
35.3186510000000027
 30
0.0
 40
5.0
 41
100.0
 71
7
 72
2
  1
Ech.\~5:1
  7
ISO9
 50
0.0
 73
1
 44
1.0
  0
MTEXT
  5
148
100
AcDbEntity
100
AcDbMText
  8
TEXTE M
 62
256
370
-1
  6
ByLayer
 10
64.099473519125695
 20
15.6947080000000003
 30
0.0
 40
5.0
 41
100.0
 71
7
 72
2
  1
Dessin\~d'ensemble\~et\~nomenclature
  7
ISO9
 50
0.0
 73
1
 44
1.0
  0
LINE
  5
149
100
AcDbEntity
100
AcDbLine
  8
FIN
 62
5
370
-1
  6
CONTINUOUS
 10
10.0
 20
60.0
 30
0.0
 11
200.0
 21
60.0
 31
0.0
  0
MTEXT
  5
14A
100
AcDbEntity
100
AcDbMText
  8
TEXTE P
 62
256
370
-1
  6
ByLayer
 10
113.979670098360657
 20
62.0
 30
0.0
 40
3.5
 41
100.0
 71
7
 72
2
  1
Cu\~Zn39\~Pb2
  7
ISO9
 50
0.0
 73
0
 44
1.0
  0
MTEXT
  5
14B
100
AcDbEntity
100
AcDbMText
  8
TEXTE P
 62
256
370
-1
  6
ByLayer
 10
44.2519265519125682
 20
62.0
 30
0.0
 40
3.5
 41
100.0
 71
7
 72
2
  1
Manchon
  7
ISO9
 50
0.0
 73
0
 44
1.0
  0
MTEXT
  5
14C
100
AcDbEntity
100
AcDbMText
  8
TEXTE P
 62
256
370
-1
  6
ByLayer
 10
31.0484730000000013
 20
62.0
 30
0.0
 40
3.5
 41
100.0
 71
7
 72
2
  1
1
  7
ISO9
 50
0.0
 73
0
 44
1.0
  0
MTEXT
  5
14D
100
AcDbEntity
100
AcDbMText
  8
TEXTE P
 62
256
370
-1
  6
ByLayer
 10
16.0484730000000013
 20
62.0
 30
0.0
 40
3.5
 41
100.0
 71
7
 72
2
  1
2
  7
ISO9
 50
0.0
 73
0
 44
1.0
  0
LINE
  5
14E
100
AcDbEntity
100
AcDbLine
  8
FIN
 62
5
370
-1
  6
CONTINUOUS
 10
10.0
 20
68.0
 30
0.0
 11
200.0
 21
68.0
 31
0.0
  0
MTEXT
  5
14F
100
AcDbEntity
100
AcDbMText
  8
TEXTE P
 62
256
370
-1
  6
ByLayer
 10
16.0
 20
70.0
 30
0.0
 40
3.5
 41
100.0
 71
7
 72
2
  1
3
  7
ISO9
 50
0.0
 73
0
 44
1.0
  0
MTEXT
  5
150
100
AcDbEntity
100
AcDbMText
  8
TEXTE P
 62
256
370
-1
  6
ByLayer
 10
31.0484730000000013
 20
70.0
 30
0.0
 40
3.5
 41
100.0
 71
7
 72
2
  1
2
  7
ISO9
 50
0.0
 73
0
 44
1.0
  0
MTEXT
  5
151
100
AcDbEntity
100
AcDbMText
  8
TEXTE P
 62
256
370
-1
  6
ByLayer
 10
44.2519265519125682
 20
70.0
 30
0.0
 40
3.5
 41
100.0
 71
7
 72
2
  1
Vis\~M\~2,5
  7
ISO9
 50
0.0
 73
0
 44
1.0
  0
MTEXT
  5
152
100
AcDbEntity
100
AcDbMText
  8
TEXTE P
 62
256
370
-1
  6
ByLayer
 10
113.979670098360657
 20
70.0
 30
0.0
 40
3.5
 41
100.0
 71
7
 72
2
  1
Cu\~Zn39\~Pb2
  7
ISO9
 50
0.0
 73
0
 44
1.0
  0
LINE
  5
153
100
AcDbEntity
100
AcDbLine
  8
FIN
 62
256
370
-1
  6
ByLayer
 10
10.0
 20
52.0
 30
0.0
 11
200.0
 21
52.0
 31
0.0
  0
LINE
  5
154
100
AcDbEntity
100
AcDbLine
  8
FIN
 62
256
370
-1
  6
ByLayer
 10
25.0
 20
43.0
 30
0.0
 11
25.0
 21
76.0
 31
0.0
  0
LINE
  5
155
100
AcDbEntity
100
AcDbLine
  8
FIN
 62
256
370
-1
  6
ByLayer
 10
40.0
 20
43.0
 30
0.0
 11
40.0
 21
76.0
 31
0.0
  0
LINE
  5
156
100
AcDbEntity
100
AcDbLine
  8
FIN
 62
256
370
-1
  6
ByLayer
 10
110.0
 20
43.0
 30
0.0
 11
110.0
 21
76.0
 31
0.0
  0
LINE
  5
157
100
AcDbEntity
100
AcDbLine
  8
FIN
 62
256
370
-1
  6
ByLayer
 10
157.0
 20
43.0
 30
0.0
 11
157.0
 21
76.0
 31
0.0
  0
LINE
  5
158
100
AcDbEntity
100
AcDbLine
  8
FORT
 62
7
370
-1
  6
CONTINUOUS
 10
80.5028462938452236
 20
138.154846181683638
 30
0.0
 11
166.5028462938452378
 21
138.154846181683638
 31
0.0
  0
LINE
  5
159
100
AcDbEntity
100
AcDbLine
  8
FORT
 62
7
370
-1
  6
CONTINUOUS
 10
166.5028462938452378
 20
100.1548461816836237
 30
0.0
 11
80.5028462938452236
 21
100.1548461816836237
 31
0.0
  0
CIRCLE
  5
15A
100
AcDbEntity
100
AcDbCircle
  8
FORT
 62
7
370
-1
  6
CONTINUOUS
 10
105.5028462938452236
 20
119.1548461816836237
 30
0.0
 40
14.0
  0
LINE
  5
15B
100
AcDbEntity
100
AcDbLine
  8
FORT
 62
7
370
-1
  6
CONTINUOUS
 10
80.5028462938452236
 20
100.1548461816836237
 30
0.0
 11
80.5028462938452236
 21
138.154846181683638
 31
0.0
  0
CIRCLE
  5
15C
100
AcDbEntity
100
AcDbCircle
  8
FORT
 62
7
370
-1
  6
CONTINUOUS
 10
105.5028462938452236
 20
119.1548461816836237
 30
0.0
 40
12.5
  0
CIRCLE
  5
15D
100
AcDbEntity
100
AcDbCircle
  8
FORT
 62
7
370
-1
  6
CONTINUOUS
 10
105.5028462938452236
 20
119.1548461816836237
 30
0.0
 40
8.0
  0
LINE
  5
15E
100
AcDbEntity
100
AcDbLine
  8
FORT
 62
7
370
-1
  6
CONTINUOUS
 10
103.5028462938452236
 20
126.9008131816836311
 30
0.0
 11
103.5028462938452236
 21
111.4088801816836281
 31
0.0
  0
LINE
  5
15F
100
AcDbEntity
100
AcDbLine
  8
FORT
 62
7
370
-1
  6
CONTINUOUS
 10
107.5028462938452236
 20
126.9008131816836311
 30
0.0
 11
107.5028462938452236
 21
111.4088801816836281
 31
0.0
  0
LINE
  5
160
100
AcDbEntity
100
AcDbLine
  8
FORT
 62
7
370
-1
  6
CONTINUOUS
 10
166.5028462938452378
 20
138.154846181683638
 30
0.0
 11
166.5028462938452378
 21
100.1548461816836237
 31
0.0
  0
CIRCLE
  5
161
100
AcDbEntity
100
AcDbCircle
  8
FORT
 62
7
370
-1
  6
CONTINUOUS
 10
141.5028462938452378
 20
119.1548461816836237
 30
0.0
 40
14.0
  0
CIRCLE
  5
162
100
AcDbEntity
100
AcDbCircle
  8
FORT
 62
7
370
-1
  6
CONTINUOUS
 10
141.5028462938452378
 20
119.1548461816836237
 30
0.0
 40
12.5
  0
CIRCLE
  5
163
100
AcDbEntity
100
AcDbCircle
  8
FORT
 62
7
370
-1
  6
CONTINUOUS
 10
141.5028462938452378
 20
119.1548461816836237
 30
0.0
 40
8.0
  0
LINE
  5
164
100
AcDbEntity
100
AcDbLine
  8
FORT
 62
7
370
-1
  6
CONTINUOUS
 10
139.5028462938452378
 20
126.9008131816836311
 30
0.0
 11
139.5028462938452378
 21
111.4088801816836281
 31
0.0
  0
LINE
  5
165
100
AcDbEntity
100
AcDbLine
  8
FORT
 62
7
370
-1
  6
CONTINUOUS
 10
143.5028462938452378
 20
126.9008131816836311
 30
0.0
 11
143.5028462938452378
 21
111.4088801816836281
 31
0.0
  0
LINE
  5
166
100
AcDbEntity
100
AcDbLine
  8
FORT
 62
7
370
-1
  6
CONTINUOUS
 10
80.5028462938452236
 20
180.9334811816836464
 30
0.0
 11
166.5028462938452378
 21
180.9334811816836464
 31
0.0
  0
LINE
  5
167
100
AcDbEntity
100
AcDbLine
  8
FORT
 62
7
370
-1
  6
CONTINUOUS
 10
88.5028462938452236
 20
193.8624131816836211
 30
0.0
 11
158.5028462938452378
 21
193.8624131816836211
 31
0.0
  0
LINE
  5
168
100
AcDbEntity
100
AcDbLine
  8
FORT
 62
7
370
-1
  6
CONTINUOUS
 10
80.5028462938452236
 20
190.9334811816836464
 30
0.0
 11
166.5028462938452378
 21
190.9334811816836464
 31
0.0
  0
INSERT
  5
169
100
AcDbEntity
100
AcDbBlockReference
  8
HACHURE
 62
256
370
-1
  6
ByLayer
  2
DESENS-G1
 10
-2.2139457061547745
 20
-7.1946248183163704
 30
0.0
  0
INSERT
  5
16A
100
AcDbEntity
100
AcDbBlockReference
  8
HACHURE
 62
256
370
-1
  6
ByLayer
  2
DESENS-G2
 10
-2.2139457061547745
 20
-7.1946248183163704
 30
0.0
  0
LINE
  5
16B
100
AcDbEntity
100
AcDbLine
  8
FORT
 62
7
370
-1
  6
CONTINUOUS
 10
111.5028462938452236
 20
208.0045491816836147
 30
0.0
 11
135.5028462938452378
 21
208.0045491816836147
 31
0.0
  0
LINE
  5
16C
100
AcDbEntity
100
AcDbLine
  8
FORT
 62
7
370
-1
  6
CONTINUOUS
 10
111.5028462938452236
 20
215.9334811816836464
 30
0.0
 11
135.5028462938452378
 21
215.9334811816836464
 31
0.0
  0
LINE
  5
16D
100
AcDbEntity
100
AcDbLine
  8
FORT
 62
7
370
-1
  6
CONTINUOUS
 10
116.8963122938452273
 20
160.9334811816836464
 30
0.0
 11
126.8963122938452273
 21
160.9334811816836464
 31
0.0
  0
LINE
  5
16E
100
AcDbEntity
100
AcDbLine
  8
FORT
 62
7
370
-1
  6
CONTINUOUS
 10
118.0028462938452236
 20
245.9334811816836464
 30
0.0
 11
119.5028462938452378
 21
225.9334811816836464
 31
0.0
  0
LINE
  5
16F
100
AcDbEntity
100
AcDbLine
  8
FORT
 62
7
370
-1
  6
CONTINUOUS
 10
25.4530952938452231
 20
180.9334811816836464
 30
0.0
 11
25.4530952938452231
 21
225.9334811816836464
 31
0.0
  0
LINE
  5
170
100
AcDbEntity
100
AcDbLine
  8
FORT
 62
7
370
-1
  6
CONTINUOUS
 10
80.5028462938452236
 20
225.9334811816836464
 30
0.0
 11
80.5028462938452236
 21
180.9334811816836464
 31
0.0
  0
LINE
  5
171
100
AcDbEntity
100
AcDbLine
  8
FORT
 62
7
370
-1
  6
CONTINUOUS
 10
63.4530952938452231
 20
225.9334811816836464
 30
0.0
 11
63.4530952938452231
 21
180.9334811816836464
 31
0.0
  0
LINE
  5
172
100
AcDbEntity
100
AcDbLine
  8
FORT
 62
7
370
-1
  6
CONTINUOUS
 10
99.5028462938452236
 20
226.9334811816836464
 30
0.0
 11
99.5028462938452236
 21
201.9334811816836464
 31
0.0
  0
LINE
  5
173
100
AcDbEntity
100
AcDbLine
  8
FORT
 62
7
370
-1
  6
CONTINUOUS
 10
97.5028462938452236
 20
245.9334811816836464
 30
0.0
 11
97.5028462938452236
 21
215.9334811816836464
 31
0.0
  0
LINE
  5
174
100
AcDbEntity
100
AcDbLine
  8
FORT
 62
7
370
-1
  6
CONTINUOUS
 10
111.5028462938452236
 20
226.9334811816836464
 30
0.0
 11
111.5028462938452236
 21
201.9334811816836464
 31
0.0
  0
LINE
  5
175
100
AcDbEntity
100
AcDbLine
  8
FORT
 62
7
370
-1
  6
CONTINUOUS
 10
113.5028462938452236
 20
245.9334811816836464
 30
0.0
 11
113.5028462938452236
 21
215.9334811816836464
 31
0.0
  0
LINE
  5
176
100
AcDbEntity
100
AcDbLine
  8
FIN
 62
5
370
-1
  6
CONTINUOUS
 10
101.5028462938452236
 20
199.9334811816836464
 30
0.0
 11
101.5028462938452236
 21
223.9334811816836464
 31
0.0
  0
LINE
  5
177
100
AcDbEntity
100
AcDbLine
  8
FIN
 62
5
370
-1
  6
CONTINUOUS
 10
109.5028462938452236
 20
199.9334811816836464
 30
0.0
 11
109.5028462938452236
 21
223.9334811816836464
 31
0.0
  0
LINE
  5
178
100
AcDbEntity
100
AcDbLine
  8
FORT
 62
7
370
-1
  6
CONTINUOUS
 10
63.4530952938452231
 20
180.9334811816836464
 30
0.0
 11
25.4530952938452231
 21
180.9334811816836464
 31
0.0
  0
LINE
  5
179
100
AcDbEntity
100
AcDbLine
  8
FORT
 62
7
370
-1
  6
CONTINUOUS
 10
44.4530952938452231
 20
159.9334811816836464
 30
0.0
 11
44.4530952938452231
 21
169.9334811816836464
 31
0.0
  0
LINE
  5
17A
100
AcDbEntity
100
AcDbLine
  8
FORT
 62
7
370
-1
  6
CONTINUOUS
 10
44.4530952938452231
 20
164.6001481816836076
 30
0.0
 11
41.6530952938452259
 21
165.5334811816836122
 31
0.0
  0
LINE
  5
17B
100
AcDbEntity
100
AcDbLine
  8
FORT
 62
7
370
-1
  6
CONTINUOUS
 10
44.4530952938452231
 20
170.9334811816836464
 30
0.0
 11
44.4530952938452231
 21
172.9334811816836464
 31
0.0
  0
LINE
  5
17C
100
AcDbEntity
100
AcDbLine
  8
FORT
 62
7
370
-1
  6
CONTINUOUS
 10
44.4530952938452231
 20
173.9334811816836464
 30
0.0
 11
44.4530952938452231
 21
178.9334811816836464
 31
0.0
  0
LINE
  5
17D
100
AcDbEntity
100
AcDbLine
  8
FORT
 62
7
370
-1
  6
CONTINUOUS
 10
35.0344842938452246
 20
164.6001481816836076
 30
0.0
 11
44.4530952938452231
 21
164.6001481816836076
 31
0.0
  0
LINE
  5
17E
100
AcDbEntity
100
AcDbLine
  8
FORT
 62
7
370
-1
  6
CONTINUOUS
 10
44.4530952938452231
 20
164.6001481816836076
 30
0.0
 11
41.6530952938452259
 21
163.666815181683603
 31
0.0
  0
ARC
  5
17F
100
AcDbEntity
  8
FORT
 62
7
370
-1
  6
CONTINUOUS
100
AcDbCircle
 10
44.4530952938452231
 20
200.9334811816836464
 30
0.0
 40
10.0
100
AcDbArc
 50
167.8511990000000083
 51
12.1488010000000006
  0
LINE
  5
180
100
AcDbEntity
100
AcDbLine
  8
FORT
 62
7
370
-1
  6
CONTINUOUS
 10
36.4530952938452231
 20
215.9334811816836464
 30
0.0
 11
52.4530952938452231
 21
215.9334811816836464
 31
0.0
  0
LINE
  5
181
100
AcDbEntity
100
AcDbLine
  8
FORT
 62
7
370
-1
  6
CONTINUOUS
 10
36.4530952938452231
 20
215.9334811816836464
 30
0.0
 11
34.6770522938452359
 21
203.0379941816836435
 31
0.0
  0
CIRCLE
  5
182
100
AcDbEntity
100
AcDbCircle
  8
FORT
 62
7
370
-1
  6
CONTINUOUS
 10
44.4530952938452231
 20
200.9334811816836464
 30
0.0
 40
7.0710680000000004
  0
LINE
  5
183
100
AcDbEntity
100
AcDbLine
  8
FORT
 62
7
370
-1
  6
CONTINUOUS
 10
40.4530952938452231
 20
199.9334811816836464
 30
0.0
 11
48.4530952938452231
 21
199.9334811816836464
 31
0.0
  0
LINE
  5
184
100
AcDbEntity
100
AcDbLine
  8
FORT
 62
7
370
-1
  6
CONTINUOUS
 10
38.4530952938452231
 20
201.9334811816836464
 30
0.0
 11
50.4530952938452231
 21
201.9334811816836464
 31
0.0
  0
LINE
  5
185
100
AcDbEntity
100
AcDbLine
  8
FORT
 62
7
370
-1
  6
CONTINUOUS
 10
38.4530952938452231
 20
201.9334811816836464
 30
0.0
 11
40.4530952938452231
 21
199.9334811816836464
 31
0.0
  0
LINE
  5
186
100
AcDbEntity
100
AcDbLine
  8
FORT
 62
7
370
-1
  6
CONTINUOUS
 10
38.4530952938452231
 20
201.9334811816836464
 30
0.0
 11
38.4530952938452231
 21
204.6751381816836215
 31
0.0
  0
LINE
  5
187
100
AcDbEntity
100
AcDbLine
  8
FORT
 62
7
370
-1
  6
CONTINUOUS
 10
48.4530952938452231
 20
199.9334811816836464
 30
0.0
 11
50.4530952938452231
 21
201.9334811816836464
 31
0.0
  0
LINE
  5
188
100
AcDbEntity
100
AcDbLine
  8
FORT
 62
7
370
-1
  6
CONTINUOUS
 10
50.4530952938452231
 20
201.9334811816836464
 30
0.0
 11
50.4530952938452231
 21
204.6751381816836215
 31
0.0
  0
LINE
  5
189
100
AcDbEntity
100
AcDbLine
  8
FIN
 62
5
370
-1
  6
CONTINUOUS
 10
40.4530952938452231
 20
199.9334811816836464
 30
0.0
 11
40.4530952938452231
 21
206.7644331816836143
 31
0.0
  0
LINE
  5
18A
100
AcDbEntity
100
AcDbLine
  8
FIN
 62
5
370
-1
  6
CONTINUOUS
 10
48.4530952938452231
 20
199.9334811816836464
 30
0.0
 11
48.4530952938452231
 21
206.7644331816836143
 31
0.0
  0
LINE
  5
18B
100
AcDbEntity
100
AcDbLine
  8
FORT
 62
7
370
-1
  6
CONTINUOUS
 10
52.4530952938452231
 20
215.9334811816836464
 30
0.0
 11
54.229139293845229
 21
203.0379941816836435
 31
0.0
  0
LINE
  5
18C
100
AcDbEntity
100
AcDbLine
  8
FIN
 62
5
370
-1
  6
CONTINUOUS
 10
116.8963122938452273
 20
160.9334811816836464
 30
0.0
 11
111.8955242938452272
 21
192.242713181683655
 31
0.0
  0
LINE
  5
18D
100
AcDbEntity
100
AcDbLine
  8
FIN
 62
5
370
-1
  6
CONTINUOUS
 10
93.8963122938452273
 20
160.9334811816836464
 30
0.0
 11
89.8963122938452273
 21
185.9334811816836464
 31
0.0
  0
LINE
  5
18E
100
AcDbEntity
100
AcDbLine
  8
FORT
 62
7
370
-1
  6
CONTINUOUS
 10
93.8963122938452273
 20
160.9334811816836464
 30
0.0
 11
103.8963122938452273
 21
160.9334811816836464
 31
0.0
  0
LINE
  5
18F
100
AcDbEntity
100
AcDbLine
  8
FORT
 62
7
370
-1
  6
CONTINUOUS
 10
99.5028462938452236
 20
201.9334811816836464
 30
0.0
 11
111.5028462938452236
 21
201.9334811816836464
 31
0.0
  0
LINE
  5
190
100
AcDbEntity
100
AcDbLine
  8
FORT
 62
7
370
-1
  6
CONTINUOUS
 10
101.5028462938452236
 20
199.9334811816836464
 30
0.0
 11
109.5028462938452236
 21
199.9334811816836464
 31
0.0
  0
LINE
  5
191
100
AcDbEntity
100
AcDbLine
  8
FORT
 62
7
370
-1
  6
CONTINUOUS
 10
88.5028462938452236
 20
215.9334811816836464
 30
0.0
 11
88.5028462938452236
 21
190.9334811816836464
 31
0.0
  0
LINE
  5
192
100
AcDbEntity
100
AcDbLine
  8
FORT
 62
7
370
-1
  6
CONTINUOUS
 10
99.5028462938452236
 20
201.9334811816836464
 30
0.0
 11
101.5028462938452236
 21
199.9334811816836464
 31
0.0
  0
CIRCLE
  5
193
100
AcDbEntity
100
AcDbCircle
  8
FORT
 62
7
370
-1
  6
CONTINUOUS
 10
89.8963122938452273
 20
185.9334811816836464
 30
0.0
 40
0.25
  0
LINE
  5
194
100
AcDbEntity
100
AcDbLine
  8
FORT
 62
7
370
-1
  6
CONTINUOUS
 10
88.5028462938452236
 20
208.0045491816836147
 30
0.0
 11
99.5028462938452236
 21
208.0045491816836147
 31
0.0
  0
LINE
  5
195
100
AcDbEntity
100
AcDbLine
  8
FORT
 62
7
370
-1
  6
CONTINUOUS
 10
80.5028462938452236
 20
215.9334811816836464
 30
0.0
 11
99.5028462938452236
 21
215.9334811816836464
 31
0.0
  0
LINE
  5
196
100
AcDbEntity
100
AcDbLine
  8
FORT
 62
7
370
-1
  6
CONTINUOUS
 10
109.5028462938452236
 20
199.9334811816836464
 30
0.0
 11
111.5028462938452236
 21
201.9334811816836464
 31
0.0
  0
CIRCLE
  5
197
100
AcDbEntity
100
AcDbCircle
  8
FORT
 62
7
370
-1
  6
CONTINUOUS
 10
111.8955242938452272
 20
192.242713181683655
 30
0.0
 40
0.25
  0
LINE
  5
198
100
AcDbEntity
100
AcDbLine
  8
FORT
 62
7
370
-1
  6
CONTINUOUS
 10
25.4530952938452231
 20
225.9334811816836464
 30
0.0
 11
63.4530952938452231
 21
225.9334811816836464
 31
0.0
  0
LINE
  5
199
100
AcDbEntity
100
AcDbLine
  8
FORT
 62
7
370
-1
  6
CONTINUOUS
 10
56.9530952938452231
 20
245.9334811816836464
 30
0.0
 11
58.4530952938452231
 21
225.9334811816836464
 31
0.0
  0
LINE
  5
19A
100
AcDbEntity
100
AcDbLine
  8
FORT
 62
7
370
-1
  6
CONTINUOUS
 10
31.9530952938452231
 20
245.9334811816836464
 30
0.0
 11
56.9530952938452231
 21
245.9334811816836464
 31
0.0
  0
LINE
  5
19B
100
AcDbEntity
100
AcDbLine
  8
FORT
 62
7
370
-1
  6
CONTINUOUS
 10
30.4530952938452231
 20
225.9334811816836464
 30
0.0
 11
31.9530952938452231
 21
245.9334811816836464
 31
0.0
  0
LINE
  5
19C
100
AcDbEntity
100
AcDbLine
  8
FORT
 62
7
370
-1
  6
CONTINUOUS
 10
44.4530952938452231
 20
255.9334811816836464
 30
0.0
 11
44.4530952938452231
 21
253.9334811816836464
 31
0.0
  0
LINE
  5
19D
100
AcDbEntity
100
AcDbLine
  8
FORT
 62
7
370
-1
  6
CONTINUOUS
 10
44.4530952938452231
 20
252.9334811816836464
 30
0.0
 11
44.4530952938452231
 21
247.9334811816836464
 31
0.0
  0
LINE
  5
19E
100
AcDbEntity
100
AcDbLine
  8
FORT
 62
7
370
-1
  6
CONTINUOUS
 10
44.4530952938452231
 20
266.9334811816836464
 30
0.0
 11
44.4530952938452231
 21
256.9334811816836464
 31
0.0
  0
LINE
  5
19F
100
AcDbEntity
100
AcDbLine
  8
FORT
 62
7
370
-1
  6
CONTINUOUS
 10
44.4530952938452231
 20
262.2668151816836257
 30
0.0
 11
41.6530952938452259
 21
261.3334811816836236
 31
0.0
  0
LINE
  5
1A0
100
AcDbEntity
100
AcDbLine
  8
FORT
 62
7
370
-1
  6
CONTINUOUS
 10
35.0344842938452246
 20
262.2668151816836257
 30
0.0
 11
44.4530952938452231
 21
262.2668151816836257
 31
0.0
  0
LINE
  5
1A1
100
AcDbEntity
100
AcDbLine
  8
FORT
 62
7
370
-1
  6
CONTINUOUS
 10
44.4530952938452231
 20
262.2668151816836257
 30
0.0
 11
41.6530952938452259
 21
263.2001481816836304
 31
0.0
  0
LINE
  5
1A2
100
AcDbEntity
100
AcDbLine
  8
FORT
 62
7
370
-1
  6
CONTINUOUS
 10
93.0028462938452236
 20
245.9334811816836464
 30
0.0
 11
118.0028462938452236
 21
245.9334811816836464
 31
0.0
  0
LINE
  5
1A3
100
AcDbEntity
100
AcDbLine
  8
FORT
 62
7
370
-1
  6
CONTINUOUS
 10
97.5028462938452236
 20
226.9334811816836464
 30
0.0
 11
113.5028462938452236
 21
226.9334811816836464
 31
0.0
  0
LINE
  5
1A4
100
AcDbEntity
100
AcDbLine
  8
FORT
 62
7
370
-1
  6
CONTINUOUS
 10
99.5028462938452236
 20
223.9334811816836464
 30
0.0
 11
111.5028462938452236
 21
223.9334811816836464
 31
0.0
  0
LINE
  5
1A5
100
AcDbEntity
100
AcDbLine
  8
FORT
 62
7
370
-1
  6
CONTINUOUS
 10
99.5028462938452236
 20
234.9334811816836464
 30
0.0
 11
103.5028462938452236
 21
234.9334811816836464
 31
0.0
  0
LINE
  5
1A6
100
AcDbEntity
100
AcDbLine
  8
FORT
 62
7
370
-1
  6
CONTINUOUS
 10
91.5028462938452236
 20
225.9334811816836464
 30
0.0
 11
93.0028462938452236
 21
245.9334811816836464
 31
0.0
  0
LINE
  5
1A7
100
AcDbEntity
100
AcDbLine
  8
FORT
 62
7
370
-1
  6
CONTINUOUS
 10
80.5028462938452236
 20
225.9334811816836464
 30
0.0
 11
91.5028462938452236
 21
225.9334811816836464
 31
0.0
  0
ARC
  5
1A8
100
AcDbEntity
  8
FORT
 62
7
370
-1
  6
CONTINUOUS
100
AcDbCircle
 10
99.5028462938452236
 20
232.9334811816836464
 30
0.0
 40
2.0
100
AcDbArc
 50
90.0
 51
180.0
  0
LINE
  5
1A9
100
AcDbEntity
100
AcDbLine
  8
FORT
 62
7
370
-1
  6
CONTINUOUS
 10
107.5028462938452236
 20
234.9334811816836464
 30
0.0
 11
111.5028462938452236
 21
234.9334811816836464
 31
0.0
  0
LINE
  5
1AA
100
AcDbEntity
100
AcDbLine
  8
FORT
 62
7
370
-1
  6
CONTINUOUS
 10
103.5028462938452236
 20
230.9334811816836464
 30
0.0
 11
107.5028462938452236
 21
230.9334811816836464
 31
0.0
  0
LINE
  5
1AB
100
AcDbEntity
100
AcDbLine
  8
FORT
 62
7
370
-1
  6
CONTINUOUS
 10
103.5028462938452236
 20
234.9334811816836464
 30
0.0
 11
103.5028462938452236
 21
230.9334811816836464
 31
0.0
  0
LINE
  5
1AC
100
AcDbEntity
100
AcDbLine
  8
FORT
 62
7
370
-1
  6
CONTINUOUS
 10
107.5028462938452236
 20
230.9334811816836464
 30
0.0
 11
107.5028462938452236
 21
234.9334811816836464
 31
0.0
  0
ARC
  5
1AD
100
AcDbEntity
  8
FORT
 62
7
370
-1
  6
CONTINUOUS
100
AcDbCircle
 10
111.5028462938452236
 20
232.9334811816836464
 30
0.0
 40
2.0
100
AcDbArc
 50
360.0
 51
90.0
  0
LINE
  5
1AE
100
AcDbEntity
100
AcDbLine
  8
FIN
 62
5
370
-1
  6
CONTINUOUS
 10
101.5028462938452236
 20
223.9334811816836464
 30
0.0
 11
99.5028462938452236
 21
225.9334811816836464
 31
0.0
  0
LINE
  5
1AF
100
AcDbEntity
100
AcDbLine
  8
FIN
 62
5
370
-1
  6
CONTINUOUS
 10
109.5028462938452236
 20
223.9334811816836464
 30
0.0
 11
111.5028462938452236
 21
225.9334811816836464
 31
0.0
  0
LINE
  5
1B0
100
AcDbEntity
100
AcDbLine
  8
FORT
 62
7
370
-1
  6
CONTINUOUS
 10
147.5028462938452378
 20
226.9334811816836464
 30
0.0
 11
147.5028462938452378
 21
201.9334811816836464
 31
0.0
  0
LINE
  5
1B1
100
AcDbEntity
100
AcDbLine
  8
FORT
 62
7
370
-1
  6
CONTINUOUS
 10
135.5028462938452378
 20
226.9334811816836464
 30
0.0
 11
135.5028462938452378
 21
201.9334811816836464
 31
0.0
  0
LINE
  5
1B2
100
AcDbEntity
100
AcDbLine
  8
FORT
 62
7
370
-1
  6
CONTINUOUS
 10
133.5028462938452378
 20
245.9334811816836464
 30
0.0
 11
133.5028462938452378
 21
215.9334811816836464
 31
0.0
  0
LINE
  5
1B3
100
AcDbEntity
100
AcDbLine
  8
FORT
 62
7
370
-1
  6
CONTINUOUS
 10
149.5028462938452378
 20
245.9334811816836464
 30
0.0
 11
149.5028462938452378
 21
215.9334811816836464
 31
0.0
  0
LINE
  5
1B4
100
AcDbEntity
100
AcDbLine
  8
FORT
 62
7
370
-1
  6
CONTINUOUS
 10
166.5028462938452378
 20
180.9334811816836464
 30
0.0
 11
166.5028462938452378
 21
225.9334811816836464
 31
0.0
  0
LINE
  5
1B5
100
AcDbEntity
100
AcDbLine
  8
FIN
 62
5
370
-1
  6
CONTINUOUS
 10
145.5028462938452378
 20
199.9334811816836464
 30
0.0
 11
145.5028462938452378
 21
223.9334811816836464
 31
0.0
  0
LINE
  5
1B6
100
AcDbEntity
100
AcDbLine
  8
FIN
 62
5
370
-1
  6
CONTINUOUS
 10
137.5028462938452378
 20
199.9334811816836464
 30
0.0
 11
137.5028462938452378
 21
223.9334811816836464
 31
0.0
  0
LINE
  5
1B7
100
AcDbEntity
100
AcDbLine
  8
FIN
 62
5
370
-1
  6
CONTINUOUS
 10
170.4030732938452104
 20
172.1631741816836438
 30
0.0
 11
192.0422922938452359
 21
172.1631741816836438
 31
0.0
  0
LINE
  5
1B8
100
AcDbEntity
100
AcDbLine
  8
FIN
 62
5
370
-1
  6
CONTINUOUS
 10
139.8963122938452273
 20
160.9334811816836464
 30
0.0
 11
138.8963122938452273
 21
204.9334811816836464
 31
0.0
  0
LINE
  5
1B9
100
AcDbEntity
100
AcDbLine
  8
FIN
 62
5
370
-1
  6
CONTINUOUS
 10
175.5905572938452508
 20
196.9318271816836159
 30
0.0
 11
170.4030732938452104
 21
172.1631741816836438
 31
0.0
  0
LINE
  5
1BA
100
AcDbEntity
100
AcDbLine
  8
FORT
 62
7
370
-1
  6
CONTINUOUS
 10
139.8963122938452273
 20
160.9334811816836464
 30
0.0
 11
149.8963122938452273
 21
160.9334811816836464
 31
0.0
  0
LINE
  5
1BB
100
AcDbEntity
100
AcDbLine
  8
FORT
 62
7
370
-1
  6
CONTINUOUS
 10
147.5028462938452378
 20
215.9334811816836464
 30
0.0
 11
166.5028462938452378
 21
215.9334811816836464
 31
0.0
  0
LINE
  5
1BC
100
AcDbEntity
100
AcDbLine
  8
FORT
 62
7
370
-1
  6
CONTINUOUS
 10
147.5028462938452378
 20
208.0045491816836147
 30
0.0
 11
158.5028462938452378
 21
208.0045491816836147
 31
0.0
  0
LINE
  5
1BD
100
AcDbEntity
100
AcDbLine
  8
FORT
 62
7
370
-1
  6
CONTINUOUS
 10
145.5028462938452378
 20
199.9334811816836464
 30
0.0
 11
147.5028462938452378
 21
201.9334811816836464
 31
0.0
  0
LINE
  5
1BE
100
AcDbEntity
100
AcDbLine
  8
FORT
 62
7
370
-1
  6
CONTINUOUS
 10
135.5028462938452378
 20
201.9334811816836464
 30
0.0
 11
137.5028462938452378
 21
199.9334811816836464
 31
0.0
  0
LINE
  5
1BF
100
AcDbEntity
100
AcDbLine
  8
FORT
 62
7
370
-1
  6
CONTINUOUS
 10
137.5028462938452378
 20
199.9334811816836464
 30
0.0
 11
145.5028462938452378
 21
199.9334811816836464
 31
0.0
  0
LINE
  5
1C0
100
AcDbEntity
100
AcDbLine
  8
FORT
 62
7
370
-1
  6
CONTINUOUS
 10
135.5028462938452378
 20
201.9334811816836464
 30
0.0
 11
147.5028462938452378
 21
201.9334811816836464
 31
0.0
  0
CIRCLE
  5
1C1
100
AcDbEntity
100
AcDbCircle
  8
FORT
 62
7
370
-1
  6
CONTINUOUS
 10
138.8963122938452273
 20
204.9334811816836464
 30
0.0
 40
0.25
  0
LINE
  5
1C2
100
AcDbEntity
100
AcDbLine
  8
FORT
 62
7
370
-1
  6
CONTINUOUS
 10
158.5028462938452378
 20
190.9334811816836464
 30
0.0
 11
158.5028462938452378
 21
215.9334811816836464
 31
0.0
  0
CIRCLE
  5
1C3
100
AcDbEntity
100
AcDbCircle
  8
FORT
 62
7
370
-1
  6
CONTINUOUS
 10
175.5905572938452508
 20
196.9318271816836159
 30
0.0
 40
0.25
  0
LWPOLYLINE
  5
1C4
  8
FIN
 62
5
370
-1
  6
CONTINUOUS
100
AcDbEntity
100
AcDbPolyline
 90
7
 70
0
 10
189.8963122938452273
 20
202.9334811816836464
 10
188.9374302938452104
 20
200.6569661816836287
 10
188.4970632938452297
 20
198.4551311816836119
 10
188.7172472938452472
 20
196.3633881816836038
 10
189.8181642938452285
 20
194.2716451816836525
 10
190.2585312938452091
 20
192.620269181683625
 10
189.8963122938452273
 20
190.9334811816836464
  0
LINE
  5
1C5
100
AcDbEntity
100
AcDbLine
  8
FORT
 62
7
370
-1
  6
CONTINUOUS
 10
127.5028462938452378
 20
225.9334811816836464
 30
0.0
 11
129.0028462938452378
 21
245.9334811816836464
 31
0.0
  0
LINE
  5
1C6
100
AcDbEntity
100
AcDbLine
  8
FORT
 62
7
370
-1
  6
CONTINUOUS
 10
119.5028462938452378
 20
225.9334811816836464
 30
0.0
 11
127.5028462938452378
 21
225.9334811816836464
 31
0.0
  0
LINE
  5
1C7
100
AcDbEntity
100
AcDbLine
  8
FORT
 62
7
370
-1
  6
CONTINUOUS
 10
129.0028462938452378
 20
245.9334811816836464
 30
0.0
 11
154.0028462938452378
 21
245.9334811816836464
 31
0.0
  0
LINE
  5
1C8
100
AcDbEntity
100
AcDbLine
  8
FORT
 62
7
370
-1
  6
CONTINUOUS
 10
133.5028462938452378
 20
226.9334811816836464
 30
0.0
 11
149.5028462938452378
 21
226.9334811816836464
 31
0.0
  0
ARC
  5
1C9
100
AcDbEntity
  8
FORT
 62
7
370
-1
  6
CONTINUOUS
100
AcDbCircle
 10
147.5028462938452378
 20
232.9334811816836464
 30
0.0
 40
2.0
100
AcDbArc
 50
360.0
 51
90.0
  0
LINE
  5
1CA
100
AcDbEntity
100
AcDbLine
  8
FORT
 62
7
370
-1
  6
CONTINUOUS
 10
135.5028462938452378
 20
223.9334811816836464
 30
0.0
 11
147.5028462938452378
 21
223.9334811816836464
 31
0.0
  0
ARC
  5
1CB
100
AcDbEntity
  8
FORT
 62
7
370
-1
  6
CONTINUOUS
100
AcDbCircle
 10
135.5028462938452378
 20
232.9334811816836464
 30
0.0
 40
2.0
100
AcDbArc
 50
90.0
 51
180.0
  0
LINE
  5
1CC
100
AcDbEntity
100
AcDbLine
  8
FORT
 62
7
370
-1
  6
CONTINUOUS
 10
143.5028462938452378
 20
234.9334811816836464
 30
0.0
 11
147.5028462938452378
 21
234.9334811816836464
 31
0.0
  0
LINE
  5
1CD
100
AcDbEntity
100
AcDbLine
  8
FORT
 62
7
370
-1
  6
CONTINUOUS
 10
143.5028462938452378
 20
230.9334811816836464
 30
0.0
 11
143.5028462938452378
 21
234.9334811816836464
 31
0.0
  0
LINE
  5
1CE
100
AcDbEntity
100
AcDbLine
  8
FORT
 62
7
370
-1
  6
CONTINUOUS
 10
139.5028462938452378
 20
230.9334811816836464
 30
0.0
 11
143.5028462938452378
 21
230.9334811816836464
 31
0.0
  0
LINE
  5
1CF
100
AcDbEntity
100
AcDbLine
  8
FORT
 62
7
370
-1
  6
CONTINUOUS
 10
139.5028462938452378
 20
234.9334811816836464
 30
0.0
 11
139.5028462938452378
 21
230.9334811816836464
 31
0.0
  0
LINE
  5
1D0
100
AcDbEntity
100
AcDbLine
  8
FORT
 62
7
370
-1
  6
CONTINUOUS
 10
135.5028462938452378
 20
234.9334811816836464
 30
0.0
 11
139.5028462938452378
 21
234.9334811816836464
 31
0.0
  0
LINE
  5
1D1
100
AcDbEntity
100
AcDbLine
  8
FORT
 62
7
370
-1
  6
CONTINUOUS
 10
154.0028462938452378
 20
245.9334811816836464
 30
0.0
 11
155.5028462938452378
 21
225.9334811816836464
 31
0.0
  0
LINE
  5
1D2
100
AcDbEntity
100
AcDbLine
  8
FORT
 62
7
370
-1
  6
CONTINUOUS
 10
155.5028462938452378
 20
225.9334811816836464
 30
0.0
 11
166.5028462938452378
 21
225.9334811816836464
 31
0.0
  0
LINE
  5
1D3
100
AcDbEntity
100
AcDbLine
  8
FIN
 62
5
370
-1
  6
CONTINUOUS
 10
145.5028462938452378
 20
223.9334811816836464
 30
0.0
 11
147.5028462938452378
 21
225.9334811816836464
 31
0.0
  0
LINE
  5
1D4
100
AcDbEntity
100
AcDbLine
  8
FIN
 62
5
370
-1
  6
CONTINUOUS
 10
137.5028462938452378
 20
223.9334811816836464
 30
0.0
 11
135.5028462938452378
 21
225.9334811816836464
 31
0.0
  0
MTEXT
  5
1D5
100
AcDbEntity
100
AcDbMText
  8
TEXTE M
 62
256
370
-1
  6
ByLayer
 10
43.1711812938452226
 20
152.2320921816836403
 30
0.0
 40
5.0
 41
100.0
 71
7
 72
2
  1
A
  7
ISO9
 50
0.0
 73
1
 44
1.0
  0
MTEXT
  5
1D6
100
AcDbEntity
100
AcDbMText
  8
TEXTE M
 62
256
370
-1
  6
ByLayer
 10
98.2263572938452256
 20
162.7386171816836509
 30
0.0
 40
5.0
 41
100.0
 71
7
 72
2
  1
1
  7
ISO9
 50
0.0
 73
1
 44
1.0
  0
MTEXT
  5
1D7
100
AcDbEntity
100
AcDbMText
  8
TEXTE M
 62
256
370
-1
  6
ByLayer
 10
43.1711812938452226
 20
269.6348701816836524
 30
0.0
 40
5.0
 41
100.0
 71
7
 72
2
  1
A
  7
ISO9
 50
0.0
 73
1
 44
1.0
  0
MTEXT
  5
1D8
100
AcDbEntity
100
AcDbMText
  8
TEXTE M
 62
256
370
-1
  6
ByLayer
 10
121.2263572938452114
 20
162.7386171816836509
 30
0.0
 40
5.0
 41
100.0
 71
7
 72
2
  1
2
  7
ISO9
 50
0.0
 73
1
 44
1.0
  0
MTEXT
  5
1D9
100
AcDbEntity
100
AcDbMText
  8
TEXTE M
 62
256
370
-1
  6
ByLayer
 10
144.2263572938452114
 20
162.7386171816836509
 30
0.0
 40
5.0
 41
100.0
 71
7
 72
2
  1
3
  7
ISO9
 50
0.0
 73
1
 44
1.0
  0
MTEXT
  5
1DA
100
AcDbEntity
100
AcDbMText
  8
TEXTE M
 62
256
370
-1
  6
ByLayer
 10
118.7860542938452255
 20
259.6386171816836281
 30
0.0
 40
5.0
 41
100.0
 71
7
 72
2
  1
A-A
  7
ISO9
 50
0.0
 73
1
 44
1.0
  0
LINE
  5
1DB
100
AcDbEntity
100
AcDbLine
  8
AXE
 62
256
370
-1
  6
ByLayer
 10
105.5028462938452236
 20
147.154846181683638
 30
0.0
 11
105.5028462938452236
 21
89.1548461816836237
 31
0.0
  0
LINE
  5
1DC
100
AcDbEntity
100
AcDbLine
  8
AXE
 62
256
370
-1
  6
ByLayer
 10
141.5028462938452378
 20
147.154846181683638
 30
0.0
 11
141.5028462938452378
 21
89.1548461816836237
 31
0.0
  0
LINE
  5
1DD
100
AcDbEntity
100
AcDbLine
  8
AXE
 62
256
370
-1
  6
ByLayer
 10
71.8963122938452273
 20
119.1548461816836237
 30
0.0
 11
175.8963122938452273
 21
119.1548461816836237
 31
0.0
  0
LINE
  5
1DE
100
AcDbEntity
100
AcDbLine
  8
AXE
 62
256
370
-1
  6
ByLayer
 10
75.6520372938452255
 20
200.9334811816836464
 30
0.0
 11
175.3883002938452194
 21
200.9334811816836464
 31
0.0
  0
LINE
  5
1DF
100
AcDbEntity
100
AcDbLine
  8
AXE
 62
256
370
-1
  6
ByLayer
 10
105.5028462938452236
 20
255.9334811816836464
 30
0.0
 11
105.5028462938452236
 21
172.9334811816836464
 31
0.0
  0
LINE
  5
1E0
100
AcDbEntity
100
AcDbLine
  8
AXE
 62
256
370
-1
  6
ByLayer
 10
44.4530952938452231
 20
178.9334811816836464
 30
0.0
 11
44.4530952938452231
 21
247.9334811816836464
 31
0.0
  0
LINE
  5
1E1
100
AcDbEntity
100
AcDbLine
  8
AXE
 62
256
370
-1
  6
ByLayer
 10
18.2803892938452179
 20
200.9334811816836464
 30
0.0
 11
68.79042029384523
 21
200.9334811816836464
 31
0.0
  0
LINE
  5
1E2
100
AcDbEntity
100
AcDbLine
  8
AXE
 62
256
370
-1
  6
ByLayer
 10
141.5028462938452378
 20
255.9334811816836464
 30
0.0
 11
141.5028462938452378
 21
173.9334811816836464
 31
0.0
  0
LINE
  5
1E3
100
AcDbEntity
100
AcDbLine
  8
FIN
 62
256
370
-1
  6
ByLayer
 10
190.0
 20
203.0
 30
0.0
 11
183.0
 21
203.0
 31
0.0
  0
LINE
  5
1E4
100
AcDbEntity
100
AcDbLine
  8
FIN
 62
256
370
-1
  6
ByLayer
 10
182.0
 20
203.0
 30
0.0
 11
180.0
 21
203.0
 31
0.0
  0
LINE
  5
1E5
100
AcDbEntity
100
AcDbLine
  8
FIN
 62
256
370
-1
  6
ByLayer
 10
179.0
 20
203.0
 30
0.0
 11
177.0
 21
203.0
 31
0.0
  0
LINE
  5
1E6
100
AcDbEntity
100
AcDbLine
  8
FIN
 62
256
370
-1
  6
ByLayer
 10
174.0
 20
191.0
 30
0.0
 11
176.0
 21
191.0
 31
0.0
  0
LINE
  5
1E7
100
AcDbEntity
100
AcDbLine
  8
FIN
 62
256
370
-1
  6
ByLayer
 10
177.0
 20
191.0
 30
0.0
 11
179.0
 21
191.0
 31
0.0
  0
LINE
  5
1E8
100
AcDbEntity
100
AcDbLine
  8
FIN
 62
256
370
-1
  6
ByLayer
 10
180.0
 20
191.0
 30
0.0
 11
190.0
 21
191.0
 31
0.0
  0
LINE
  5
1E9
100
AcDbEntity
100
AcDbLine
  8
FIN
 62
256
370
-1
  6
ByLayer
 10
126.0
 20
200.0
 30
0.0
 11
126.0
 21
194.0
 31
0.0
  0
LINE
  5
1EA
100
AcDbEntity
100
AcDbLine
  8
FIN
 62
256
370
-1
  6
ByLayer
 10
126.0
 20
200.0
 30
0.0
 11
129.0
 21
200.0
 31
0.0
  0
LINE
  5
1EB
100
AcDbEntity
100
AcDbLine
  8
FIN
 62
256
370
-1
  6
ByLayer
 10
130.0
 20
200.0
 30
0.0
 11
132.0
 21
200.0
 31
0.0
  0
LINE
  5
1EC
100
AcDbEntity
100
AcDbLine
  8
FIN
 62
256
370
-1
  6
ByLayer
 10
133.0
 20
200.0
 30
0.0
 11
135.0
 21
200.0
 31
0.0
  0
LINE
  5
1ED
100
AcDbEntity
100
AcDbLine
  8
FIN
 62
256
370
-1
  6
ByLayer
 10
176.0
 20
203.0
 30
0.0
 11
158.5028462938452378
 21
203.0
 31
0.0
  0
LINE
  5
1EE
100
AcDbEntity
100
AcDbLine
  8
FIN
 62
256
370
-1
  6
ByLayer
 10
166.5028462938452378
 20
191.0
 30
0.0
 11
173.0
 21
191.0
 31
0.0
  0
LINE
  5
1EF
100
AcDbEntity
100
AcDbLine
  8
FIN
 62
256
370
-1
  6
ByLayer
 10
136.0
 20
200.0
 30
0.0
 11
158.5028462938452378
 21
200.0
 31
0.0
  0
LINE
  5
1F0
100
AcDbEntity
100
AcDbLine
  8
TEXTE M
 62
256
370
-1
  6
ByLayer
 10
177.0082765160674683
 20
179.6386171816836281
 30
0.0
 11
175.897165404956354
 21
179.6386171816836281
 31
0.0
  0
ARC
  5
1F1
100
AcDbEntity
  8
TEXTE M
 62
256
370
-1
  6
ByLayer
100
AcDbCircle
 10
175.897165404956354
 20
178.5275060705725139
 30
0.0
 40
1.1111111111111112
100
AcDbArc
 50
90.0
 51
180.0
  0
LINE
  5
1F2
100
AcDbEntity
100
AcDbLine
  8
TEXTE M
 62
256
370
-1
  6
ByLayer
 10
174.7860542938452397
 20
178.5275060705725139
 30
0.0
 11
174.7860542938452397
 21
175.7497282927947424
 31
0.0
  0
ARC
  5
1F3
100
AcDbEntity
  8
TEXTE M
 62
256
370
-1
  6
ByLayer
100
AcDbCircle
 10
175.897165404956354
 20
175.7497282927947424
 30
0.0
 40
1.1111111111111112
100
AcDbArc
 50
180.0
 51
270.0
  0
LINE
  5
1F4
100
AcDbEntity
100
AcDbLine
  8
TEXTE M
 62
256
370
-1
  6
ByLayer
 10
175.897165404956354
 20
174.6386171816836281
 30
0.0
 11
177.0082765160674683
 21
174.6386171816836281
 31
0.0
  0
LINE
  5
1F5
100
AcDbEntity
100
AcDbLine
  8
TEXTE M
 62
256
370
-1
  6
ByLayer
 10
178.9527209605118969
 20
177.9719505150169709
 30
0.0
 11
180.0638320716230112
 21
177.9719505150169709
 31
0.0
  0
ARC
  5
1F6
100
AcDbEntity
  8
TEXTE M
 62
256
370
-1
  6
ByLayer
100
AcDbCircle
 10
180.0638320716230112
 20
177.1386171816836281
 30
0.0
 40
0.8333333333333334
100
AcDbArc
 50
0.0
 51
90.0
  0
LINE
  5
1F7
100
AcDbEntity
100
AcDbLine
  8
TEXTE M
 62
256
370
-1
  6
ByLayer
 10
180.897165404956354
 20
177.1386171816836281
 30
0.0
 11
180.897165404956354
 21
174.6386171816836281
 31
0.0
  0
LINE
  5
1F8
100
AcDbEntity
100
AcDbLine
  8
TEXTE M
 62
256
370
-1
  6
ByLayer
 10
180.897165404956354
 20
174.6386171816836281
 30
0.0
 11
179.5082765160674683
 21
174.6386171816836281
 31
0.0
  0
ARC
  5
1F9
100
AcDbEntity
  8
TEXTE M
 62
256
370
-1
  6
ByLayer
100
AcDbCircle
 10
179.5082765160674683
 20
175.4719505150169709
 30
0.0
 40
0.8333333333333334
100
AcDbArc
 50
90.0
 51
270.0
  0
LINE
  5
1FA
100
AcDbEntity
100
AcDbLine
  8
TEXTE M
 62
256
370
-1
  6
ByLayer
 10
179.5082765160674683
 20
176.3052838483502853
 30
0.0
 11
180.897165404956354
 21
176.3052838483502853
 31
0.0
  0
LINE
  5
1FB
100
AcDbEntity
100
AcDbLine
  8
TEXTE M
 62
256
370
-1
  6
ByLayer
 10
182.5638320716230112
 20
179.6386171816836281
 30
0.0
 11
182.5638320716230112
 21
174.6386171816836281
 31
0.0
  0
LINE
  5
1FC
100
AcDbEntity
100
AcDbLine
  8
TEXTE M
 62
256
370
-1
  6
ByLayer
 10
182.5638320716230112
 20
174.6386171816836281
 30
0.0
 11
183.9527209605118969
 21
174.6386171816836281
 31
0.0
  0
ARC
  5
1FD
100
AcDbEntity
  8
TEXTE M
 62
256
370
-1
  6
ByLayer
100
AcDbCircle
 10
183.9527209605118969
 20
175.4719505150169709
 30
0.0
 40
0.8333333333333334
100
AcDbArc
 50
270.0
 51
0.0
  0
LINE
  5
1FE
100
AcDbEntity
100
AcDbLine
  8
TEXTE M
 62
256
370
-1
  6
ByLayer
 10
184.7860542938452397
 20
175.4719505150169709
 30
0.0
 11
184.7860542938452397
 21
177.1386171816836281
 31
0.0
  0
ARC
  5
1FF
100
AcDbEntity
  8
TEXTE M
 62
256
370
-1
  6
ByLayer
100
AcDbCircle
 10
183.9527209605118969
 20
177.1386171816836281
 30
0.0
 40
0.8333333333333334
100
AcDbArc
 50
0.0
 51
90.0
  0
LINE
  5
200
100
AcDbEntity
100
AcDbLine
  8
TEXTE M
 62
256
370
-1
  6
ByLayer
 10
183.9527209605118969
 20
177.9719505150169709
 30
0.0
 11
182.5638320716230112
 21
177.9719505150169709
 31
0.0
  0
LINE
  5
201
100
AcDbEntity
100
AcDbLine
  8
TEXTE M
 62
256
370
-1
  6
ByLayer
 10
186.4527209605118969
 20
179.6386171816836281
 30
0.0
 11
186.4527209605118969
 21
175.1941727372391711
 31
0.0
  0
ARC
  5
202
100
AcDbEntity
  8
TEXTE M
 62
256
370
-1
  6
ByLayer
100
AcDbCircle
 10
187.0082765160674398
 20
175.1941727372391711
 30
0.0
 40
0.5555555555555556
100
AcDbArc
 50
180.0
 51
270.0
  0
LINE
  5
203
100
AcDbEntity
100
AcDbLine
  8
TEXTE M
 62
256
370
-1
  6
ByLayer
 10
188.6749431827341255
 20
176.3052838483502853
 30
0.0
 11
190.897165404956354
 21
176.3052838483502853
 31
0.0
  0
LINE
  5
204
100
AcDbEntity
100
AcDbLine
  8
TEXTE M
 62
256
370
-1
  6
ByLayer
 10
190.897165404956354
 20
176.3052838483502853
 30
0.0
 11
190.897165404956354
 21
176.8608394039058567
 31
0.0
  0
ARC
  5
205
100
AcDbEntity
  8
TEXTE M
 62
256
370
-1
  6
ByLayer
100
AcDbCircle
 10
189.7860542938452397
 20
176.8608394039058567
 30
0.0
 40
1.1111111111111112
100
AcDbArc
 50
0.0
 51
180.0
  0
LINE
  5
206
100
AcDbEntity
100
AcDbLine
  8
TEXTE M
 62
256
370
-1
  6
ByLayer
 10
188.6749431827341255
 20
176.8608394039058567
 30
0.0
 11
188.6749431827341255
 21
175.4719505150169709
 31
0.0
  0
ARC
  5
207
100
AcDbEntity
  8
TEXTE M
 62
256
370
-1
  6
ByLayer
100
AcDbCircle
 10
189.5082765160674683
 20
175.4719505150169709
 30
0.0
 40
0.8333333333333334
100
AcDbArc
 50
180.0
 51
270.0
  0
LINE
  5
208
100
AcDbEntity
100
AcDbLine
  8
TEXTE M
 62
256
370
-1
  6
ByLayer
 10
189.5082765160674683
 20
174.6386171816836281
 30
0.0
 11
190.897165404956354
 21
174.6386171816836281
 31
0.0
  0
LINE
  5
209
100
AcDbEntity
100
AcDbLine
  8
FORT
 62
256
370
-1
  6
ByLayer
 10
178.8954406533387953
 20
179.0072969105209495
 30
0.0
 11
179.8275761298567943
 21
179.7157198726746401
 31
0.0
  0
LINE
  5
20A
100
AcDbEntity
100
AcDbLine
  8
FORT
 62
256
370
-1
  6
ByLayer
 10
179.8275761298567943
 20
179.7157198726746401
 30
0.0
 11
180.7224261873141131
 21
179.0445823295816581
 31
0.0
  0
MTEXT
  5
20B
100
AcDbEntity
100
AcDbMText
  8
TEXTE P
 62
256
370
-1
  6
ByLayer
 10
113.979670098360657
 20
54.0
 30
0.0
 40
3.5
 41
100.0
 71
7
 72
2
  1
Poly\U+00e9thyl\U+00e8ne
  7
normallatin1
 50
0.0
 73
0
 44
1.0
  0
ENDSEC
  0
SECTION
  2
OBJECTS
  0
DICTIONARY
  5
C
100
AcDbDictionary
280
0
281
1
  3
ACAD_GROUP
350
D
  3
ACAD_LAYOUT
350
1A
  3
ACAD_MLINESTYLE
350
17
  3
ACAD_PLOTSETTINGS
350
19
  3
ACAD_PLOTSTYLENAME
350
E
  3
AcDbVariableDictionary
350
20C
  0
DICTIONARY
  5
D
100
AcDbDictionary
280
0
281
1
  0
ACDBDICTIONARYWDFLT
  5
E
100
AcDbDictionary
281
1
  3
Normal
350
F
100
AcDbDictionaryWithDefault
340
F
  0
ACDBPLACEHOLDER
  5
F
  0
DICTIONARY
  5
17
100
AcDbDictionary
280
0
281
1
  3
Standard
350
18
  0
MLINESTYLE
  5
18
100
AcDbMlineStyle
  2
STANDARD
 70
0
  3

 62
256
 51
90.0
 52
90.0
 71
2
 49
0.5
 62
256
  6
BYLAYER
 49
-0.5
 62
256
  6
BYLAYER
  0
DICTIONARY
  5
19
100
AcDbDictionary
280
0
281
1
  0
DICTIONARY
  5
1A
100
AcDbDictionary
281
1
  3
Layout1
350
1E
  3
Layout2
350
26
  3
Model
350
22
  0
LAYOUT
  5
1E
100
AcDbPlotSettings
  1

  2
C:\Program Files\AutoCAD 2002\plotters\DWF ePlot (optimized for plotting).pc3
  4

  6

 40
0.0
 41
0.0
 42
0.0
 43
0.0
 44
0.0
 45
0.0
 46
0.0
 47
0.0
 48
0.0
 49
0.0
140
0.0
141
0.0
142
1.0
143
1.0
 70
688
 72
0
 73
0
 74
5
  7

 75
16
147
1.0
148
0.0
149
0.0
100
AcDbLayout
  1
Layout1
 70
1
 71
1
 10
0.0
 20
0.0
 11
420.0
 21
297.0
 12
0.0
 22
0.0
 32
0.0
 14
100000000000000000000.0
 24
100000000000000000000.0
 34
100000000000000000000.0
 15
-100000000000000000000.0
 25
-100000000000000000000.0
 35
-100000000000000000000.0
146
0.0
 13
0.0
 23
0.0
 33
0.0
 16
1.0
 26
0.0
 36
0.0
 17
0.0
 27
1.0
 37
0.0
 76
0
330
1B
  0
LAYOUT
  5
22
100
AcDbPlotSettings
  1

  2
C:\Program Files\AutoCAD 2002\plotters\DWF ePlot (optimized for plotting).pc3
  4

  6

 40
0.0
 41
0.0
 42
0.0
 43
0.0
 44
0.0
 45
0.0
 46
0.0
 47
0.0
 48
0.0
 49
0.0
140
0.0
141
0.0
142
1.0
143
1.0
 70
1712
 72
0
 73
0
 74
0
  7

 75
0
147
1.0
148
0.0
149
0.0
100
AcDbLayout
  1
Model
 70
1
 71
0
 10
0.0
 20
0.0
 11
12.0
 21
9.0
 12
0.0
 22
0.0
 32
0.0
 14
0.0
 24
0.0
 34
0.0
 15
0.0
 25
0.0
 35
0.0
146
0.0
 13
0.0
 23
0.0
 33
0.0
 16
1.0
 26
0.0
 36
0.0
 17
0.0
 27
1.0
 37
0.0
 76
0
330
1F
  0
LAYOUT
  5
26
100
AcDbPlotSettings
  1

  2
C:\Program Files\AutoCAD 2002\plotters\DWF ePlot (optimized for plotting).pc3
  4

  6

 40
0.0
 41
0.0
 42
0.0
 43
0.0
 44
0.0
 45
0.0
 46
0.0
 47
0.0
 48
0.0
 49
0.0
140
0.0
141
0.0
142
1.0
143
1.0
 70
688
 72
0
 73
0
 74
5
  7

 75
16
147
1.0
148
0.0
149
0.0
100
AcDbLayout
  1
Layout2
 70
1
 71
2
 10
0.0
 20
0.0
 11
12.0
 21
9.0
 12
0.0
 22
0.0
 32
0.0
 14
0.0
 24
0.0
 34
0.0
 15
0.0
 25
0.0
 35
0.0
146
0.0
 13
0.0
 23
0.0
 33
0.0
 16
1.0
 26
0.0
 36
0.0
 17
0.0
 27
1.0
 37
0.0
 76
0
330
23
  0
DICTIONARY
  5
20C
100
AcDbDictionary
281
1
  3
DIMASSOC
350
20E
  3
HIDETEXT
350
20D
  0
DICTIONARYVAR
  5
20D
100
DictionaryVariables
280
0
  1
2
  0
DICTIONARYVAR
  5
20E
100
DictionaryVariables
280
0
  1
1
  0
ENDSEC
  0
EOF
