999
dxflib 2.0.4.8
  0
SECTION
  2
HEADER
  9
$ACADVER
  1
AC1015
  9
$HANDSEED
  5
FFFF
  9
$DIMTAD
 70
0
  9
$AXISUNIT
 10
0.0
 20
0.0
 30
0.0
  9
$USERR4
 40
0.0
  9
$VIEWSIZE
 40
9.0
  9
$SNAPBASE
 10
0.0
 20
0.0
 30
0.0
  9
$CLAYER
  8
FORT
  9
$MENU
  1
acad
  9
$VIEWDIR
 10
0.0
 20
0.0
 30
1.0
  9
$CHAMFERA
 40
10.0
  9
$ATTREQ
 70
1
  9
$USERR5
 40
0.0
  9
$EXTMIN
 10
0.0
 20
0.0
 30
0.0
  9
$ORTHOMODE
 70
0
  9
$REGENMODE
 70
1
  9
$TRACEWID
 40
0.05
  9
$CHAMFERB
 40
10.0
  9
$DIMADEC
 70
0
  9
$GRIDUNIT
 10
0.0
 20
0.0
  9
$DIMASZ
 40
0.18
  9
$SNAPSTYLE
 70
0
  9
$DIMSHO
 70
1
  9
$DIMALT
 70
0
  9
$SKETCHINC
 40
0.1
  9
$USRTIMER
 70
1
  9
$ANGBASE
 50
0.0
  9
$DIMGAP
 40
0.625
  9
$LIMMIN
 10
0.0
 20
-4.592784
  9
$DIMTSZ
 40
0.0
  9
$AXISMODE
 70
0
  9
$SPLFRAME
 70
0
  9
$BLIPMODE
 70
1
  9
$LUNITS
 70
2
  9
$AUPREC
 70
0
  9
$SPLINESEGS
 70
10
  9
$INSBASE
 10
0.0
 20
0.0
 30
0.0
  9
$DIMRND
 40
0.0
  9
$DIMCEN
 40
0.09
  9
$ELEVATION
 40
0.0
  9
$SKPOLY
 70
0
  9
$USERI1
 70
0
  9
$EXTMAX
 10
210.0
 20
297.0
 30
0.0
  9
$FILLMODE
 70
1
  9
$DRAGMODE
 70
2
  9
$TEXTSIZE
 40
0.2
  9
$USERI2
 70
0
  9
$INSUNITS
 70
4
  9
$DIMEXO
 40
0.0625
  9
$VIEWCTR
 10
6.0
 20
4.5
  9
$DIMSCALE
 40
1.0
  9
$DIMDLE
 40
0.0
  9
$DIMZIN
 70
0
  9
$TDUSRTIMER
 40
0.0
  9
$ANGDIR
 70
0
  9
$USERI3
 70
0
  9
$LIMMAX
 10
490.6569349999999758
 20
301.5927839999999946
  9
$QTEXTMODE
 70
0
  9
$OSMODE
 70
0
  9
$USERI4
 70
0
  9
$DIMLUNIT
 70
2
  9
$ATTMODE
 70
1
  9
$DIMLIM
 70
0
  9
$DIMSE1
 70
0
  9
$THICKNESS
 40
0.0
  9
$LIMCHECK
 70
0
  9
$FASTZOOM
 70
1
  9
$PDMODE
 70
0
  9
$USERI5
 70
0
  9
$DIMTXT
 40
0.18
  9
$GRIDMODE
 70
1
  9
$CELTYPE
  6
CONTINUOUS
  9
$DIMTOH
 70
1
  9
$DIMSE2
 70
0
  9
$DIMLFAC
 40
1.0
  9
$TDINDWG
 40
0.0
  9
$LUPREC
 70
4
  9
$SNAPMODE
 70
0
  9
$SNAPANG
 50
0.0
  9
$CECOLOR
 62
5
  9
$DIMDLI
 40
0.38
  9
$DIMTM
 40
0.0
  9
$DIMASO
 70
1
  9
$PLINEWID
 40
0.0
  9
$DIMSTYLE
  2
Standard
  9
$LTSCALE
 40
0.3
  9
$DIMTIH
 70
1
  9
$DIMALTD
 70
2
  9
$FILLETRAD
 40
10.0
  9
$TDUPDATE
 40
0.0
  9
$PLIMMIN
 10
0.0
 20
0.0
  9
$PLIMMAX
 10
420.0
 20
297.0
  9
$PINSBASE
 10
-1.5
 20
0.0
 30
0.0
  9
$PDSIZE
 40
0.0
  9
$ATTDIA
 70
0
  9
$USERR1
 40
0.0
  9
$DIMEXE
 40
0.18
  9
$SNAPUNIT
 10
1.0
 20
1.0
 30
0.0
  9
$SNAPISOPAIR
 70
0
  9
$TEXTSTYLE
  7
STANDARD
  9
$DIMTP
 40
0.0
  9
$DIMTOL
 70
0
  9
$DIMALTF
 40
25.3999999999999986
  9
$TDCREATE
 40
0.0
  9
$COORDS
 70
2
  9
$USERR2
 40
0.0
  9
$DIMAUNIT
 70
0
  9
$USERR3
 40
0.0
  9
$AUNITS
 70
0
  0
ENDSEC
  0
SECTION
  2
TABLES
  0
TABLE
  2
VPORT
  5
8
100
AcDbSymbolTable
 70
1
  0
VPORT
  5
30
100
AcDbSymbolTableRecord
100
AcDbViewportTableRecord
  2
*Active
 70
0
 10
0.0
 20
0.0
 11
1.0
 21
1.0
 12
286.3055555555554861
 22
148.5
 13
0.0
 23
0.0
 14
10.0
 24
10.0
 15
10.0
 25
10.0
 16
0.0
 26
0.0
 36
1.0
 17
0.0
 27
0.0
 37
0.0
 40
297.0
 41
1.92798353909465
 42
50.0
 43
0.0
 44
0.0
 50
0.0
 51
0.0
 71
0
 72
100
 73
1
 74
3
 75
1
 76
1
 77
0
 78
0
281
0
 65
1
110
0.0
120
0.0
130
0.0
111
1.0
121
0.0
131
0.0
112
0.0
122
1.0
132
0.0
 79
0
146
0.0
  0
ENDTAB
  0
TABLE
  2
LTYPE
  5
5
100
AcDbSymbolTable
 70
21
  0
LTYPE
  5
14
100
AcDbSymbolTableRecord
100
AcDbLinetypeTableRecord
  2
ByBlock
 70
0
  3

 72
65
 73
0
 40
0.0
  0
LTYPE
  5
15
100
AcDbSymbolTableRecord
100
AcDbLinetypeTableRecord
  2
ByLayer
 70
0
  3

 72
65
 73
0
 40
0.0
  0
LTYPE
  5
16
100
AcDbSymbolTableRecord
100
AcDbLinetypeTableRecord
  2
CONTINUOUS
 70
0
  3
Solid line
 72
65
 73
0
 40
0.0
  0
LTYPE
  5
31
100
AcDbSymbolTableRecord
100
AcDbLinetypeTableRecord
  2
DOT
 70
0
  3
Dot . . . . . . . . . . . . . . . . . . . . . .
 72
65
 73
2
 40
6.3499999999999996
 49
0.0
 74
0
 49
-6.3499999999999996
 74
0
  0
LTYPE
  5
32
100
AcDbSymbolTableRecord
100
AcDbLinetypeTableRecord
  2
DOT2
 70
0
  3
Dot (.5x) .....................................
 72
65
 73
2
 40
3.1749999999999998
 49
0.0
 74
0
 49
-3.1749999999999998
 74
0
  0
LTYPE
  5
33
100
AcDbSymbolTableRecord
100
AcDbLinetypeTableRecord
  2
DOTX2
 70
0
  3
Dot (2x) .  .  .  .  .  .  .  .  .  .  .  .  .
 72
65
 73
2
 40
12.6999999999999993
 49
0.0
 74
0
 49
-12.6999999999999993
 74
0
  0
LTYPE
  5
34
100
AcDbSymbolTableRecord
100
AcDbLinetypeTableRecord
  2
DASHED
 70
0
  3
Dashed __ __ __ __ __ __ __ __ __ __ __ __ __ _
 72
65
 73
2
 40
19.0500000000000007
 49
12.6999999999999993
 74
0
 49
-6.3499999999999996
 74
0
  0
LTYPE
  5
35
100
AcDbSymbolTableRecord
100
AcDbLinetypeTableRecord
  2
DASHED2
 70
0
  3
Dashed (.5x) _ _ _ _ _ _ _ _ _ _ _ _ _ _ _ _ _
 72
65
 73
2
 40
9.5250000000000004
 49
6.3499999999999996
 74
0
 49
-3.1749999999999998
 74
0
  0
LTYPE
  5
36
100
AcDbSymbolTableRecord
100
AcDbLinetypeTableRecord
  2
DASHEDX2
 70
0
  3
Dashed (2x) ____  ____  ____  ____  ____  ___
 72
65
 73
2
 40
38.1000000000000014
 49
25.3999999999999986
 74
0
 49
-12.6999999999999993
 74
0
  0
LTYPE
  5
37
100
AcDbSymbolTableRecord
100
AcDbLinetypeTableRecord
  2
DASHDOT
 70
0
  3
Dash dot __ . __ . __ . __ . __ . __ . __ . __
 72
65
 73
4
 40
25.3999999999999986
 49
12.6999999999999993
 74
0
 49
-6.3499999999999996
 74
0
 49
0.0
 74
0
 49
-6.3499999999999996
 74
0
  0
LTYPE
  5
38
100
AcDbSymbolTableRecord
100
AcDbLinetypeTableRecord
  2
DASHDOT2
 70
0
  3
Dash dot (.5x) _._._._._._._._._._._._._._._.
 72
65
 73
4
 40
12.6999999999999993
 49
6.3499999999999996
 74
0
 49
-3.1749999999999998
 74
0
 49
0.0
 74
0
 49
-3.1749999999999998
 74
0
  0
LTYPE
  5
39
100
AcDbSymbolTableRecord
100
AcDbLinetypeTableRecord
  2
DASHDOTX2
 70
0
  3
Dash dot (2x) ____  .  ____  .  ____  .  ___
 72
65
 73
4
 40
50.7999999999999972
 49
25.3999999999999986
 74
0
 49
-12.6999999999999993
 74
0
 49
0.0
 74
0
 49
-12.6999999999999993
 74
0
  0
LTYPE
  5
3A
100
AcDbSymbolTableRecord
100
AcDbLinetypeTableRecord
  2
DIVIDE
 70
0
  3
Divide ____ . . ____ . . ____ . . ____ . . ____
 72
65
 73
6
 40
31.75
 49
12.6999999999999993
 74
0
 49
-6.3499999999999996
 74
0
 49
0.0
 74
0
 49
-6.3499999999999996
 74
0
 49
0.0
 74
0
 49
-6.3499999999999996
 74
0
  0
LTYPE
  5
3B
100
AcDbSymbolTableRecord
100
AcDbLinetypeTableRecord
  2
DIVIDE2
 70
0
  3
Divide (.5x) __..__..__..__..__..__..__..__.._
 72
65
 73
6
 40
15.875
 49
6.3499999999999996
 74
0
 49
-3.1749999999999998
 74
0
 49
0.0
 74
0
 49
-3.1749999999999998
 74
0
 49
0.0
 74
0
 49
-3.1749999999999998
 74
0
  0
LTYPE
  5
3C
100
AcDbSymbolTableRecord
100
AcDbLinetypeTableRecord
  2
DIVIDEX2
 70
0
  3
Divide (2x) ________  .  .  ________  .  .  _
 72
65
 73
6
 40
63.5
 49
25.3999999999999986
 74
0
 49
-12.6999999999999993
 74
0
 49
0.0
 74
0
 49
-12.6999999999999993
 74
0
 49
0.0
 74
0
 49
-12.6999999999999993
 74
0
  0
LTYPE
  5
3D
100
AcDbSymbolTableRecord
100
AcDbLinetypeTableRecord
  2
CENTER
 70
0
  3
Center ____ _ ____ _ ____ _ ____ _ ____ _ ____
 72
65
 73
4
 40
50.7999999999999972
 49
31.75
 74
0
 49
-6.3499999999999996
 74
0
 49
6.3499999999999996
 74
0
 49
-6.3499999999999996
 74
0
  0
LTYPE
  5
3E
100
AcDbSymbolTableRecord
100
AcDbLinetypeTableRecord
  2
CENTER2
 70
0
  3
Center (.5x) ___ _ ___ _ ___ _ ___ _ ___ _ ___
 72
65
 73
4
 40
28.5749999999999993
 49
19.0500000000000007
 74
0
 49
-3.1749999999999998
 74
0
 49
3.1749999999999998
 74
0
 49
-3.1749999999999998
 74
0
  0
LTYPE
  5
3F
100
AcDbSymbolTableRecord
100
AcDbLinetypeTableRecord
  2
CENTERX2
 70
0
  3
Center (2x) ________  __  ________  __  _____
 72
65
 73
4
 40
101.5999999999999943
 49
63.5
 74
0
 49
-12.6999999999999993
 74
0
 49
12.6999999999999993
 74
0
 49
-12.6999999999999993
 74
0
  0
LTYPE
  5
40
100
AcDbSymbolTableRecord
100
AcDbLinetypeTableRecord
  2
BORDER
 70
0
  3
Border __ __ . __ __ . __ __ . __ __ . __ __ .
 72
65
 73
6
 40
44.4500000000000028
 49
12.6999999999999993
 74
0
 49
-6.3499999999999996
 74
0
 49
12.6999999999999993
 74
0
 49
-6.3499999999999996
 74
0
 49
0.0
 74
0
 49
-6.3499999999999996
 74
0
  0
LTYPE
  5
41
100
AcDbSymbolTableRecord
100
AcDbLinetypeTableRecord
  2
BORDER2
 70
0
  3
Border (.5x) __.__.__.__.__.__.__.__.__.__.__.
 72
65
 73
6
 40
22.2250000000000014
 49
6.3499999999999996
 74
0
 49
-3.1749999999999998
 74
0
 49
6.3499999999999996
 74
0
 49
-3.1749999999999998
 74
0
 49
0.0
 74
0
 49
-3.1749999999999998
 74
0
  0
LTYPE
  5
42
100
AcDbSymbolTableRecord
100
AcDbLinetypeTableRecord
  2
BORDERX2
 70
0
  3
Border (2x) ____  ____  .  ____  ____  .  ___
 72
65
 73
6
 40
88.9000000000000057
 49
25.3999999999999986
 74
0
 49
-12.6999999999999993
 74
0
 49
25.3999999999999986
 74
0
 49
-12.6999999999999993
 74
0
 49
0.0
 74
0
 49
-12.6999999999999993
 74
0
  0
ENDTAB
  0
TABLE
  2
LAYER
  5
2
100
AcDbSymbolTable
 70
8
  0
LAYER
  5
10
100
AcDbSymbolTableRecord
100
AcDbLayerTableRecord
  2
0
 70
0
 62
7
  6
CONTINUOUS
390
F
  0
LAYER
  5
43
100
AcDbSymbolTableRecord
100
AcDbLayerTableRecord
  2
FORT
 70
0
 62
7
  6
CONTINUOUS
370
50
390
F
  0
LAYER
  5
44
100
AcDbSymbolTableRecord
100
AcDbLayerTableRecord
  2
INTERROMPU
 70
0
 62
5
  6
DASHED
370
20
390
F
  0
LAYER
  5
45
100
AcDbSymbolTableRecord
100
AcDbLayerTableRecord
  2
AXE
 70
0
 62
3
  6
CENTER
370
20
390
F
  0
LAYER
  5
46
100
AcDbSymbolTableRecord
100
AcDbLayerTableRecord
  2
FIN
 70
0
 62
5
  6
CONTINUOUS
370
20
390
F
  0
LAYER
  5
47
100
AcDbSymbolTableRecord
100
AcDbLayerTableRecord
  2
HACHURE
 70
0
 62
7
  6
CONTINUOUS
370
20
390
F
  0
LAYER
  5
48
100
AcDbSymbolTableRecord
100
AcDbLayerTableRecord
  2
TEXTE
 70
0
 62
7
  6
CONTINUOUS
370
50
390
F
  0
LAYER
  5
49
100
AcDbSymbolTableRecord
100
AcDbLayerTableRecord
  2
RENFORCE
 70
0
 62
7
  6
CONTINUOUS
370
90
390
F
  0
ENDTAB
  0
TABLE
  2
STYLE
  5
3
100
AcDbSymbolTable
 70
1
  0
STYLE
  5
11
100
AcDbSymbolTableRecord
100
AcDbTextStyleTableRecord
  2
Standard
 70
0
 40
0.0
 41
0.75
 50
0.0
 71
0
 42
2.5
  3
txt
  4

  0
ENDTAB
  0
TABLE
  2
VIEW
  5
6
100
AcDbSymbolTable
 70
0
  0
ENDTAB
  0
TABLE
  2
UCS
  5
7
100
AcDbSymbolTable
 70
0
  0
ENDTAB
  0
TABLE
  2
APPID
  5
9
100
AcDbSymbolTable
 70
1
  0
APPID
  5
12
100
AcDbSymbolTableRecord
100
AcDbRegAppTableRecord
  2
ACAD
 70
0
  0
ENDTAB
  0
TABLE
  2
DIMSTYLE
  5
A
100
AcDbSymbolTable
 70
1
100
AcDbDimStyleTable
 71
0
  0
DIMSTYLE
105
27
100
AcDbSymbolTableRecord
100
AcDbDimStyleTableRecord
  2
Standard
 41
0.18
 42
0.0625
 43
3.75
 44
0.18
 70
0
 73
0
 74
0
 77
1
 78
8
140
0.18
141
2.5
143
0.03937007874016
147
0.625
171
3
172
1
271
2
272
2
274
3
278
44
283
0
284
8
340
11
  0
ENDTAB
  0
TABLE
  2
BLOCK_RECORD
  5
1
100
AcDbSymbolTable
 70
1
  0
BLOCK_RECORD
  5
1F
100
AcDbSymbolTableRecord
100
AcDbBlockTableRecord
  2
*Model_Space
340
22
  0
BLOCK_RECORD
  5
1B
100
AcDbSymbolTableRecord
100
AcDbBlockTableRecord
  2
*Paper_Space
340
1E
  0
BLOCK_RECORD
  5
23
100
AcDbSymbolTableRecord
100
AcDbBlockTableRecord
  2
*Paper_Space0
340
26
  0
BLOCK_RECORD
  5
4A
100
AcDbSymbolTableRecord
100
AcDbBlockTableRecord
  2
DESENS-G1
340
0
  0
BLOCK_RECORD
  5
4B
100
AcDbSymbolTableRecord
100
AcDbBlockTableRecord
  2
DESENS-G2
340
0
  0
BLOCK_RECORD
  5
4C
100
AcDbSymbolTableRecord
100
AcDbBlockTableRecord
  2
DESENS-G3
340
0
  0
BLOCK_RECORD
  5
4D
100
AcDbSymbolTableRecord
100
AcDbBlockTableRecord
  2
DESENS-G4
340
0
  0
BLOCK_RECORD
  5
4E
100
AcDbSymbolTableRecord
100
AcDbBlockTableRecord
  2
DESENS-G5
340
0
  0
BLOCK_RECORD
  5
4F
100
AcDbSymbolTableRecord
100
AcDbBlockTableRecord
  2
DESENS-G6
340
0
  0
BLOCK_RECORD
  5
50
100
AcDbSymbolTableRecord
100
AcDbBlockTableRecord
  2
DESENS-G7
340
0
  0
BLOCK_RECORD
  5
51
100
AcDbSymbolTableRecord
100
AcDbBlockTableRecord
  2
DESENS-G8
340
0
  0
BLOCK_RECORD
  5
52
100
AcDbSymbolTableRecord
100
AcDbBlockTableRecord
  2
DESENS-G9
340
0
  0
BLOCK_RECORD
  5
53
100
AcDbSymbolTableRecord
100
AcDbBlockTableRecord
  2
DESENS-G10
340
0
  0
BLOCK_RECORD
  5
54
100
AcDbSymbolTableRecord
100
AcDbBlockTableRecord
  2
DESENS-G11
340
0
  0
BLOCK_RECORD
  5
55
100
AcDbSymbolTableRecord
100
AcDbBlockTableRecord
  2
DESENS-G12
340
0
  0
BLOCK_RECORD
  5
56
100
AcDbSymbolTableRecord
100
AcDbBlockTableRecord
  2
DESENS-G13
340
0
  0
BLOCK_RECORD
  5
57
100
AcDbSymbolTableRecord
100
AcDbBlockTableRecord
  2
DESENS-G14
340
0
  0
BLOCK_RECORD
  5
58
100
AcDbSymbolTableRecord
100
AcDbBlockTableRecord
  2
DESENS-G15
340
0
  0
BLOCK_RECORD
  5
59
100
AcDbSymbolTableRecord
100
AcDbBlockTableRecord
  2
DESENS-G16
340
0
  0
BLOCK_RECORD
  5
5A
100
AcDbSymbolTableRecord
100
AcDbBlockTableRecord
  2
DESENS-G17
340
0
  0
BLOCK_RECORD
  5
5B
100
AcDbSymbolTableRecord
100
AcDbBlockTableRecord
  2
DESENS-G18
340
0
  0
BLOCK_RECORD
  5
5C
100
AcDbSymbolTableRecord
100
AcDbBlockTableRecord
  2
DESENS-G19
340
0
  0
BLOCK_RECORD
  5
5D
100
AcDbSymbolTableRecord
100
AcDbBlockTableRecord
  2
DESENS-G20
340
0
  0
BLOCK_RECORD
  5
5E
100
AcDbSymbolTableRecord
100
AcDbBlockTableRecord
  2
DESENS-G21
340
0
  0
ENDTAB
  0
ENDSEC
  0
SECTION
  2
BLOCKS
  0
BLOCK
  5
20
100
AcDbEntity
  8
0
100
AcDbBlockBegin
  2
*Model_Space
 70
0
 10
0.0
 20
0.0
 30
0.0
  3
*Model_Space
  1

  0
ENDBLK
  5
21
100
AcDbEntity
  8
0
100
AcDbBlockEnd
  0
BLOCK
  5
1C
100
AcDbEntity
 67
1
  8
0
100
AcDbBlockBegin
  2
*Paper_Space
 70
0
 10
0.0
 20
0.0
 30
0.0
  3
*Paper_Space
  1

  0
ENDBLK
  5
1D
100
AcDbEntity
 67
1
  8
0
100
AcDbBlockEnd
  0
BLOCK
  5
24
100
AcDbEntity
  8
0
100
AcDbBlockBegin
  2
*Paper_Space0
 70
0
 10
0.0
 20
0.0
 30
0.0
  3
*Paper_Space0
  1

  0
ENDBLK
  5
25
100
AcDbEntity
  8
0
100
AcDbBlockEnd
  0
BLOCK
  5
5F
100
AcDbEntity
  8
0
100
AcDbBlockBegin
  2
DESENS-G1
 70
0
 10
0.0
 20
0.0
 30
0.0
  3
DESENS-G1
  1

  0
LINE
  5
60
100
AcDbEntity
100
AcDbLine
  8
HACHURE
 62
5
370
-1
  6
CONTINUOUS
 10
101.2727480000000071
 20
62.6575330000000008
 30
0.0
 11
97.474031999999994
 21
65.3174219999999934
 31
0.0
  0
LINE
  5
61
100
AcDbEntity
100
AcDbLine
  8
HACHURE
 62
5
370
-1
  6
CONTINUOUS
 10
91.9387710000000027
 20
65.3172030000000063
 30
0.0
 11
100.8889180000000039
 21
59.0502419999999972
 31
0.0
  0
LINE
  5
62
100
AcDbEntity
100
AcDbLine
  8
HACHURE
 62
5
370
-1
  6
CONTINUOUS
 10
97.8277549999999962
 20
57.3176410000000018
 30
0.0
 11
89.6100040000000035
 21
63.0717720000000028
 31
0.0
  0
LINE
  5
63
100
AcDbEntity
100
AcDbLine
  8
HACHURE
 62
5
370
-1
  6
CONTINUOUS
 10
89.6097599999999943
 20
59.196356999999999
 30
0.0
 11
92.2930250000000001
 21
57.3175150000000002
 31
0.0
  0
ENDBLK
  5
64
100
AcDbEntity
  8
0
100
AcDbBlockEnd
  0
BLOCK
  5
65
100
AcDbEntity
  8
0
100
AcDbBlockBegin
  2
DESENS-G2
 70
0
 10
0.0
 20
0.0
 30
0.0
  3
DESENS-G2
  1

  0
LINE
  5
66
100
AcDbEntity
100
AcDbLine
  8
HACHURE
 62
5
370
-1
  6
CONTINUOUS
 10
81.6092529999999954
 20
64.1677949999999981
 30
0.0
 11
79.9674519999999944
 21
65.3173960000000022
 31
0.0
  0
LINE
  5
67
100
AcDbEntity
100
AcDbLine
  8
HACHURE
 62
5
370
-1
  6
CONTINUOUS
 10
74.4323610000000002
 20
65.3173359999999974
 30
0.0
 11
81.6095880000000022
 21
60.2917879999999968
 31
0.0
  0
LINE
  5
68
100
AcDbEntity
100
AcDbLine
  8
HACHURE
 62
5
370
-1
  6
CONTINUOUS
 10
80.321509000000006
 20
57.317456
 30
0.0
 11
69.6785469999999947
 21
64.7697390000000013
 31
0.0
  0
LINE
  5
69
100
AcDbEntity
100
AcDbLine
  8
HACHURE
 62
5
370
-1
  6
CONTINUOUS
 10
69.7215089999999975
 20
60.8638830000000013
 30
0.0
 11
74.7860960000000006
 21
57.3176210000000026
 31
0.0
  0
ENDBLK
  5
6A
100
AcDbEntity
  8
0
100
AcDbBlockEnd
  0
BLOCK
  5
6B
100
AcDbEntity
  8
0
100
AcDbBlockBegin
  2
DESENS-G3
 70
0
 10
0.0
 20
0.0
 30
0.0
  3
DESENS-G3
  1

  0
LINE
  5
6C
100
AcDbEntity
100
AcDbLine
  8
HACHURE
 62
5
370
-1
  6
CONTINUOUS
 10
76.4245999999999981
 20
69.1759899999999988
 30
0.0
 11
75.0201799999999963
 21
65.317378000000005
 31
0.0
  0
LINE
  5
6D
100
AcDbEntity
100
AcDbLine
  8
HACHURE
 62
5
370
-1
  6
CONTINUOUS
 10
77.7233099999999979
 20
65.3173290000000009
 30
0.0
 11
79.8529199999999975
 21
71.1683840000000032
 31
0.0
  0
LINE
  5
6E
100
AcDbEntity
100
AcDbLine
  8
HACHURE
 62
5
370
-1
  6
CONTINUOUS
 10
81.6096390000000014
 20
68.5688520000000068
 30
0.0
 11
80.4261070000000018
 21
65.3171240000000068
 31
0.0
  0
ENDBLK
  5
6F
100
AcDbEntity
  8
0
100
AcDbBlockEnd
  0
BLOCK
  5
70
100
AcDbEntity
  8
0
100
AcDbBlockBegin
  2
DESENS-G4
 70
0
 10
0.0
 20
0.0
 30
0.0
  3
DESENS-G4
  1

  0
LINE
  5
71
100
AcDbEntity
100
AcDbLine
  8
HACHURE
 62
5
370
-1
  6
CONTINUOUS
 10
91.8457319999999982
 20
70.959391999999994
 30
0.0
 11
89.7921860000000009
 21
65.3173210000000068
 31
0.0
  0
LINE
  5
72
100
AcDbEntity
100
AcDbLine
  8
HACHURE
 62
5
370
-1
  6
CONTINUOUS
 10
92.4953160000000025
 20
65.3172720000000027
 30
0.0
 11
94.0874019999999973
 21
69.6914919999999967
 31
0.0
  0
LINE
  5
73
100
AcDbEntity
100
AcDbLine
  8
HACHURE
 62
5
370
-1
  6
CONTINUOUS
 10
96.1652990000000045
 20
67.9743909999999971
 30
0.0
 11
95.1982019999999949
 21
65.3173120000000011
 31
0.0
  0
ENDBLK
  5
74
100
AcDbEntity
  8
0
100
AcDbBlockEnd
  0
BLOCK
  5
75
100
AcDbEntity
  8
0
100
AcDbBlockBegin
  2
DESENS-G5
 70
0
 10
0.0
 20
0.0
 30
0.0
  3
DESENS-G5
  1

  0
LINE
  5
76
100
AcDbEntity
100
AcDbLine
  8
HACHURE
 62
5
370
-1
  6
CONTINUOUS
 10
164.6101950000000045
 20
166.6722110000000043
 30
0.0
 11
163.8902569999999912
 21
167.9191810000000089
 31
0.0
  0
LINE
  5
77
100
AcDbEntity
100
AcDbLine
  8
HACHURE
 62
5
370
-1
  6
CONTINUOUS
 10
158.3898590000000013
 20
167.9193270000000098
 30
0.0
 11
163.007632000000001
 21
159.9211080000000038
 31
0.0
  0
LINE
  5
78
100
AcDbEntity
100
AcDbLine
  8
HACHURE
 62
5
370
-1
  6
CONTINUOUS
 10
157.5103909999999985
 20
159.920408000000009
 30
0.0
 11
152.8926179999999988
 21
167.9186269999999865
 31
0.0
  0
LINE
  5
79
100
AcDbEntity
100
AcDbLine
  8
HACHURE
 62
5
370
-1
  6
CONTINUOUS
 10
148.5466629999999952
 20
165.9192180000000008
 30
0.0
 11
152.0099930000000086
 21
159.9205540000000099
 31
0.0
  0
LINE
  5
7A
100
AcDbEntity
100
AcDbLine
  8
HACHURE
 62
5
370
-1
  6
CONTINUOUS
 10
146.5115959999999973
 20
159.9218559999999911
 30
0.0
 11
143.0482660000000124
 21
165.9205200000000104
 31
0.0
  0
LINE
  5
7B
100
AcDbEntity
100
AcDbLine
  8
HACHURE
 62
5
370
-1
  6
CONTINUOUS
 10
110.9910480000000064
 20
211.9184260000000108
 30
0.0
 11
111.5676919999999939
 21
210.9196499999999901
 31
0.0
  0
LINE
  5
7C
100
AcDbEntity
100
AcDbLine
  8
HACHURE
 62
5
370
-1
  6
CONTINUOUS
 10
137.547867999999994
 20
165.9206650000000138
 30
0.0
 11
141.0111980000000074
 21
159.922001999999992
 31
0.0
  0
LINE
  5
7D
100
AcDbEntity
100
AcDbLine
  8
HACHURE
 62
5
370
-1
  6
CONTINUOUS
 10
135.5119550000000004
 20
159.9201459999999884
 30
0.0
 11
132.048624999999987
 21
165.9188100000000077
 31
0.0
  0
LINE
  5
7E
100
AcDbEntity
100
AcDbLine
  8
HACHURE
 62
5
370
-1
  6
CONTINUOUS
 10
114.6083260000000053
 20
196.1262949999999989
 30
0.0
 11
110.1084230000000019
 21
203.9203540000000032
 31
0.0
  0
LINE
  5
7F
100
AcDbEntity
100
AcDbLine
  8
HACHURE
 62
5
370
-1
  6
CONTINUOUS
 10
109.2417240000000049
 20
205.4215210000000127
 30
0.0
 11
105.4906500000000023
 21
211.9185720000000117
 31
0.0
  0
LINE
  5
80
100
AcDbEntity
100
AcDbLine
  8
HACHURE
 62
5
370
-1
  6
CONTINUOUS
 10
99.9922530000000052
 20
211.919873999999993
 30
0.0
 11
114.6082690000000071
 21
186.6041920000000118
 31
0.0
  0
LINE
  5
81
100
AcDbEntity
100
AcDbLine
  8
HACHURE
 62
5
370
-1
  6
CONTINUOUS
 10
126.5502280000000042
 20
165.9201109999999915
 30
0.0
 11
130.0135579999999891
 21
159.921447999999998
 31
0.0
  0
LINE
  5
82
100
AcDbEntity
100
AcDbLine
  8
HACHURE
 62
5
370
-1
  6
CONTINUOUS
 10
124.5131599999999992
 20
159.9215939999999989
 30
0.0
 11
121.04983
 21
165.9202569999999923
 31
0.0
  0
LINE
  5
83
100
AcDbEntity
100
AcDbLine
  8
HACHURE
 62
5
370
-1
  6
CONTINUOUS
 10
119.6087979999999931
 20
168.4161980000000085
 30
0.0
 11
115.2764580000000052
 21
175.920031999999992
 31
0.0
  0
LINE
  5
84
100
AcDbEntity
100
AcDbLine
  8
HACHURE
 62
5
370
-1
  6
CONTINUOUS
 10
114.4109140000000053
 20
177.4191969999999969
 30
0.0
 11
95.6104749999999939
 21
209.9825130000000115
 31
0.0
  0
LINE
  5
85
100
AcDbEntity
100
AcDbLine
  8
HACHURE
 62
5
370
-1
  6
CONTINUOUS
 10
95.611573000000007
 20
200.458408999999989
 30
0.0
 11
119.0159189999999967
 21
159.9208940000000041
 31
0.0
  0
LINE
  5
86
100
AcDbEntity
100
AcDbLine
  8
HACHURE
 62
5
370
-1
  6
CONTINUOUS
 10
113.5155210000000068
 20
159.9210390000000075
 30
0.0
 11
95.6118259999999935
 21
190.9311480000000074
 31
0.0
  0
LINE
  5
87
100
AcDbEntity
100
AcDbLine
  8
HACHURE
 62
5
370
-1
  6
CONTINUOUS
 10
95.3139340000000033
 20
181.9202889999999968
 30
0.0
 11
108.0151220000000052
 21
159.9211850000000084
 31
0.0
  0
LINE
  5
88
100
AcDbEntity
100
AcDbLine
  8
HACHURE
 62
5
370
-1
  6
CONTINUOUS
 10
102.5178810000000027
 20
159.9204850000000135
 30
0.0
 11
97.6112080000000049
 21
168.4190930000000037
 31
0.0
  0
LINE
  5
89
100
AcDbEntity
100
AcDbLine
  8
HACHURE
 62
5
370
-1
  6
CONTINUOUS
 10
96.1667089999999973
 20
170.92103800000001
 30
0.0
 11
93.6105239999999981
 21
175.348479999999995
 31
0.0
  0
ENDBLK
  5
8A
100
AcDbEntity
  8
0
100
AcDbBlockEnd
  0
BLOCK
  5
8B
100
AcDbEntity
  8
0
100
AcDbBlockBegin
  2
DESENS-G6
 70
0
 10
0.0
 20
0.0
 30
0.0
  3
DESENS-G6
  1

  0
LINE
  5
8C
100
AcDbEntity
100
AcDbLine
  8
HACHURE
 62
5
370
-1
  6
CONTINUOUS
 10
111.8611250000000013
 20
210.9182580000000087
 30
0.0
 11
110.609367000000006
 21
208.7501499999999908
 31
0.0
  0
LINE
  5
8D
100
AcDbEntity
100
AcDbLine
  8
HACHURE
 62
5
370
-1
  6
CONTINUOUS
 10
111.7142290000000031
 20
204.3140750000000025
 30
0.0
 11
114.609540999999993
 21
209.3289029999999968
 31
0.0
  0
LINE
  5
8E
100
AcDbEntity
100
AcDbLine
  8
HACHURE
 62
5
370
-1
  6
CONTINUOUS
 10
119.1932599999999951
 20
210.9183859999999981
 30
0.0
 11
118.6094379999999973
 21
209.9071769999999901
 31
0.0
  0
LINE
  5
8F
100
AcDbEntity
100
AcDbLine
  8
HACHURE
 62
5
370
-1
  6
CONTINUOUS
 10
117.753350999999995
 20
208.4243910000000142
 30
0.0
 11
114.6095679999999959
 21
202.9791999999999916
 31
0.0
  0
LINE
  5
90
100
AcDbEntity
100
AcDbLine
  8
HACHURE
 62
5
370
-1
  6
CONTINUOUS
 10
116.1797530000000052
 20
199.3479810000000043
 30
0.0
 11
120.609880000000004
 21
207.0211860000000001
 31
0.0
  0
LINE
  5
91
100
AcDbEntity
100
AcDbLine
  8
HACHURE
 62
5
370
-1
  6
CONTINUOUS
 10
121.1281249999999972
 20
207.9188130000000001
 30
0.0
 11
122.8599449999999962
 21
210.9184129999999868
 31
0.0
  0
LINE
  5
92
100
AcDbEntity
100
AcDbLine
  8
HACHURE
 62
5
370
-1
  6
CONTINUOUS
 10
126.5261509999999987
 20
210.9187169999999867
 30
0.0
 11
124.7940540000000027
 21
207.9186379999999872
 31
0.0
  0
LINE
  5
93
100
AcDbEntity
100
AcDbLine
  8
HACHURE
 62
5
370
-1
  6
CONTINUOUS
 10
120.6096299999999957
 20
200.6710030000000131
 30
0.0
 11
119.020308
 21
197.9182150000000036
 31
0.0
  0
ENDBLK
  5
94
100
AcDbEntity
  8
0
100
AcDbBlockEnd
  0
BLOCK
  5
95
100
AcDbEntity
  8
0
100
AcDbBlockBegin
  2
DESENS-G7
 70
0
 10
0.0
 20
0.0
 30
0.0
  3
DESENS-G7
  1

  0
LINE
  5
96
100
AcDbEntity
100
AcDbLine
  8
HACHURE
 62
5
370
-1
  6
CONTINUOUS
 10
120.2033500000000004
 20
189.9188809999999989
 30
0.0
 11
114.6094779999999957
 21
187.3104160000000036
 31
0.0
  0
LINE
  5
97
100
AcDbEntity
100
AcDbLine
  8
HACHURE
 62
5
370
-1
  6
CONTINUOUS
 10
114.7393260000000055
 20
184.9186540000000036
 30
0.0
 11
122.6680429999999973
 21
188.6158759999999859
 31
0.0
  0
LINE
  5
98
100
AcDbEntity
100
AcDbLine
  8
HACHURE
 62
5
370
-1
  6
CONTINUOUS
 10
122.3792799999999943
 20
186.0289129999999886
 30
0.0
 11
118.6093709999999959
 21
184.2709759999999903
 31
0.0
  0
LINE
  5
99
100
AcDbEntity
100
AcDbLine
  8
HACHURE
 62
5
370
-1
  6
CONTINUOUS
 10
114.6097659999999934
 20
179.953913
 30
0.0
 11
116.6791460000000029
 21
180.9188809999999989
 31
0.0
  0
LINE
  5
9A
100
AcDbEntity
100
AcDbLine
  8
HACHURE
 62
5
370
-1
  6
CONTINUOUS
 10
118.6096330000000023
 20
181.8190820000000087
 30
0.0
 11
122.721580000000003
 21
183.7365139999999997
 31
0.0
  0
LINE
  5
9B
100
AcDbEntity
100
AcDbLine
  8
HACHURE
 62
5
370
-1
  6
CONTINUOUS
 10
122.4714660000000066
 20
181.1675730000000044
 30
0.0
 11
114.894447999999997
 21
177.6343520000000069
 31
0.0
  0
LINE
  5
9C
100
AcDbEntity
100
AcDbLine
  8
HACHURE
 62
5
370
-1
  6
CONTINUOUS
 10
116.5668490000000048
 20
175.9618949999999984
 30
0.0
 11
122.4532410000000056
 21
178.7067649999999901
 31
0.0
  0
LINE
  5
9D
100
AcDbEntity
100
AcDbLine
  8
HACHURE
 62
5
370
-1
  6
CONTINUOUS
 10
122.4746310000000022
 20
176.2644290000000069
 30
0.0
 11
121.7337899999999991
 21
175.9189690000000041
 31
0.0
  0
ENDBLK
  5
9E
100
AcDbEntity
  8
0
100
AcDbBlockEnd
  0
BLOCK
  5
9F
100
AcDbEntity
  8
0
100
AcDbBlockBegin
  2
DESENS-G8
 70
0
 10
0.0
 20
0.0
 30
0.0
  3
DESENS-G8
  1

  0
LINE
  5
A0
100
AcDbEntity
100
AcDbLine
  8
HACHURE
 62
5
370
-1
  6
CONTINUOUS
 10
49.6097060000000027
 20
232.8655550000000005
 30
0.0
 11
47.2257389999999972
 21
234.534827000000007
 31
0.0
  0
LINE
  5
A1
100
AcDbEntity
100
AcDbLine
  8
HACHURE
 62
5
370
-1
  6
CONTINUOUS
 10
45.6098110000000005
 20
231.7904990000000112
 30
0.0
 11
49.6097899999999967
 21
228.9896840000000111
 31
0.0
  0
LINE
  5
A2
100
AcDbEntity
100
AcDbLine
  8
HACHURE
 62
5
370
-1
  6
CONTINUOUS
 10
49.6097219999999979
 20
225.1133690000000058
 30
0.0
 11
45.6096360000000018
 21
227.9142589999999871
 31
0.0
  0
ENDBLK
  5
A3
100
AcDbEntity
  8
0
100
AcDbBlockEnd
  0
BLOCK
  5
A4
100
AcDbEntity
  8
0
100
AcDbBlockBegin
  2
DESENS-G9
 70
0
 10
0.0
 20
0.0
 30
0.0
  3
DESENS-G9
  1

  0
LINE
  5
A5
100
AcDbEntity
100
AcDbLine
  8
HACHURE
 62
5
370
-1
  6
CONTINUOUS
 10
99.6393439999999941
 20
231.5021500000000003
 30
0.0
 11
94.7605360000000019
 21
234.918329
 31
0.0
  0
LINE
  5
A6
100
AcDbEntity
100
AcDbLine
  8
HACHURE
 62
5
370
-1
  6
CONTINUOUS
 10
89.2238420000000048
 20
234.9184689999999875
 30
0.0
 11
98.4689740000000029
 21
228.4449569999999881
 31
0.0
  0
LINE
  5
A7
100
AcDbEntity
100
AcDbLine
  8
HACHURE
 62
5
370
-1
  6
CONTINUOUS
 10
97.7935760000000016
 20
225.0427819999999883
 30
0.0
 11
83.6889740000000018
 21
234.9189309999999864
 31
0.0
  0
LINE
  5
A8
100
AcDbEntity
100
AcDbLine
  8
HACHURE
 62
5
370
-1
  6
CONTINUOUS
 10
78.1522800000000046
 20
234.9190710000000024
 30
0.0
 11
84.2204389999999989
 21
230.6700999999999908
 31
0.0
  0
LINE
  5
A9
100
AcDbEntity
100
AcDbLine
  8
HACHURE
 62
5
370
-1
  6
CONTINUOUS
 10
89.608508999999998
 20
226.8973330000000033
 30
0.0
 11
97.0228790000000032
 21
221.7057350000000042
 31
0.0
  0
LINE
  5
AA
100
AcDbEntity
100
AcDbLine
  8
HACHURE
 62
5
370
-1
  6
CONTINUOUS
 10
95.4686300000000045
 20
218.9189389999999946
 30
0.0
 11
88.2863279999999975
 21
223.9480409999999893
 31
0.0
  0
LINE
  5
AB
100
AcDbEntity
100
AcDbLine
  8
HACHURE
 62
5
370
-1
  6
CONTINUOUS
 10
81.9012230000000017
 20
228.4189389999999946
 30
0.0
 11
72.6184870000000018
 21
234.9187809999999956
 31
0.0
  0
LINE
  5
AC
100
AcDbEntity
100
AcDbLine
  8
HACHURE
 62
5
370
-1
  6
CONTINUOUS
 10
67.0817930000000047
 20
234.9189210000000116
 30
0.0
 11
89.9319359999999932
 21
218.9190790000000106
 31
0.0
  0
LINE
  5
AD
100
AcDbEntity
100
AcDbLine
  8
HACHURE
 62
5
370
-1
  6
CONTINUOUS
 10
84.3981430000000046
 20
218.9187880000000064
 30
0.0
 11
61.5469259999999991
 21
234.9193830000000105
 31
0.0
  0
LINE
  5
AE
100
AcDbEntity
100
AcDbLine
  8
HACHURE
 62
5
370
-1
  6
CONTINUOUS
 10
59.610515999999997
 20
232.3985769999999889
 30
0.0
 11
75.6006730000000005
 21
221.202147999999994
 31
0.0
  0
LINE
  5
AF
100
AcDbEntity
100
AcDbLine
  8
HACHURE
 62
5
370
-1
  6
CONTINUOUS
 10
67.6140460000000019
 20
222.919351000000006
 30
0.0
 11
59.6098349999999968
 21
228.5239599999999882
 31
0.0
  0
LINE
  5
B0
100
AcDbEntity
100
AcDbLine
  8
HACHURE
 62
5
370
-1
  6
CONTINUOUS
 10
59.610551000000001
 20
224.6467639999999903
 30
0.0
 11
62.0762780000000021
 21
222.9202429999999993
 31
0.0
  0
ENDBLK
  5
B1
100
AcDbEntity
  8
0
100
AcDbBlockEnd
  0
BLOCK
  5
B2
100
AcDbEntity
  8
0
100
AcDbBlockBegin
  2
DESENS-G10
 70
0
 10
0.0
 20
0.0
 30
0.0
  3
DESENS-G10
  1

  0
LINE
  5
B3
100
AcDbEntity
100
AcDbLine
  8
HACHURE
 62
5
370
-1
  6
CONTINUOUS
 10
87.455797000000004
 20
230.467064999999991
 30
0.0
 11
82.2362760000000037
 21
229.0684990000000028
 31
0.0
  0
LINE
  5
B4
100
AcDbEntity
100
AcDbLine
  8
HACHURE
 62
5
370
-1
  6
CONTINUOUS
 10
81.6094420000000014
 20
226.9283920000000023
 30
0.0
 11
89.0687039999999968
 21
228.9270950000000084
 31
0.0
  0
LINE
  5
B5
100
AcDbEntity
100
AcDbLine
  8
HACHURE
 62
5
370
-1
  6
CONTINUOUS
 10
89.6055089999999979
 20
227.0987839999999949
 30
0.0
 11
82.058961999999994
 21
225.0766930000000059
 31
0.0
  0
LINE
  5
B6
100
AcDbEntity
100
AcDbLine
  8
HACHURE
 62
5
370
-1
  6
CONTINUOUS
 10
83.5338390000000004
 20
223.4994680000000074
 30
0.0
 11
89.1165890000000047
 21
224.9953620000000001
 31
0.0
  0
ENDBLK
  5
B7
100
AcDbEntity
  8
0
100
AcDbBlockEnd
  0
BLOCK
  5
B8
100
AcDbEntity
  8
0
100
AcDbBlockBegin
  2
DESENS-G11
 70
0
 10
0.0
 20
0.0
 30
0.0
  3
DESENS-G11
  1

  0
LINE
  5
B9
100
AcDbEntity
100
AcDbLine
  8
HACHURE
 62
5
370
-1
  6
CONTINUOUS
 10
75.6095930000000038
 20
208.0940390000000093
 30
0.0
 11
73.4776920000000047
 21
211.7865999999999929
 31
0.0
  0
LINE
  5
BA
100
AcDbEntity
100
AcDbLine
  8
HACHURE
 62
5
370
-1
  6
CONTINUOUS
 10
70.6104030000000051
 20
207.2274290000000008
 30
0.0
 11
75.6098659999999967
 21
198.5681050000000027
 31
0.0
  0
LINE
  5
BB
100
AcDbEntity
100
AcDbLine
  8
HACHURE
 62
5
370
-1
  6
CONTINUOUS
 10
75.6100249999999932
 20
189.0423680000000104
 30
0.0
 11
70.6101060000000018
 21
197.7024810000000059
 31
0.0
  0
LINE
  5
BC
100
AcDbEntity
100
AcDbLine
  8
HACHURE
 62
5
370
-1
  6
CONTINUOUS
 10
70.6098089999999985
 20
188.1775340000000085
 30
0.0
 11
77.6095810000000057
 21
176.0535730000000001
 31
0.0
  0
LINE
  5
BD
100
AcDbEntity
100
AcDbLine
  8
HACHURE
 62
5
370
-1
  6
CONTINUOUS
 10
75.0764000000000067
 20
170.9190020000000061
 30
0.0
 11
70.6095700000000051
 21
178.655777999999998
 31
0.0
  0
LINE
  5
BE
100
AcDbEntity
100
AcDbLine
  8
HACHURE
 62
5
370
-1
  6
CONTINUOUS
 10
70.6092739999999992
 20
169.1308300000000031
 30
0.0
 11
73.609453000000002
 21
163.9343680000000063
 31
0.0
  0
ENDBLK
  5
BF
100
AcDbEntity
  8
0
100
AcDbBlockEnd
  0
BLOCK
  5
C0
100
AcDbEntity
  8
0
100
AcDbBlockBegin
  2
DESENS-G12
 70
0
 10
0.0
 20
0.0
 30
0.0
  3
DESENS-G12
  1

  0
LINE
  5
C1
100
AcDbEntity
100
AcDbLine
  8
HACHURE
 62
5
370
-1
  6
CONTINUOUS
 10
74.5407900000000012
 20
215.9184469999999862
 30
0.0
 11
73.6095870000000048
 21
213.3599869999999896
 31
0.0
  0
LINE
  5
C2
100
AcDbEntity
100
AcDbLine
  8
HACHURE
 62
5
370
-1
  6
CONTINUOUS
 10
75.6098829999999964
 20
211.4297500000000127
 30
0.0
 11
77.2435640000000063
 21
215.9182509999999979
 31
0.0
  0
LINE
  5
C3
100
AcDbEntity
100
AcDbLine
  8
HACHURE
 62
5
370
-1
  6
CONTINUOUS
 10
79.9466050000000052
 20
215.9187890000000039
 30
0.0
 11
75.6096289999999982
 21
204.0030460000000119
 31
0.0
  0
LINE
  5
C4
100
AcDbEntity
100
AcDbLine
  8
HACHURE
 62
5
370
-1
  6
CONTINUOUS
 10
75.6095750000000066
 20
196.5746059999999886
 30
0.0
 11
82.6501130000000046
 21
215.91832500000001
 31
0.0
  0
LINE
  5
C5
100
AcDbEntity
100
AcDbLine
  8
HACHURE
 62
5
370
-1
  6
CONTINUOUS
 10
85.3531540000000035
 20
215.9188629999999876
 30
0.0
 11
75.6095880000000022
 21
189.1486360000000104
 31
0.0
  0
LINE
  5
C6
100
AcDbEntity
100
AcDbLine
  8
HACHURE
 62
5
370
-1
  6
CONTINUOUS
 10
76.0451419999999985
 20
182.9193050000000085
 30
0.0
 11
80.6092409999999973
 21
195.4590629999999862
 31
0.0
  0
LINE
  5
C7
100
AcDbEntity
100
AcDbLine
  8
HACHURE
 62
5
370
-1
  6
CONTINUOUS
 10
81.4445180000000022
 20
197.7539679999999862
 30
0.0
 11
81.609382999999994
 21
198.2069290000000024
 31
0.0
  0
LINE
  5
C8
100
AcDbEntity
100
AcDbLine
  8
HACHURE
 62
5
370
-1
  6
CONTINUOUS
 10
84.241067000000001
 20
205.4374239999999929
 30
0.0
 11
88.0559279999999944
 21
215.9186669999999992
 31
0.0
  0
LINE
  5
C9
100
AcDbEntity
100
AcDbLine
  8
HACHURE
 62
5
370
-1
  6
CONTINUOUS
 10
90.7587019999999995
 20
215.9184710000000109
 30
0.0
 11
86.949986999999993
 21
205.4541130000000067
 31
0.0
  0
LINE
  5
CA
100
AcDbEntity
100
AcDbLine
  8
HACHURE
 62
5
370
-1
  6
CONTINUOUS
 10
80.6097879999999947
 20
188.0345609999999965
 30
0.0
 11
78.7481839999999949
 21
182.919842999999986
 31
0.0
  0
LINE
  5
CB
100
AcDbEntity
100
AcDbLine
  8
HACHURE
 62
5
370
-1
  6
CONTINUOUS
 10
81.4509570000000025
 20
182.9196469999999977
 30
0.0
 11
81.6096759999999932
 21
183.3557230000000118
 31
0.0
  0
LINE
  5
CC
100
AcDbEntity
100
AcDbLine
  8
HACHURE
 62
5
370
-1
  6
CONTINUOUS
 10
89.1835520000000059
 20
204.1647759999999892
 30
0.0
 11
93.4617429999999985
 21
215.9190089999999884
 31
0.0
  0
LINE
  5
CD
100
AcDbEntity
100
AcDbLine
  8
HACHURE
 62
5
370
-1
  6
CONTINUOUS
 10
96.1652509999999978
 20
215.9185449999999946
 30
0.0
 11
89.6126260000000059
 21
197.9153560000000027
 31
0.0
  0
LINE
  5
CE
100
AcDbEntity
100
AcDbLine
  8
HACHURE
 62
5
370
-1
  6
CONTINUOUS
 10
90.6093070000000012
 20
193.2277090000000044
 30
0.0
 11
95.6097479999999962
 21
206.9663089999999954
 31
0.0
  0
LINE
  5
CF
100
AcDbEntity
100
AcDbLine
  8
HACHURE
 62
5
370
-1
  6
CONTINUOUS
 10
97.4123019999999968
 20
211.9187819999999931
 30
0.0
 11
97.6094970000000046
 21
212.4605740000000083
 31
0.0
  0
LINE
  5
D0
100
AcDbEntity
100
AcDbLine
  8
HACHURE
 62
5
370
-1
  6
CONTINUOUS
 10
95.6100289999999973
 20
199.5410730000000115
 30
0.0
 11
90.609854999999996
 21
185.8032069999999862
 31
0.0
  0
LINE
  5
D1
100
AcDbEntity
100
AcDbLine
  8
HACHURE
 62
5
370
-1
  6
CONTINUOUS
 10
89.9242109999999997
 20
183.9194170000000099
 30
0.0
 11
89.6099799999999931
 21
183.0560739999999953
 31
0.0
  0
LINE
  5
D2
100
AcDbEntity
100
AcDbLine
  8
HACHURE
 62
5
370
-1
  6
CONTINUOUS
 10
92.2630539999999968
 20
182.9193290000000047
 30
0.0
 11
95.6100420000000071
 21
192.1151020000000074
 31
0.0
  0
LINE
  5
D3
100
AcDbEntity
100
AcDbLine
  8
HACHURE
 62
5
370
-1
  6
CONTINUOUS
 10
95.6103219999999965
 20
184.689865999999995
 30
0.0
 11
94.9658280000000019
 21
182.919132999999988
 31
0.0
  0
ENDBLK
  5
D4
100
AcDbEntity
  8
0
100
AcDbBlockEnd
  0
BLOCK
  5
D5
100
AcDbEntity
  8
0
100
AcDbBlockBegin
  2
DESENS-G13
 70
0
 10
0.0
 20
0.0
 30
0.0
  3
DESENS-G13
  1

  0
LINE
  5
D6
100
AcDbEntity
100
AcDbLine
  8
HACHURE
 62
5
370
-1
  6
CONTINUOUS
 10
117.7702160000000049
 20
184.5475169999999991
 30
0.0
 11
115.4489920000000041
 21
184.5475169999999991
 31
0.0
  0
LINE
  5
D7
100
AcDbEntity
100
AcDbLine
  8
HACHURE
 62
5
370
-1
  6
CONTINUOUS
 10
114.6258150000000029
 20
183.172647000000012
 30
0.0
 11
118.5933930000000061
 21
183.172647000000012
 31
0.0
  0
LINE
  5
D8
100
AcDbEntity
100
AcDbLine
  8
HACHURE
 62
5
370
-1
  6
CONTINUOUS
 10
118.2659189999999967
 20
181.7979080000000067
 30
0.0
 11
114.9532889999999981
 21
181.7979080000000067
 31
0.0
  0
LINE
  5
D9
100
AcDbEntity
100
AcDbLine
  8
HACHURE
 62
5
370
-1
  6
CONTINUOUS
 10
116.4616800000000012
 20
184.9133270000000095
 30
0.0
 11
114.8083599999999933
 21
182.0496929999999907
 31
0.0
  0
LINE
  5
DA
100
AcDbEntity
100
AcDbLine
  8
HACHURE
 62
5
370
-1
  6
CONTINUOUS
 10
115.8335370000000069
 20
181.0756120000000067
 30
0.0
 11
117.8178470000000004
 21
184.5125380000000064
 31
0.0
  0
LINE
  5
DB
100
AcDbEntity
100
AcDbLine
  8
HACHURE
 62
5
370
-1
  6
CONTINUOUS
 10
118.5997469999999936
 20
183.1173499999999876
 30
0.0
 11
117.4328200000000066
 21
181.0961729999999932
 31
0.0
  0
ENDBLK
  5
DC
100
AcDbEntity
  8
0
100
AcDbBlockEnd
  0
BLOCK
  5
DD
100
AcDbEntity
  8
0
100
AcDbBlockBegin
  2
DESENS-G14
 70
0
 10
0.0
 20
0.0
 30
0.0
  3
DESENS-G14
  1

  0
LINE
  5
DE
100
AcDbEntity
100
AcDbLine
  8
HACHURE
 62
5
370
-1
  6
CONTINUOUS
 10
164.6087980000000073
 20
201.9964109999999948
 30
0.0
 11
158.880281999999994
 21
211.9184919999999863
 31
0.0
  0
LINE
  5
DF
100
AcDbEntity
100
AcDbLine
  8
HACHURE
 62
5
370
-1
  6
CONTINUOUS
 10
157.9992650000000083
 20
203.918941999999987
 30
0.0
 11
164.6091289999999958
 21
192.4703230000000076
 31
0.0
  0
LINE
  5
E0
100
AcDbEntity
100
AcDbLine
  8
HACHURE
 62
5
370
-1
  6
CONTINUOUS
 10
164.6094600000000128
 20
182.9442349999999919
 30
0.0
 11
154.6101920000000121
 21
200.2634740000000022
 31
0.0
  0
LINE
  5
E1
100
AcDbEntity
100
AcDbLine
  8
HACHURE
 62
5
370
-1
  6
CONTINUOUS
 10
154.6105230000000006
 20
190.7373859999999866
 30
0.0
 11
164.3204839999999933
 21
173.9192400000000021
 31
0.0
  0
LINE
  5
E2
100
AcDbEntity
100
AcDbLine
  8
HACHURE
 62
5
370
-1
  6
CONTINUOUS
 10
158.8208150000000103
 20
173.9194320000000005
 30
0.0
 11
154.6106100000000083
 21
181.2117210000000114
 31
0.0
  0
LINE
  5
E3
100
AcDbEntity
100
AcDbLine
  8
HACHURE
 62
5
370
-1
  6
CONTINUOUS
 10
152.1668500000000108
 20
175.9189240000000041
 30
0.0
 11
153.3211459999999988
 21
173.9196230000000014
 31
0.0
  0
ENDBLK
  5
E4
100
AcDbEntity
  8
0
100
AcDbBlockEnd
  0
BLOCK
  5
E5
100
AcDbEntity
  8
0
100
AcDbBlockBegin
  2
DESENS-G15
 70
0
 10
0.0
 20
0.0
 30
0.0
  3
DESENS-G15
  1

  0
LINE
  5
E6
100
AcDbEntity
100
AcDbLine
  8
HACHURE
 62
5
370
-1
  6
CONTINUOUS
 10
151.3343150000000037
 20
189.9187450000000013
 30
0.0
 11
147.1586929999999995
 21
187.971620999999999
 31
0.0
  0
LINE
  5
E7
100
AcDbEntity
100
AcDbLine
  8
HACHURE
 62
5
370
-1
  6
CONTINUOUS
 10
147.183589000000012
 20
185.5308660000000032
 30
0.0
 11
153.8765239999999892
 21
188.6518320000000131
 31
0.0
  0
LINE
  5
E8
100
AcDbEntity
100
AcDbLine
  8
HACHURE
 62
5
370
-1
  6
CONTINUOUS
 10
154.6095339999999965
 20
186.5415659999999889
 30
0.0
 11
151.1292939999999874
 21
184.9187029999999936
 31
0.0
  0
LINE
  5
E9
100
AcDbEntity
100
AcDbLine
  8
HACHURE
 62
5
370
-1
  6
CONTINUOUS
 10
150.609659999999991
 20
184.6763929999999903
 30
0.0
 11
146.7286949999999877
 21
182.8666699999999992
 31
0.0
  0
LINE
  5
EA
100
AcDbEntity
100
AcDbLine
  8
HACHURE
 62
5
370
-1
  6
CONTINUOUS
 10
146.8955699999999922
 20
180.4921199999999999
 30
0.0
 11
150.6095860000000073
 21
182.2239940000000047
 31
0.0
  0
LINE
  5
EB
100
AcDbEntity
100
AcDbLine
  8
HACHURE
 62
5
370
-1
  6
CONTINUOUS
 10
153.0697470000000067
 20
180.9188220000000058
 30
0.0
 11
146.6707570000000089
 21
177.9349239999999952
 31
0.0
  0
LINE
  5
EC
100
AcDbEntity
100
AcDbLine
  8
HACHURE
 62
5
370
-1
  6
CONTINUOUS
 10
147.6059129999999868
 20
175.9189189999999883
 30
0.0
 11
154.6094390000000089
 21
179.1847170000000062
 31
0.0
  0
ENDBLK
  5
ED
100
AcDbEntity
  8
0
100
AcDbBlockEnd
  0
BLOCK
  5
EE
100
AcDbEntity
  8
0
100
AcDbBlockBegin
  2
DESENS-G16
 70
0
 10
0.0
 20
0.0
 30
0.0
  3
DESENS-G16
  1

  0
LINE
  5
EF
100
AcDbEntity
100
AcDbLine
  8
HACHURE
 62
5
370
-1
  6
CONTINUOUS
 10
153.5669609999999921
 20
184.6748609999999928
 30
0.0
 11
151.6522469999999885
 21
184.6748609999999928
 31
0.0
  0
LINE
  5
F0
100
AcDbEntity
100
AcDbLine
  8
HACHURE
 62
5
370
-1
  6
CONTINUOUS
 10
150.6462579999999889
 20
183.2999910000000057
 30
0.0
 11
154.5729499999999916
 21
183.2999910000000057
 31
0.0
  0
LINE
  5
F1
100
AcDbEntity
100
AcDbLine
  8
HACHURE
 62
5
370
-1
  6
CONTINUOUS
 10
154.3452159999999935
 20
181.9252510000000029
 30
0.0
 11
150.873991999999987
 21
181.9252510000000029
 31
0.0
  0
LINE
  5
F2
100
AcDbEntity
100
AcDbLine
  8
HACHURE
 62
5
370
-1
  6
CONTINUOUS
 10
152.138071999999994
 20
184.8624570000000062
 30
0.0
 11
150.6906759999999963
 21
182.3554939999999931
 31
0.0
  0
LINE
  5
F3
100
AcDbEntity
100
AcDbLine
  8
HACHURE
 62
5
370
-1
  6
CONTINUOUS
 10
151.6050459999999873
 20
181.1894900000000064
 30
0.0
 11
153.6049810000000093
 21
184.6534780000000069
 31
0.0
  0
LINE
  5
F4
100
AcDbEntity
100
AcDbLine
  8
HACHURE
 62
5
370
-1
  6
CONTINUOUS
 10
154.5243159999999989
 20
183.4963349999999878
 30
0.0
 11
153.0667640000000063
 21
180.9717809999999929
 31
0.0
  0
ENDBLK
  5
F5
100
AcDbEntity
  8
0
100
AcDbBlockEnd
  0
BLOCK
  5
F6
100
AcDbEntity
  8
0
100
AcDbBlockBegin
  2
DESENS-G17
 70
0
 10
0.0
 20
0.0
 30
0.0
  3
DESENS-G17
  1

  0
LINE
  5
F7
100
AcDbEntity
100
AcDbLine
  8
HACHURE
 62
5
370
-1
  6
CONTINUOUS
 10
143.2127069999999947
 20
210.9184720000000084
 30
0.0
 11
141.6095500000000129
 21
208.1417219999999872
 31
0.0
  0
LINE
  5
F8
100
AcDbEntity
100
AcDbLine
  8
HACHURE
 62
5
370
-1
  6
CONTINUOUS
 10
145.1465399999999875
 20
207.918217999999996
 30
0.0
 11
146.8789130000000114
 21
210.9187760000000083
 31
0.0
  0
LINE
  5
F9
100
AcDbEntity
100
AcDbLine
  8
HACHURE
 62
5
370
-1
  6
CONTINUOUS
 10
150.5448419999999885
 20
210.9185999999999979
 30
0.0
 11
148.6096530000000087
 21
207.5667550000000006
 31
0.0
  0
LINE
  5
FA
100
AcDbEntity
100
AcDbLine
  8
HACHURE
 62
5
370
-1
  6
CONTINUOUS
 10
148.6096060000000136
 20
201.2158159999999896
 30
0.0
 11
152.4451210000000003
 21
207.8591220000000135
 31
0.0
  0
LINE
  5
FB
100
AcDbEntity
100
AcDbLine
  8
HACHURE
 62
5
370
-1
  6
CONTINUOUS
 10
157.8774559999999951
 20
210.918452000000002
 30
0.0
 11
150.3718900000000076
 21
197.9184290000000033
 31
0.0
  0
LINE
  5
FC
100
AcDbEntity
100
AcDbLine
  8
HACHURE
 62
5
370
-1
  6
CONTINUOUS
 10
158.0387949999999933
 20
204.848148000000009
 30
0.0
 11
158.6093360000000132
 21
205.8363530000000026
 31
0.0
  0
ENDBLK
  5
FD
100
AcDbEntity
  8
0
100
AcDbBlockEnd
  0
BLOCK
  5
FE
100
AcDbEntity
  8
0
100
AcDbBlockBegin
  2
DESENS-G18
 70
0
 10
0.0
 20
0.0
 30
0.0
  3
DESENS-G18
  1

  0
LINE
  5
FF
100
AcDbEntity
100
AcDbLine
  8
HACHURE
 62
5
370
-1
  6
CONTINUOUS
 10
124.8646459999999934
 20
195.5800209999999879
 30
0.0
 11
123.2707599999999957
 21
197.173907000000014
 31
0.0
  0
LINE
  5
100
100
AcDbEntity
100
AcDbLine
  8
HACHURE
 62
5
370
-1
  6
CONTINUOUS
 10
122.5005979999999965
 20
196.5970489999999984
 30
0.0
 11
124.2877869999999945
 21
194.8098599999999863
 31
0.0
  0
LINE
  5
101
100
AcDbEntity
100
AcDbLine
  8
HACHURE
 62
5
370
-1
  6
CONTINUOUS
 10
122.9547120000000007
 20
194.7959160000000054
 30
0.0
 11
122.4866540000000015
 21
195.2639729999999929
 31
0.0
  0
ENDBLK
  5
102
100
AcDbEntity
  8
0
100
AcDbBlockEnd
  0
BLOCK
  5
103
100
AcDbEntity
  8
0
100
AcDbBlockBegin
  2
DESENS-G19
 70
0
 10
0.0
 20
0.0
 30
0.0
  3
DESENS-G19
  1

  0
LINE
  5
104
100
AcDbEntity
100
AcDbLine
  8
HACHURE
 62
5
370
-1
  6
CONTINUOUS
 10
146.8935510000000022
 20
201.7155730000000062
 30
0.0
 11
145.406312000000014
 21
203.2028129999999919
 31
0.0
  0
LINE
  5
105
100
AcDbEntity
100
AcDbLine
  8
HACHURE
 62
5
370
-1
  6
CONTINUOUS
 10
144.5669080000000122
 20
202.6951970000000074
 30
0.0
 11
146.3859349999999893
 21
200.8761690000000044
 31
0.0
  0
LINE
  5
106
100
AcDbEntity
100
AcDbLine
  8
HACHURE
 62
5
370
-1
  6
CONTINUOUS
 10
145.2435900000000117
 20
200.6714949999999931
 30
0.0
 11
144.3622330000000034
 21
201.552851000000004
 31
0.0
  0
ENDBLK
  5
107
100
AcDbEntity
  8
0
100
AcDbBlockEnd
  0
BLOCK
  5
108
100
AcDbEntity
  8
0
100
AcDbBlockBegin
  2
DESENS-G20
 70
0
 10
0.0
 20
0.0
 30
0.0
  3
DESENS-G20
  1

  0
LINE
  5
109
100
AcDbEntity
100
AcDbLine
  8
HACHURE
 62
5
370
-1
  6
CONTINUOUS
 10
124.847290000000001
 20
207.5211830000000077
 30
0.0
 11
124.4496120000000019
 21
207.9188609999999926
 31
0.0
  0
LINE
  5
10A
100
AcDbEntity
100
AcDbLine
  8
HACHURE
 62
5
370
-1
  6
CONTINUOUS
 10
123.1025920000000013
 20
207.9188609999999926
 30
0.0
 11
124.2396710000000013
 21
206.7817819999999926
 31
0.0
  0
ENDBLK
  5
10B
100
AcDbEntity
  8
0
100
AcDbBlockEnd
  0
BLOCK
  5
10C
100
AcDbEntity
  8
0
100
AcDbBlockBegin
  2
DESENS-G21
 70
0
 10
0.0
 20
0.0
 30
0.0
  3
DESENS-G21
  1

  0
LINE
  5
10D
100
AcDbEntity
100
AcDbLine
  8
HACHURE
 62
5
370
-1
  6
CONTINUOUS
 10
146.7664839999999913
 20
189.9189269999999965
 30
0.0
 11
145.473684999999989
 21
191.2117259999999987
 31
0.0
  0
LINE
  5
10E
100
AcDbEntity
100
AcDbLine
  8
HACHURE
 62
5
370
-1
  6
CONTINUOUS
 10
144.6003039999999942
 20
190.7381190000000117
 30
0.0
 11
145.419479999999993
 21
189.9189430000000129
 31
0.0
  0
ENDBLK
  5
10F
100
AcDbEntity
  8
0
100
AcDbBlockEnd
  0
ENDSEC
  0
SECTION
  2
ENTITIES
  0
LINE
  5
110
100
AcDbEntity
100
AcDbLine
  8
RENFORCE
 62
256
370
-1
  6
ByLayer
 10
220.0
 20
10.0
 30
0.0
 11
410.0
 21
10.0
 31
0.0
  0
LINE
  5
111
100
AcDbEntity
100
AcDbLine
  8
RENFORCE
 62
256
370
-1
  6
ByLayer
 10
220.0
 20
40.0
 30
0.0
 11
410.0
 21
40.0
 31
0.0
  0
LINE
  5
112
100
AcDbEntity
100
AcDbLine
  8
RENFORCE
 62
256
370
-1
  6
ByLayer
 10
220.0
 20
40.0
 30
0.0
 11
220.0
 21
10.0
 31
0.0
  0
LINE
  5
113
100
AcDbEntity
100
AcDbLine
  8
RENFORCE
 62
256
370
-1
  6
ByLayer
 10
410.0
 20
40.0
 30
0.0
 11
410.0
 21
10.0
 31
0.0
  0
LINE
  5
114
100
AcDbEntity
100
AcDbLine
  8
FIN
 62
256
370
-1
  6
ByLayer
 10
220.0
 20
20.0
 30
0.0
 11
410.0
 21
20.0
 31
0.0
  0
LINE
  5
115
100
AcDbEntity
100
AcDbLine
  8
FIN
 62
256
370
-1
  6
ByLayer
 10
220.0
 20
30.0
 30
0.0
 11
260.0
 21
30.0
 31
0.0
  0
LINE
  5
116
100
AcDbEntity
100
AcDbLine
  8
FIN
 62
256
370
-1
  6
ByLayer
 10
260.0
 20
40.0
 30
0.0
 11
260.0
 21
10.0
 31
0.0
  0
LINE
  5
117
100
AcDbEntity
100
AcDbLine
  8
AXE
 62
256
370
-1
  6
ByLayer
 10
223.0
 20
25.0
 30
0.0
 11
257.0
 21
25.0
 31
0.0
  0
CIRCLE
  5
118
100
AcDbEntity
100
AcDbCircle
  8
FORT
 62
256
370
-1
  6
ByLayer
 10
249.4912073672424526
 20
25.0
 30
0.0
 40
3.0
  0
CIRCLE
  5
119
100
AcDbEntity
100
AcDbCircle
  8
FORT
 62
256
370
-1
  6
ByLayer
 10
249.4912073672424526
 20
25.0
 30
0.0
 40
1.4142135623730951
  0
LINE
  5
11A
100
AcDbEntity
100
AcDbLine
  8
AXE
 62
256
370
-1
  6
ByLayer
 10
249.4912073672424526
 20
29.0
 30
0.0
 11
249.4912073672424526
 21
21.0
 31
0.0
  0
LINE
  5
11B
100
AcDbEntity
100
AcDbLine
  8
FORT
 62
256
370
-1
  6
ByLayer
 10
227.4912073672424526
 20
26.4142135623730958
 30
0.0
 11
227.4912073672424526
 21
23.5857864376269042
 31
0.0
  0
LINE
  5
11C
100
AcDbEntity
100
AcDbLine
  8
FORT
 62
256
370
-1
  6
ByLayer
 10
239.4912073672424526
 20
28.0
 30
0.0
 11
239.4912073672424526
 21
22.0
 31
0.0
  0
LINE
  5
11D
100
AcDbEntity
100
AcDbLine
  8
FORT
 62
256
370
-1
  6
ByLayer
 10
239.4912073672424526
 20
28.0
 30
0.0
 11
227.4912073672424526
 21
26.4142135623730958
 31
0.0
  0
LINE
  5
11E
100
AcDbEntity
100
AcDbLine
  8
FORT
 62
256
370
-1
  6
ByLayer
 10
239.4912073672424526
 20
22.0
 30
0.0
 11
227.4912073672424526
 21
23.5857864376269042
 31
0.0
  0
MTEXT
  5
11F
100
AcDbEntity
100
AcDbMText
  8
TEXTE
 62
7
370
-1
  6
CONTINUOUS
 10
228.5955338097676304
 20
32.3186510000000027
 30
0.0
 40
5.0
 41
100.0
 71
7
 72
2
  1
Ech.\~1:1
  7
ISO9
 50
0.0
 73
1
 44
1.0
  0
LINE
  5
120
100
AcDbEntity
100
AcDbLine
  8
FORT
 62
256
370
-1
  6
ByLayer
 10
410.0
 20
40.0
 30
0.0
 11
410.0
 21
287.0
 31
0.0
  0
LINE
  5
121
100
AcDbEntity
100
AcDbLine
  8
FORT
 62
256
370
-1
  6
ByLayer
 10
220.0
 20
10.0
 30
0.0
 11
13.0
 21
10.0
 31
0.0
  0
LINE
  5
122
100
AcDbEntity
100
AcDbLine
  8
FORT
 62
256
370
-1
  6
ByLayer
 10
13.0
 20
287.0
 30
0.0
 11
410.0
 21
287.0
 31
0.0
  0
LINE
  5
123
100
AcDbEntity
100
AcDbLine
  8
FORT
 62
256
370
-1
  6
ByLayer
 10
13.0
 20
10.0
 30
0.0
 11
13.0
 21
287.0
 31
0.0
  0
LINE
  5
124
100
AcDbEntity
100
AcDbLine
  8
FIN
 62
5
370
-1
  6
CONTINUOUS
 10
220.0
 20
58.0
 30
0.0
 11
410.0
 21
58.0
 31
0.0
  0
LINE
  5
125
100
AcDbEntity
100
AcDbLine
  8
FIN
 62
5
370
-1
  6
CONTINUOUS
 10
220.0
 20
76.0
 30
0.0
 11
410.0
 21
76.0
 31
0.0
  0
LINE
  5
126
100
AcDbEntity
100
AcDbLine
  8
FORT
 62
7
370
-1
  6
CONTINUOUS
 10
220.0
 20
49.0
 30
0.0
 11
410.0
 21
49.0
 31
0.0
  0
LINE
  5
127
100
AcDbEntity
100
AcDbLine
  8
FIN
 62
5
370
-1
  6
CONTINUOUS
 10
220.0
 20
85.0
 30
0.0
 11
410.0
 21
85.0
 31
0.0
  0
LINE
  5
128
100
AcDbEntity
100
AcDbLine
  8
FIN
 62
5
370
-1
  6
CONTINUOUS
 10
220.0
 20
94.0
 30
0.0
 11
410.0
 21
94.0
 31
0.0
  0
LINE
  5
129
100
AcDbEntity
100
AcDbLine
  8
FIN
 62
5
370
-1
  6
CONTINUOUS
 10
220.0
 20
103.0
 30
0.0
 11
410.0
 21
103.0
 31
0.0
  0
LINE
  5
12A
100
AcDbEntity
100
AcDbLine
  8
FIN
 62
5
370
-1
  6
CONTINUOUS
 10
220.0
 20
112.0
 30
0.0
 11
410.0
 21
112.0
 31
0.0
  0
LINE
  5
12B
100
AcDbEntity
100
AcDbLine
  8
FIN
 62
5
370
-1
  6
CONTINUOUS
 10
220.0
 20
121.0
 30
0.0
 11
410.0
 21
121.0
 31
0.0
  0
LINE
  5
12C
100
AcDbEntity
100
AcDbLine
  8
FIN
 62
5
370
-1
  6
CONTINUOUS
 10
220.0
 20
130.0
 30
0.0
 11
410.0
 21
130.0
 31
0.0
  0
LINE
  5
12D
100
AcDbEntity
100
AcDbLine
  8
FIN
 62
5
370
-1
  6
CONTINUOUS
 10
220.0
 20
139.0
 30
0.0
 11
410.0
 21
139.0
 31
0.0
  0
MTEXT
  5
12E
100
AcDbEntity
100
AcDbMText
  8
TEXTE
 62
7
370
-1
  6
CONTINUOUS
 10
222.0
 20
42.0
 30
0.0
 40
5.0
 41
100.0
 71
7
 72
2
  1
REP.
  7
ISO9
 50
0.0
 73
1
 44
1.0
  0
MTEXT
  5
12F
100
AcDbEntity
100
AcDbMText
  8
TEXTE
 62
7
370
-1
  6
CONTINUOUS
 10
239.0
 20
42.0
 30
0.0
 40
5.0
 41
100.0
 71
7
 72
2
  1
NB.
  7
ISO9
 50
0.0
 73
1
 44
1.0
  0
MTEXT
  5
130
100
AcDbEntity
100
AcDbMText
  8
TEXTE
 62
7
370
-1
  6
CONTINUOUS
 10
226.0
 20
51.0
 30
0.0
 40
5.0
 41
100.0
 71
7
 72
2
  1
1
  7
ISO9
 50
0.0
 73
1
 44
1.0
  0
MTEXT
  5
131
100
AcDbEntity
100
AcDbMText
  8
TEXTE
 62
7
370
-1
  6
CONTINUOUS
 10
241.0
 20
51.0
 30
0.0
 40
5.0
 41
100.0
 71
7
 72
2
  1
1
  7
ISO9
 50
0.0
 73
1
 44
1.0
  0
MTEXT
  5
132
100
AcDbEntity
100
AcDbMText
  8
TEXTE
 62
7
370
-1
  6
CONTINUOUS
 10
226.0
 20
64.5
 30
0.0
 40
5.0
 41
100.0
 71
7
 72
2
  1
2
  7
ISO9
 50
0.0
 73
1
 44
1.0
  0
MTEXT
  5
133
100
AcDbEntity
100
AcDbMText
  8
TEXTE
 62
7
370
-1
  6
CONTINUOUS
 10
241.0
 20
64.5
 30
0.0
 40
5.0
 41
100.0
 71
7
 72
2
  1
1
  7
ISO9
 50
0.0
 73
1
 44
1.0
  0
MTEXT
  5
134
100
AcDbEntity
100
AcDbMText
  8
TEXTE
 62
7
370
-1
  6
CONTINUOUS
 10
267.4193940000000111
 20
42.1000000000000014
 30
0.0
 40
5.0
 41
100.0
 71
7
 72
2
  1
DESIGNATION
  7
ISO9
 50
0.0
 73
1
 44
1.0
  0
MTEXT
  5
135
100
AcDbEntity
100
AcDbMText
  8
TEXTE
 62
7
370
-1
  6
CONTINUOUS
 10
226.0
 20
105.0
 30
0.0
 40
5.0
 41
100.0
 71
7
 72
2
  1
6
  7
ISO9
 50
0.0
 73
1
 44
1.0
  0
MTEXT
  5
136
100
AcDbEntity
100
AcDbMText
  8
TEXTE
 62
7
370
-1
  6
CONTINUOUS
 10
241.0
 20
105.0
 30
0.0
 40
5.0
 41
100.0
 71
7
 72
2
  1
1
  7
ISO9
 50
0.0
 73
1
 44
1.0
  0
MTEXT
  5
137
100
AcDbEntity
100
AcDbMText
  8
TEXTE
 62
7
370
-1
  6
CONTINUOUS
 10
226.0
 20
78.0
 30
0.0
 40
5.0
 41
100.0
 71
7
 72
2
  1
3
  7
ISO9
 50
0.0
 73
1
 44
1.0
  0
MTEXT
  5
138
100
AcDbEntity
100
AcDbMText
  8
TEXTE
 62
7
370
-1
  6
CONTINUOUS
 10
226.0
 20
87.0
 30
0.0
 40
5.0
 41
100.0
 71
7
 72
2
  1
4
  7
ISO9
 50
0.0
 73
1
 44
1.0
  0
MTEXT
  5
139
100
AcDbEntity
100
AcDbMText
  8
TEXTE
 62
7
370
-1
  6
CONTINUOUS
 10
226.0
 20
96.0
 30
0.0
 40
5.0
 41
100.0
 71
7
 72
2
  1
5
  7
ISO9
 50
0.0
 73
1
 44
1.0
  0
MTEXT
  5
13A
100
AcDbEntity
100
AcDbMText
  8
TEXTE
 62
7
370
-1
  6
CONTINUOUS
 10
241.0
 20
78.0
 30
0.0
 40
5.0
 41
100.0
 71
7
 72
2
  1
1
  7
ISO9
 50
0.0
 73
1
 44
1.0
  0
MTEXT
  5
13B
100
AcDbEntity
100
AcDbMText
  8
TEXTE
 62
7
370
-1
  6
CONTINUOUS
 10
241.0
 20
87.0
 30
0.0
 40
5.0
 41
100.0
 71
7
 72
2
  1
1
  7
ISO9
 50
0.0
 73
1
 44
1.0
  0
MTEXT
  5
13C
100
AcDbEntity
100
AcDbMText
  8
TEXTE
 62
7
370
-1
  6
CONTINUOUS
 10
241.0
 20
96.0
 30
0.0
 40
5.0
 41
100.0
 71
7
 72
2
  1
1
  7
ISO9
 50
0.0
 73
1
 44
1.0
  0
MTEXT
  5
13D
100
AcDbEntity
100
AcDbMText
  8
TEXTE
 62
7
370
-1
  6
CONTINUOUS
 10
226.0
 20
114.0
 30
0.0
 40
5.0
 41
100.0
 71
7
 72
2
  1
7
  7
ISO9
 50
0.0
 73
1
 44
1.0
  0
MTEXT
  5
13E
100
AcDbEntity
100
AcDbMText
  8
TEXTE
 62
7
370
-1
  6
CONTINUOUS
 10
226.0
 20
123.0
 30
0.0
 40
5.0
 41
100.0
 71
7
 72
2
  1
8
  7
ISO9
 50
0.0
 73
1
 44
1.0
  0
MTEXT
  5
13F
100
AcDbEntity
100
AcDbMText
  8
TEXTE
 62
7
370
-1
  6
CONTINUOUS
 10
226.0
 20
132.0
 30
0.0
 40
5.0
 41
100.0
 71
7
 72
2
  1
9
  7
ISO9
 50
0.0
 73
1
 44
1.0
  0
MTEXT
  5
140
100
AcDbEntity
100
AcDbMText
  8
TEXTE
 62
7
370
-1
  6
CONTINUOUS
 10
241.0
 20
114.0
 30
0.0
 40
5.0
 41
100.0
 71
7
 72
2
  1
1
  7
ISO9
 50
0.0
 73
1
 44
1.0
  0
MTEXT
  5
141
100
AcDbEntity
100
AcDbMText
  8
TEXTE
 62
7
370
-1
  6
CONTINUOUS
 10
241.0
 20
123.0
 30
0.0
 40
5.0
 41
100.0
 71
7
 72
2
  1
1
  7
ISO9
 50
0.0
 73
1
 44
1.0
  0
MTEXT
  5
142
100
AcDbEntity
100
AcDbMText
  8
TEXTE
 62
7
370
-1
  6
CONTINUOUS
 10
241.0
 20
132.0
 30
0.0
 40
5.0
 41
100.0
 71
7
 72
2
  1
1
  7
ISO9
 50
0.0
 73
1
 44
1.0
  0
MTEXT
  5
143
100
AcDbEntity
100
AcDbMText
  8
TEXTE
 62
7
370
-1
  6
CONTINUOUS
 10
241.0
 20
141.0
 30
0.0
 40
5.0
 41
100.0
 71
7
 72
2
  1
1
  7
ISO9
 50
0.0
 73
1
 44
1.0
  0
MTEXT
  5
144
100
AcDbEntity
100
AcDbMText
  8
TEXTE
 62
7
370
-1
  6
CONTINUOUS
 10
224.5
 20
141.0
 30
0.0
 40
5.0
 41
100.0
 71
7
 72
2
  1
10
  7
ISO9
 50
0.0
 73
1
 44
1.0
  0
MTEXT
  5
145
100
AcDbEntity
100
AcDbMText
  8
TEXTE
 62
7
370
-1
  6
CONTINUOUS
 10
374.9412619999999947
 20
42.0
 30
0.0
 40
5.0
 41
100.0
 71
7
 72
2
  1
OBS.
  7
ISO9
 50
0.0
 73
1
 44
1.0
  0
LINE
  5
146
100
AcDbEntity
100
AcDbLine
  8
FIN
 62
5
370
-1
  6
CONTINUOUS
 10
220.0
 20
148.0
 30
0.0
 11
410.0
 21
148.0
 31
0.0
  0
MTEXT
  5
147
100
AcDbEntity
100
AcDbMText
  8
TEXTE
 62
7
370
-1
  6
CONTINUOUS
 10
241.0
 20
150.0
 30
0.0
 40
5.0
 41
100.0
 71
7
 72
2
  1
1
  7
ISO9
 50
0.0
 73
1
 44
1.0
  0
MTEXT
  5
148
100
AcDbEntity
100
AcDbMText
  8
TEXTE
 62
7
370
-1
  6
CONTINUOUS
 10
224.5
 20
150.0
 30
0.0
 40
5.0
 41
100.0
 71
7
 72
2
  1
11
  7
ISO9
 50
0.0
 73
1
 44
1.0
  0
LINE
  5
149
100
AcDbEntity
100
AcDbLine
  8
FIN
 62
256
370
-1
  6
ByLayer
 10
220.0
 20
40.0
 30
0.0
 11
220.0
 21
157.0
 31
0.0
  0
MTEXT
  5
14A
100
AcDbEntity
100
AcDbMText
  8
TEXTE
 62
7
370
70
  6
CONTINUOUS
 10
234.0037869999999884
 20
11.9279770000000003
 30
0.0
 40
7.0
 41
100.0
 71
7
 72
2
  1
A3
  7
ISO9
 50
0.0
 73
1
 44
1.0
  0
MTEXT
  5
14B
100
AcDbEntity
100
AcDbMText
  8
TEXTE
 62
7
370
70
  6
CONTINUOUS
 10
270.0731559999999831
 20
27.0
 30
0.0
 40
7.0
 41
100.0
 71
7
 72
2
  1
BRIDE\~HYDRAULIQUE\~USINEE
  7
ISO9
 50
0.0
 73
1
 44
1.0
  0
MTEXT
  5
14C
100
AcDbEntity
100
AcDbMText
  8
TEXTE
 62
7
370
-1
  6
CONTINUOUS
 10
333.6341657639604819
 20
96.0
 30
0.0
 40
5.0
 41
100.0
 71
7
 72
2
  1
S\~355
  7
ISO9
 50
0.0
 73
1
 44
1.0
  0
MTEXT
  5
14D
100
AcDbEntity
100
AcDbMText
  8
TEXTE
 62
7
370
-1
  6
CONTINUOUS
 10
333.6341657639604819
 20
87.0
 30
0.0
 40
5.0
 41
100.0
 71
7
 72
2
  1
C\~45
  7
ISO9
 50
0.0
 73
1
 44
1.0
  0
MTEXT
  5
14E
100
AcDbEntity
100
AcDbMText
  8
TEXTE
 62
7
370
-1
  6
CONTINUOUS
 10
333.6341657639604819
 20
78.0
 30
0.0
 40
5.0
 41
100.0
 71
7
 72
2
  1
C\~60
  7
ISO9
 50
0.0
 73
1
 44
1.0
  0
MTEXT
  5
14F
100
AcDbEntity
100
AcDbMText
  8
TEXTE
 62
7
370
-1
  6
CONTINUOUS
 10
333.6341657639604819
 20
105.0
 30
0.0
 40
5.0
 41
100.0
 71
7
 72
2
  1
C\~45
  7
ISO9
 50
0.0
 73
1
 44
1.0
  0
MTEXT
  5
150
100
AcDbEntity
100
AcDbMText
  8
TEXTE
 62
7
370
-1
  6
CONTINUOUS
 10
333.6341657639604819
 20
123.0
 30
0.0
 40
5.0
 41
100.0
 71
7
 72
2
  1
51\~Si\~7
  7
ISO9
 50
0.0
 73
1
 44
1.0
  0
MTEXT
  5
151
100
AcDbEntity
100
AcDbMText
  8
TEXTE
 62
7
370
-1
  6
CONTINUOUS
 10
333.6341657639604819
 20
114.0
 30
0.0
 40
5.0
 41
100.0
 71
7
 72
2
  1
C\~45
  7
ISO9
 50
0.0
 73
1
 44
1.0
  0
MTEXT
  5
152
100
AcDbEntity
100
AcDbMText
  8
TEXTE
 62
7
370
-1
  6
CONTINUOUS
 10
333.6341657639604819
 20
132.0
 30
0.0
 40
5.0
 41
100.0
 71
7
 72
2
  1
C\~35
  7
ISO9
 50
0.0
 73
1
 44
1.0
  0
MTEXT
  5
153
100
AcDbEntity
100
AcDbMText
  8
TEXTE
 62
7
370
-1
  6
CONTINUOUS
 10
333.6341657639604819
 20
141.0
 30
0.0
 40
5.0
 41
100.0
 71
7
 72
2
  1
S\~355
  7
ISO9
 50
0.0
 73
1
 44
1.0
  0
MTEXT
  5
154
100
AcDbEntity
100
AcDbMText
  8
TEXTE
 62
7
370
-1
  6
CONTINUOUS
 10
364.2349965026711516
 20
78.0
 30
0.0
 40
5.0
 41
100.0
 71
7
 72
2
  1
Acier\~stub\~8
  7
ISO9
 50
0.0
 73
1
 44
1.0
  0
MTEXT
  5
155
100
AcDbEntity
100
AcDbMText
  8
TEXTE
 62
7
370
-1
  6
CONTINUOUS
 10
364.2349965026711516
 20
96.0
 30
0.0
 40
5.0
 41
100.0
 71
7
 72
2
  1
Bruni
  7
ISO9
 50
0.0
 73
1
 44
1.0
  0
MTEXT
  5
156
100
AcDbEntity
100
AcDbMText
  8
TEXTE
 62
7
370
-1
  6
CONTINUOUS
 10
364.2349965026711516
 20
87.0
 30
0.0
 40
5.0
 41
100.0
 71
7
 72
2
  1
Brunie
  7
ISO9
 50
0.0
 73
1
 44
1.0
  0
MTEXT
  5
157
100
AcDbEntity
100
AcDbMText
  8
TEXTE
 62
7
370
-1
  6
CONTINUOUS
 10
364.2349965026711516
 20
141.0
 30
0.0
 40
5.0
 41
100.0
 71
7
 72
2
  1
Bruni
  7
ISO9
 50
0.0
 73
1
 44
1.0
  0
LINE
  5
158
100
AcDbEntity
100
AcDbLine
  8
FIN
 62
256
370
-1
  6
ByLayer
 10
361.2349965026711516
 20
40.0
 30
0.0
 11
361.2349965026711516
 21
157.0
 31
0.0
  0
MTEXT
  5
159
100
AcDbEntity
100
AcDbMText
  8
TEXTE
 62
7
370
-1
  6
CONTINUOUS
 10
364.2349965026711516
 20
114.0
 30
0.0
 40
5.0
 41
100.0
 71
7
 72
2
  1
Tremp\U+00e9
  7
normallatin1
 50
0.0
 73
1
 44
1.0
  0
MTEXT
  5
15A
100
AcDbEntity
100
AcDbMText
  8
TEXTE
 62
7
370
-1
  6
CONTINUOUS
 10
364.2349965026711516
 20
105.0
 30
0.0
 40
5.0
 41
100.0
 71
7
 72
2
  1
Tremp\U+00e9
  7
normallatin1
 50
0.0
 73
1
 44
1.0
  0
LINE
  5
15B
100
AcDbEntity
100
AcDbLine
  8
FIN
 62
256
370
-1
  6
ByLayer
 10
235.9168844473491617
 20
40.0
 30
0.0
 11
235.9168844473491617
 21
157.0
 31
0.0
  0
LINE
  5
15C
100
AcDbEntity
100
AcDbLine
  8
FIN
 62
256
370
-1
  6
ByLayer
 10
249.3450825376077375
 20
40.0
 30
0.0
 11
249.3450825376077375
 21
157.0
 31
0.0
  0
MTEXT
  5
15D
100
AcDbEntity
100
AcDbMText
  8
TEXTE
 62
7
370
-1
  6
CONTINUOUS
 10
252.0569188541551569
 20
51.0
 30
0.0
 40
5.0
 41
100.0
 71
7
 72
2
  1
Ecrou\~HM,\~M10
  7
ISO9
 50
0.0
 73
1
 44
1.0
  0
MTEXT
  5
15E
100
AcDbEntity
100
AcDbMText
  8
TEXTE
 62
7
370
-1
  6
CONTINUOUS
 10
252.0569188541551569
 20
105.0
 30
0.0
 40
5.0
 41
100.0
 71
7
 72
2
  1
Piston
  7
ISO9
 50
0.0
 73
1
 44
1.0
  0
MTEXT
  5
15F
100
AcDbEntity
100
AcDbMText
  8
TEXTE
 62
7
370
-1
  6
CONTINUOUS
 10
252.0569188541551569
 20
96.0
 30
0.0
 40
5.0
 41
100.0
 71
7
 72
2
  1
Chapeau
  7
ISO9
 50
0.0
 73
1
 44
1.0
  0
MTEXT
  5
160
100
AcDbEntity
100
AcDbMText
  8
TEXTE
 62
7
370
-1
  6
CONTINUOUS
 10
252.0569188541551569
 20
87.0
 30
0.0
 40
5.0
 41
100.0
 71
7
 72
2
  1
Chape
  7
ISO9
 50
0.0
 73
1
 44
1.0
  0
MTEXT
  5
161
100
AcDbEntity
100
AcDbMText
  8
TEXTE
 62
7
370
-1
  6
CONTINUOUS
 10
252.0569188541551569
 20
141.0
 30
0.0
 40
5.0
 41
100.0
 71
7
 72
2
  1
Corps
  7
ISO9
 50
0.0
 73
1
 44
1.0
  0
MTEXT
  5
162
100
AcDbEntity
100
AcDbMText
  8
TEXTE
 62
7
370
-1
  6
CONTINUOUS
 10
252.0569188541551569
 20
123.0
 30
0.0
 40
5.0
 41
100.0
 71
7
 72
2
  1
Ressort
  7
ISO9
 50
0.0
 73
1
 44
1.0
  0
MTEXT
  5
163
100
AcDbEntity
100
AcDbMText
  8
TEXTE
 62
7
370
-1
  6
CONTINUOUS
 10
252.0569188541551569
 20
114.0
 30
0.0
 40
5.0
 41
100.0
 71
7
 72
2
  1
Levier
  7
ISO9
 50
0.0
 73
1
 44
1.0
  0
MTEXT
  5
164
100
AcDbEntity
100
AcDbMText
  8
TEXTE
 62
7
370
-1
  6
CONTINUOUS
 10
252.0569188541551569
 20
78.0
 30
0.0
 40
5.0
 41
100.0
 71
7
 72
2
  1
Axe
  7
ISO9
 50
0.0
 73
1
 44
1.0
  0
MTEXT
  5
165
100
AcDbEntity
100
AcDbMText
  8
TEXTE
 62
7
370
-1
  6
CONTINUOUS
 10
252.0569188541551569
 20
132.0
 30
0.0
 40
5.0
 41
100.0
 71
7
 72
2
  1
Vis\~\U+00e9paul\U+00e9e,\~M10
  7
normallatin1
 50
0.0
 73
1
 44
1.0
  0
MTEXT
  5
166
100
AcDbEntity
100
AcDbMText
  8
TEXTE
 62
7
370
-1
  6
CONTINUOUS
 10
252.0569188541551569
 20
150.0
 30
0.0
 40
5.0
 41
100.0
 71
7
 72
2
  1
Joint\~torique\~32,5x3,6
  7
ISO9
 50
0.0
 73
1
 44
1.0
  0
LINE
  5
167
100
AcDbEntity
100
AcDbLine
  8
FIN
 62
256
370
-1
  6
ByLayer
 10
329.6910846181156103
 20
40.0
 30
0.0
 11
329.6910846181156103
 21
157.0
 31
0.0
  0
MTEXT
  5
168
100
AcDbEntity
100
AcDbMText
  8
TEXTE
 62
7
370
-1
  6
CONTINUOUS
 10
251.8442016623701534
 20
60.8430729999999969
 30
0.0
 40
5.0
 41
100.0
 71
7
 72
2
  1
\U+00e0\~t\U+00e9ton\~court,\~M10-65
  7
normallatin1
 50
0.0
 73
1
 44
1.0
  0
MTEXT
  5
169
100
AcDbEntity
100
AcDbMText
  8
TEXTE
 62
7
370
-1
  6
CONTINUOUS
 10
332.0790426482017779
 20
42.0
 30
0.0
 40
5.0
 41
100.0
 71
7
 72
2
  1
MATIERE
  7
ISO9
 50
0.0
 73
1
 44
1.0
  0
MTEXT
  5
16A
100
AcDbEntity
100
AcDbMText
  8
TEXTE
 62
7
370
-1
  6
CONTINUOUS
 10
273.9517698345323424
 20
12.6947080000000003
 30
0.0
 40
5.0
 41
100.0
 71
7
 72
2
  1
Dessin\~d'ensemble\~et\~nomenclature
  7
ISO9
 50
0.0
 73
1
 44
1.0
  0
ARC
  5
16B
100
AcDbEntity
  8
FORT
 62
7
370
-1
  6
CONTINUOUS
100
AcDbCircle
 10
116.0
 20
93.9034584410066202
 30
0.0
 40
35.0
100
AcDbArc
 50
227.9213599999999929
 51
343.6836680000000115
  0
ARC
  5
16C
100
AcDbEntity
  8
FORT
 62
7
370
-1
  6
CONTINUOUS
100
AcDbCircle
 10
131.0
 20
40.9034584410065918
 30
0.0
 40
47.0
100
AcDbArc
 50
0.0
 51
95.494181999999995
  0
ARC
  5
16D
100
AcDbEntity
  8
FORT
 62
7
370
-1
  6
CONTINUOUS
100
AcDbCircle
 10
148.0
 20
40.9034584410065918
 30
0.0
 40
22.5
100
AcDbArc
 50
0.0
 51
159.1725030000000061
  0
LINE
  5
16E
100
AcDbEntity
100
AcDbLine
  8
FORT
 62
7
370
-1
  6
CONTINUOUS
 10
103.0
 20
48.9034584410066202
 30
0.0
 11
155.0
 21
48.9034584410066202
 31
0.0
  0
ARC
  5
16F
100
AcDbEntity
  8
FORT
 62
7
370
-1
  6
CONTINUOUS
100
AcDbCircle
 10
131.0
 20
40.9034584410065918
 30
0.0
 40
44.0
100
AcDbArc
 50
145.2135010000000079
 51
166.2244049999999902
  0
ARC
  5
170
100
AcDbEntity
  8
FORT
 62
7
370
-1
  6
CONTINUOUS
100
AcDbCircle
 10
131.0
 20
40.9034584410065918
 30
0.0
 40
47.0
100
AcDbArc
 50
109.2558619999999934
 51
170.1998100000000136
  0
LINE
  5
171
100
AcDbEntity
100
AcDbLine
  8
FORT
 62
7
370
-1
  6
CONTINUOUS
 10
95.0
 20
40.9034584410065918
 30
0.0
 11
95.0
 21
55.9034584410066202
 31
0.0
  0
LINE
  5
172
100
AcDbEntity
100
AcDbLine
  8
FORT
 62
7
370
-1
  6
CONTINUOUS
 10
103.0
 20
40.9034584410065918
 30
0.0
 11
103.0
 21
55.9034584410066202
 31
0.0
  0
ARC
  5
173
100
AcDbEntity
  8
FORT
 62
7
370
-1
  6
CONTINUOUS
100
AcDbCircle
 10
68.0
 20
40.9034584410065918
 30
0.0
 40
8.0
100
AcDbArc
 50
0.0
 51
180.0
  0
LINE
  5
174
100
AcDbEntity
100
AcDbLine
  8
FORT
 62
7
370
-1
  6
CONTINUOUS
 10
59.0
 20
48.9034584410066202
 30
0.0
 11
95.0
 21
48.9034584410066202
 31
0.0
  0
LINE
  5
175
100
AcDbEntity
100
AcDbLine
  8
FORT
 62
7
370
-1
  6
CONTINUOUS
 10
72.6188020000000023
 20
48.9034584410066202
 30
0.0
 11
77.2376050000000021
 21
40.9034584410065918
 31
0.0
  0
LINE
  5
176
100
AcDbEntity
100
AcDbLine
  8
FORT
 62
7
370
-1
  6
CONTINUOUS
 10
63.3811980000000048
 20
48.9034584410066202
 30
0.0
 11
72.6188020000000023
 21
48.9034584410066202
 31
0.0
  0
ARC
  5
177
100
AcDbEntity
  8
FORT
 62
7
370
-1
  6
CONTINUOUS
100
AcDbCircle
 10
68.0
 20
40.9034584410065918
 30
0.0
 40
5.0
100
AcDbArc
 50
0.0
 51
180.0
  0
LINE
  5
178
100
AcDbEntity
100
AcDbLine
  8
FORT
 62
7
370
-1
  6
CONTINUOUS
 10
33.4376980000000046
 20
40.9034584410065918
 30
0.0
 11
43.4376980000000046
 21
40.9034584410065918
 31
0.0
  0
LINE
  5
179
100
AcDbEntity
100
AcDbLine
  8
FORT
 62
7
370
-1
  6
CONTINUOUS
 10
38.1043650000000014
 20
31.4848474410065933
 30
0.0
 11
38.1043650000000014
 21
40.9034584410065918
 31
0.0
  0
MTEXT
  5
17A
100
AcDbEntity
100
AcDbMText
  8
TEXTE
 62
7
370
-1
  6
CONTINUOUS
 10
30.3691920000000017
 20
38.3197014410066004
 30
0.0
 40
5.0
 41
100.0
 71
9
 72
2
  1
A
  7
ISO9
 50
0.0
 73
1
 44
1.0
  0
LINE
  5
17B
100
AcDbEntity
100
AcDbLine
  8
FORT
 62
7
370
-1
  6
CONTINUOUS
 10
38.1043650000000014
 20
40.9034584410065918
 30
0.0
 11
37.1710320000000038
 21
38.1034584410066088
 31
0.0
  0
LINE
  5
17C
100
AcDbEntity
100
AcDbLine
  8
FORT
 62
7
370
-1
  6
CONTINUOUS
 10
38.1043650000000014
 20
40.9034584410065918
 30
0.0
 11
39.037698000000006
 21
38.1034584410066088
 31
0.0
  0
LINE
  5
17D
100
AcDbEntity
100
AcDbLine
  8
FORT
 62
7
370
-1
  6
CONTINUOUS
 10
59.0
 20
41.3150014410066149
 30
0.0
 11
59.0
 21
48.9034584410066202
 31
0.0
  0
LINE
  5
17E
100
AcDbEntity
100
AcDbLine
  8
FORT
 62
7
370
-1
  6
CONTINUOUS
 10
61.0
 20
44.7791034410065834
 30
0.0
 11
61.0
 21
48.9034584410066202
 31
0.0
  0
LINE
  5
17F
100
AcDbEntity
100
AcDbLine
  8
FORT
 62
7
370
-1
  6
CONTINUOUS
 10
58.7623960000000025
 20
40.9034584410065918
 30
0.0
 11
63.3811980000000048
 21
48.9034584410066202
 31
0.0
  0
LINE
  5
180
100
AcDbEntity
100
AcDbLine
  8
FORT
 62
7
370
-1
  6
CONTINUOUS
 10
44.4376980000000046
 20
40.9034584410065918
 30
0.0
 11
46.4376980000000046
 21
40.9034584410065918
 31
0.0
  0
LINE
  5
181
100
AcDbEntity
100
AcDbLine
  8
FORT
 62
7
370
-1
  6
CONTINUOUS
 10
47.4376980000000046
 20
40.9034584410065918
 30
0.0
 11
52.4376980000000046
 21
40.9034584410065918
 31
0.0
  0
LINE
  5
182
100
AcDbEntity
100
AcDbLine
  8
FORT
 62
7
370
-1
  6
CONTINUOUS
 10
67.4000000000000057
 20
40.9034584410065918
 30
0.0
 11
67.4000000000000057
 21
45.867328441006606
 31
0.0
  0
ARC
  5
183
100
AcDbEntity
  8
FIN
 62
5
370
-1
  6
CONTINUOUS
100
AcDbCircle
 10
68.0
 20
40.9034584410065918
 30
0.0
 40
4.0
100
AcDbArc
 50
90.0
 51
180.0
  0
LINE
  5
184
100
AcDbEntity
100
AcDbLine
  8
FIN
 62
5
370
-1
  6
CONTINUOUS
 10
56.2229230000000015
 20
38.4034584410065918
 30
0.0
 11
56.2229230000000015
 21
43.4034584410065918
 31
0.0
  0
LINE
  5
185
100
AcDbEntity
100
AcDbLine
  8
FIN
 62
5
370
-1
  6
CONTINUOUS
 10
54.7229230000000015
 20
38.4034584410065918
 30
0.0
 11
54.7229230000000015
 21
43.4034584410065918
 31
0.0
  0
LINE
  5
186
100
AcDbEntity
100
AcDbLine
  8
FORT
 62
7
370
-1
  6
CONTINUOUS
 10
68.5999999999999943
 20
40.9034584410065918
 30
0.0
 11
68.5999999999999943
 21
45.867328441006606
 31
0.0
  0
LINE
  5
187
100
AcDbEntity
100
AcDbLine
  8
FORT
 62
7
370
-1
  6
CONTINUOUS
 10
87.0
 20
48.9034584410066202
 30
0.0
 11
87.0
 21
49.9034584410066202
 31
0.0
  0
LINE
  5
188
100
AcDbEntity
100
AcDbLine
  8
FORT
 62
7
370
-1
  6
CONTINUOUS
 10
111.0
 20
48.9034584410066202
 30
0.0
 11
111.0
 21
49.9034584410066202
 31
0.0
  0
LWPOLYLINE
  5
189
  8
HACHURE
 62
5
370
-1
  6
CONTINUOUS
100
AcDbEntity
100
AcDbPolyline
 90
6
 70
1
 10
114.190131000000008
 20
43.3363784410065875
 10
114.7077730000000031
 20
45.9245914410065836
 10
114.2936590000000052
 20
48.9034584410066202
 10
103.0
 20
48.9034584410066202
 10
103.0
 20
40.9034584410065918
 10
114.5007159999999971
 20
40.9034584410065918
  0
INSERT
  5
18A
100
AcDbEntity
100
AcDbBlockReference
  8
HACHURE
 62
256
370
-1
  6
ByLayer
  2
DESENS-G1
 10
13.3903310000000033
 20
-16.4138065589934001
 30
0.0
  0
LWPOLYLINE
  5
18B
  8
HACHURE
 62
5
370
-1
  6
CONTINUOUS
100
AcDbEntity
100
AcDbPolyline
 90
6
 70
1
 10
95.0
 20
48.9034584410066202
 10
82.9927640000000082
 20
48.9034584410066202
 10
83.4068780000000061
 20
45.9245914410065836
 10
82.8892359999999968
 20
43.3363784410065875
 10
83.199821
 20
40.9034584410065918
 10
95.0
 20
40.9034584410065918
  0
INSERT
  5
18C
100
AcDbEntity
100
AcDbBlockReference
  8
HACHURE
 62
256
370
-1
  6
ByLayer
  2
DESENS-G2
 10
13.3903310000000033
 20
-16.4138065589934001
 30
0.0
  0
ARC
  5
18D
100
AcDbEntity
  8
FORT
 62
7
370
-1
  6
CONTINUOUS
100
AcDbCircle
 10
99.0
 20
40.9034584410065918
 30
0.0
 40
15.0
100
AcDbArc
 50
105.4660099999999971
 51
143.1301019999999937
  0
ARC
  5
18E
100
AcDbEntity
  8
FORT
 62
7
370
-1
  6
CONTINUOUS
100
AcDbCircle
 10
99.0
 20
40.9034584410065918
 30
0.0
 40
15.0
100
AcDbArc
 50
36.8698979999999992
 51
74.5339900000000029
  0
LWPOLYLINE
  5
18F
  8
HACHURE
 62
5
370
-1
  6
CONTINUOUS
100
AcDbEntity
100
AcDbPolyline
 90
4
 70
1
 10
95.0
 20
55.3602914410066091
 42
0.165836
 10
87.0
 20
49.9034584410066202
 10
87.0
 20
48.9034584410066202
 10
95.0
 20
48.9034584410066202
  0
INSERT
  5
190
100
AcDbEntity
100
AcDbBlockReference
  8
HACHURE
 62
256
370
-1
  6
ByLayer
  2
DESENS-G3
 10
13.3903310000000033
 20
-16.4138065589934001
 30
0.0
  0
LWPOLYLINE
  5
191
  8
HACHURE
 62
5
370
-1
  6
CONTINUOUS
100
AcDbEntity
100
AcDbPolyline
 90
4
 70
1
 10
103.0
 20
55.3602914410065807
 10
103.0
 20
48.9034584410066202
 10
111.0
 20
48.9034584410066202
 10
111.0
 20
49.9034584410066202
 42
0.165836
  0
INSERT
  5
192
100
AcDbEntity
100
AcDbBlockReference
  8
HACHURE
 62
256
370
-1
  6
ByLayer
  2
DESENS-G4
 10
13.3903310000000033
 20
-16.4138065589934001
 30
0.0
  0
LWPOLYLINE
  5
193
  8
FIN
 62
5
370
-1
  6
CONTINUOUS
100
AcDbEntity
100
AcDbPolyline
 90
4
 70
0
 10
114.2936590000000052
 20
48.9034584410066202
 10
114.7077730000000031
 20
45.9245914410065836
 10
114.190131000000008
 20
43.3363784410065875
 10
114.5007159999999971
 20
40.9034584410065918
  0
LWPOLYLINE
  5
194
  8
FIN
 62
5
370
-1
  6
CONTINUOUS
100
AcDbEntity
100
AcDbPolyline
 90
4
 70
0
 10
82.9927640000000082
 20
48.9034584410066202
 10
83.4068780000000061
 20
45.9245914410065836
 10
82.8892359999999968
 20
43.3363784410065875
 10
83.199821
 20
40.9034584410065918
  0
ARC
  5
195
100
AcDbEntity
  8
FORT
 62
7
370
-1
  6
CONTINUOUS
100
AcDbCircle
 10
121.0
 20
75.9034584410066202
 30
0.0
 40
5.5
100
AcDbArc
 50
180.0
 51
0.0
  0
LINE
  5
196
100
AcDbEntity
100
AcDbLine
  8
FORT
 62
7
370
-1
  6
CONTINUOUS
 10
115.5
 20
75.9034584410066202
 30
0.0
 11
115.5
 21
85.2740574410065904
 31
0.0
  0
LINE
  5
197
100
AcDbEntity
100
AcDbLine
  8
FORT
 62
7
370
-1
  6
CONTINUOUS
 10
126.5
 20
75.9034584410066202
 30
0.0
 11
126.5
 21
87.6875374410065831
 31
0.0
  0
LINE
  5
198
100
AcDbEntity
100
AcDbLine
  8
FORT
 62
7
370
-1
  6
CONTINUOUS
 10
95.0
 20
55.9034584410066202
 30
0.0
 11
96.0
 21
56.9034584410066202
 31
0.0
  0
LINE
  5
199
100
AcDbEntity
100
AcDbLine
  8
FORT
 62
7
370
-1
  6
CONTINUOUS
 10
102.0
 20
56.9034584410066202
 30
0.0
 11
103.0
 21
55.9034584410066202
 31
0.0
  0
LINE
  5
19A
100
AcDbEntity
100
AcDbLine
  8
FORT
 62
7
370
-1
  6
CONTINUOUS
 10
96.0
 20
56.9034584410066202
 30
0.0
 11
102.0
 21
56.9034584410066202
 31
0.0
  0
LINE
  5
19B
100
AcDbEntity
100
AcDbLine
  8
FORT
 62
7
370
-1
  6
CONTINUOUS
 10
95.0
 20
55.9034584410066202
 30
0.0
 11
103.0
 21
55.9034584410066202
 31
0.0
  0
MTEXT
  5
19C
100
AcDbEntity
100
AcDbMText
  8
TEXTE
 62
7
370
-1
  6
CONTINUOUS
 10
118.8830350000000067
 20
102.5706164410065924
 30
0.0
 40
5.0
 41
100.0
 71
7
 72
2
  1
B-B
  7
ISO9
 50
0.0
 73
1
 44
1.0
  0
ARC
  5
19D
100
AcDbEntity
  8
FORT
 62
7
370
-1
  6
CONTINUOUS
100
AcDbCircle
 10
131.0
 20
40.9034584410065918
 30
0.0
 40
44.0
100
AcDbArc
 50
0.0
 51
66.3915269999999964
  0
ARC
  5
19E
100
AcDbEntity
  8
FIN
 62
5
370
-1
  6
CONTINUOUS
100
AcDbCircle
 10
148.0
 20
40.9034584410065918
 30
0.0
 40
24.0
100
AcDbArc
 50
0.0
 51
90.0
  0
LINE
  5
19F
100
AcDbEntity
100
AcDbLine
  8
FORT
 62
7
370
-1
  6
CONTINUOUS
 10
203.3246980000000121
 20
40.9034584410065918
 30
0.0
 11
193.3246980000000121
 21
40.9034584410065918
 31
0.0
  0
LINE
  5
1A0
100
AcDbEntity
100
AcDbLine
  8
FORT
 62
7
370
-1
  6
CONTINUOUS
 10
153.0
 20
48.9034584410066202
 30
0.0
 11
153.0
 21
40.9034584410065918
 31
0.0
  0
LINE
  5
1A1
100
AcDbEntity
100
AcDbLine
  8
FORT
 62
7
370
-1
  6
CONTINUOUS
 10
155.0
 20
40.9034584410065918
 30
0.0
 11
155.0
 21
48.9034584410066202
 31
0.0
  0
ARC
  5
1A2
100
AcDbEntity
  8
FORT
 62
7
370
-1
  6
CONTINUOUS
100
AcDbCircle
 10
166.0
 20
40.9034584410065918
 30
0.0
 40
2.0
100
AcDbArc
 50
0.0
 51
180.0
  0
LINE
  5
1A3
100
AcDbEntity
100
AcDbLine
  8
FIN
 62
3
370
-1
  6
CONTINUOUS
 10
166.0
 20
40.9034584410065918
 30
0.0
 11
166.0
 21
44.7384504410065915
 31
0.0
  0
LINE
  5
1A4
100
AcDbEntity
100
AcDbLine
  8
FIN
 62
5
370
-1
  6
CONTINUOUS
 10
180.5394730000000152
 20
38.4034584410065918
 30
0.0
 11
180.5394730000000152
 21
43.4034584410065918
 31
0.0
  0
LINE
  5
1A5
100
AcDbEntity
100
AcDbLine
  8
FIN
 62
5
370
-1
  6
CONTINUOUS
 10
182.0394730000000152
 20
38.4034584410065918
 30
0.0
 11
182.0394730000000152
 21
43.4034584410065918
 31
0.0
  0
LINE
  5
1A6
100
AcDbEntity
100
AcDbLine
  8
FORT
 62
7
370
-1
  6
CONTINUOUS
 10
192.3246980000000121
 20
40.9034584410065918
 30
0.0
 11
190.3246980000000121
 21
40.9034584410065918
 31
0.0
  0
LINE
  5
1A7
100
AcDbEntity
100
AcDbLine
  8
FORT
 62
7
370
-1
  6
CONTINUOUS
 10
189.3246980000000121
 20
40.9034584410065918
 30
0.0
 11
184.3246980000000121
 21
40.9034584410065918
 31
0.0
  0
LINE
  5
1A8
100
AcDbEntity
100
AcDbLine
  8
FORT
 62
7
370
-1
  6
CONTINUOUS
 10
198.658030999999994
 20
31.4848474410065933
 30
0.0
 11
198.658030999999994
 21
40.9034584410065918
 31
0.0
  0
MTEXT
  5
1A9
100
AcDbEntity
100
AcDbMText
  8
TEXTE
 62
7
370
-1
  6
CONTINUOUS
 10
206.3932039999999972
 20
38.3197014410066004
 30
0.0
 40
5.0
 41
100.0
 71
7
 72
2
  1
A
  7
ISO9
 50
0.0
 73
1
 44
1.0
  0
LINE
  5
1AA
100
AcDbEntity
100
AcDbLine
  8
FORT
 62
7
370
-1
  6
CONTINUOUS
 10
198.658030999999994
 20
40.9034584410065918
 30
0.0
 11
199.5913639999999987
 21
38.1034584410066088
 31
0.0
  0
LINE
  5
1AB
100
AcDbEntity
100
AcDbLine
  8
FORT
 62
7
370
-1
  6
CONTINUOUS
 10
198.658030999999994
 20
40.9034584410065918
 30
0.0
 11
197.7246979999999894
 21
38.1034584410066088
 31
0.0
  0
LINE
  5
1AC
100
AcDbEntity
100
AcDbLine
  8
FIN
 62
5
370
-1
  6
CONTINUOUS
 10
103.9443140000000056
 20
157.0047360000000083
 30
0.0
 11
113.3903310000000033
 21
124.6160840000000007
 31
0.0
  0
LINE
  5
1AD
100
AcDbEntity
100
AcDbLine
  8
FIN
 62
5
370
-1
  6
CONTINUOUS
 10
193.3903310000000033
 20
124.6160840000000007
 30
0.0
 11
193.3903310000000033
 21
166.8665840000000173
 31
0.0
  0
LINE
  5
1AE
100
AcDbEntity
100
AcDbLine
  8
FIN
 62
5
370
-1
  6
CONTINUOUS
 10
153.3903310000000033
 20
124.6160840000000007
 30
0.0
 11
140.58936700000001
 21
153.8468269999999904
 31
0.0
  0
LINE
  5
1AF
100
AcDbEntity
100
AcDbLine
  8
FIN
 62
5
370
-1
  6
CONTINUOUS
 10
99.0084499999999963
 20
124.6160840000000007
 30
0.0
 11
102.5133830000000046
 21
142.0292420000000106
 31
0.0
  0
MTEXT
  5
1B0
100
AcDbEntity
100
AcDbMText
  8
TEXTE
 62
7
370
-1
  6
CONTINUOUS
 10
117.3903310000000033
 20
126.6160840000000007
 30
0.0
 40
5.0
 41
100.0
 71
7
 72
2
  1
9
  7
ISO9
 50
0.0
 73
1
 44
1.0
  0
LINE
  5
1B1
100
AcDbEntity
100
AcDbLine
  8
FORT
 62
7
370
-1
  6
CONTINUOUS
 10
113.3903310000000033
 20
124.6160840000000007
 30
0.0
 11
123.3903310000000033
 21
124.6160840000000007
 31
0.0
  0
LINE
  5
1B2
100
AcDbEntity
100
AcDbLine
  8
FORT
 62
7
370
-1
  6
CONTINUOUS
 10
193.3903310000000033
 20
124.6160840000000007
 30
0.0
 11
203.3903310000000033
 21
124.6160840000000007
 31
0.0
  0
MTEXT
  5
1B3
100
AcDbEntity
100
AcDbMText
  8
TEXTE
 62
7
370
-1
  6
CONTINUOUS
 10
155.8903310000000033
 20
126.6160840000000007
 30
0.0
 40
5.0
 41
100.0
 71
7
 72
2
  1
10
  7
ISO9
 50
0.0
 73
1
 44
1.0
  0
LINE
  5
1B4
100
AcDbEntity
100
AcDbLine
  8
FORT
 62
7
370
-1
  6
CONTINUOUS
 10
153.3903310000000033
 20
124.6160840000000007
 30
0.0
 11
163.3903310000000033
 21
124.6160840000000007
 31
0.0
  0
MTEXT
  5
1B5
100
AcDbEntity
100
AcDbMText
  8
TEXTE
 62
7
370
-1
  6
CONTINUOUS
 10
195.8903310000000033
 20
126.6160840000000007
 30
0.0
 40
5.0
 41
100.0
 71
7
 72
2
  1
11
  7
ISO9
 50
0.0
 73
1
 44
1.0
  0
LWPOLYLINE
  5
1B6
  8
HACHURE
 62
5
370
-1
  6
CONTINUOUS
100
AcDbEntity
100
AcDbPolyline
 90
22
 70
1
 10
128.0
 20
195.0
 10
122.5
 20
195.0
 10
122.5
 20
196.5
 10
124.0
 20
196.5
 10
124.0
 20
202.0
 10
125.5
 20
202.0
 10
125.5
 20
203.0
 10
109.0
 20
203.0
 10
109.0
 20
173.0
 10
107.0
 20
173.0
 10
107.0
 20
162.0
 10
111.0
 20
162.0
 10
111.0
 20
151.0
 10
178.0
 20
151.0
 10
178.0
 20
159.0
 10
163.0
 20
159.0
 10
163.0
 20
157.0
 10
133.0
 20
157.0
 10
133.0
 20
167.0
 10
126.5
 20
167.0
 10
126.5
 20
168.5
 10
128.0
 20
168.5
  0
INSERT
  5
1B7
100
AcDbEntity
100
AcDbBlockReference
  8
HACHURE
 62
256
370
-1
  6
ByLayer
  2
DESENS-G5
 10
13.3903310000000033
 20
-8.9188709999999958
 30
0.0
  0
LWPOLYLINE
  5
1B8
  8
HACHURE
 62
5
370
-1
  6
CONTINUOUS
100
AcDbEntity
100
AcDbPolyline
 90
15
 70
1
 10
134.0
 20
199.0
 10
141.0
 20
199.0
 10
141.0
 20
202.0
 10
132.0
 20
202.0
 10
132.0
 20
200.0
 10
130.0
 20
198.8453000000000088
 10
128.0
 20
200.0
 10
128.0
 20
202.0
 10
124.0
 20
202.0
 10
124.0
 20
196.5
 10
125.5
 20
195.0
 10
128.0
 20
195.0
 10
128.0
 20
192.0
 10
131.0
 20
189.0
 10
134.0
 20
189.0
  0
INSERT
  5
1B9
100
AcDbEntity
100
AcDbBlockReference
  8
HACHURE
 62
256
370
-1
  6
ByLayer
  2
DESENS-G6
 10
13.3903310000000033
 20
-8.9188709999999958
 30
0.0
  0
LWPOLYLINE
  5
1BA
  8
HACHURE
 62
5
370
-1
  6
CONTINUOUS
100
AcDbEntity
100
AcDbPolyline
 90
15
 70
1
 10
136.1032360000000097
 20
179.5420139999999947
 10
135.6813860000000034
 20
181.0
 10
130.0
 20
181.0
 10
128.0
 20
179.0
 10
128.0
 20
176.0
 10
132.0
 20
176.0
 10
132.0
 20
172.0
 10
128.0
 20
172.0
 10
128.0
 20
169.0
 10
130.0
 20
167.0
 10
135.7657560000000103
 20
167.0
 10
136.0610510000000204
 20
168.0255020000000172
 10
135.6813860000000034
 20
171.1050089999999955
 10
136.1876060000000166
 20
174.3110709999999983
 10
135.7657560000000103
 20
177.1374670000000151
  0
INSERT
  5
1BB
100
AcDbEntity
100
AcDbBlockReference
  8
HACHURE
 62
256
370
-1
  6
ByLayer
  2
DESENS-G7
 10
13.3903310000000033
 20
-8.9188709999999958
 30
0.0
  0
LINE
  5
1BC
100
AcDbEntity
100
AcDbLine
  8
FORT
 62
7
370
-1
  6
CONTINUOUS
 10
124.0
 20
202.0
 30
0.0
 11
142.0
 21
202.0
 31
0.0
  0
LINE
  5
1BD
100
AcDbEntity
100
AcDbLine
  8
FORT
 62
7
370
-1
  6
CONTINUOUS
 10
122.2990450000000067
 20
206.0
 30
0.0
 11
153.0
 21
206.0
 31
0.0
  0
LINE
  5
1BE
100
AcDbEntity
100
AcDbLine
  8
FORT
 62
7
370
-1
  6
CONTINUOUS
 10
142.0
 20
189.0
 30
0.0
 11
131.0
 21
189.0
 31
0.0
  0
LINE
  5
1BF
100
AcDbEntity
100
AcDbLine
  8
FORT
 62
7
370
-1
  6
CONTINUOUS
 10
128.0
 20
181.0
 30
0.0
 11
166.0
 21
181.0
 31
0.0
  0
LINE
  5
1C0
100
AcDbEntity
100
AcDbLine
  8
FORT
 62
7
370
-1
  6
CONTINUOUS
 10
126.5
 20
167.0
 30
0.0
 11
169.5
 21
167.0
 31
0.0
  0
LINE
  5
1C1
100
AcDbEntity
100
AcDbLine
  8
FORT
 62
7
370
-1
  6
CONTINUOUS
 10
61.0
 20
226.0
 30
0.0
 11
153.0
 21
226.0
 31
0.0
  0
LINE
  5
1C2
100
AcDbEntity
100
AcDbLine
  8
FORT
 62
7
370
-1
  6
CONTINUOUS
 10
84.0
 20
151.0
 30
0.0
 11
178.0
 21
151.0
 31
0.0
  0
LINE
  5
1C3
100
AcDbEntity
100
AcDbLine
  8
FORT
 62
7
370
-1
  6
CONTINUOUS
 10
109.0
 20
203.0
 30
0.0
 11
142.0
 21
203.0
 31
0.0
  0
LINE
  5
1C4
100
AcDbEntity
100
AcDbLine
  8
FIN
 62
5
370
-1
  6
CONTINUOUS
 10
135.8630289999999832
 20
200.5409950000000094
 30
0.0
 11
123.3903310000000033
 21
252.2764519999999777
 31
0.0
  0
LINE
  5
1C5
100
AcDbEntity
100
AcDbLine
  8
FORT
 62
7
370
-1
  6
CONTINUOUS
 10
133.0
 20
157.0
 30
0.0
 11
163.0
 21
157.0
 31
0.0
  0
LINE
  5
1C6
100
AcDbEntity
100
AcDbLine
  8
FORT
 62
7
370
-1
  6
CONTINUOUS
 10
142.0
 20
199.0
 30
0.0
 11
134.0
 21
199.0
 31
0.0
  0
LINE
  5
1C7
100
AcDbEntity
100
AcDbLine
  8
FORT
 62
7
370
-1
  6
CONTINUOUS
 10
133.3903310000000033
 20
252.2764519999999777
 30
0.0
 11
143.3903310000000033
 21
252.2764519999999777
 31
0.0
  0
LINE
  5
1C8
100
AcDbEntity
100
AcDbLine
  8
FORT
 62
7
370
-1
  6
CONTINUOUS
 10
73.0
 20
184.0
 30
0.0
 11
73.0
 21
226.0
 31
0.0
  0
LINE
  5
1C9
100
AcDbEntity
100
AcDbLine
  8
FORT
 62
7
370
-1
  6
CONTINUOUS
 10
63.0
 20
184.0
 30
0.0
 11
63.0
 21
226.0
 31
0.0
  0
LWPOLYLINE
  5
1CA
  8
HACHURE
 62
5
370
-1
  6
CONTINUOUS
100
AcDbEntity
100
AcDbPolyline
 90
6
 70
1
 10
63.0
 20
226.0
 10
61.0
 20
226.0
 10
59.0
 20
224.0
 10
59.0
 20
216.0
 10
61.0
 20
214.0
 10
63.0
 20
214.0
  0
INSERT
  5
1CB
100
AcDbEntity
100
AcDbBlockReference
  8
HACHURE
 62
256
370
-1
  6
ByLayer
  2
DESENS-G8
 10
13.3903310000000033
 20
-8.9188709999999958
 30
0.0
  0
LINE
  5
1CC
100
AcDbEntity
100
AcDbLine
  8
FORT
 62
7
370
-1
  6
CONTINUOUS
 10
59.0
 20
216.0
 30
0.0
 11
59.0
 21
224.0
 31
0.0
  0
MTEXT
  5
1CD
100
AcDbEntity
100
AcDbMText
  8
TEXTE
 62
7
370
-1
  6
CONTINUOUS
 10
29.3070750000000046
 20
215.5837580000000173
 30
0.0
 40
5.0
 41
100.0
 71
7
 72
2
  1
B
  7
ISO9
 50
0.0
 73
1
 44
1.0
  0
CIRCLE
  5
1CE
100
AcDbEntity
100
AcDbCircle
  8
FORT
 62
7
370
-1
  6
CONTINUOUS
 10
99.0
 20
218.0
 30
0.0
 40
4.0
  0
LWPOLYLINE
  5
1CF
  8
HACHURE
 62
5
370
-1
  6
CONTINUOUS
100
AcDbEntity
100
AcDbPolyline
 90
2
 70
1
 10
103.0
 20
218.0
 42
0.9999999999999999
 10
95.0
 20
218.0
 42
0.9999999999999999
  0
LWPOLYLINE
  5
1D0
  8
HACHURE
 62
5
370
-1
  6
CONTINUOUS
100
AcDbEntity
100
AcDbPolyline
 90
9
 70
1
 10
113.002713
 20
222.227373
 10
113.2920119999999997
 20
226.0
 10
73.0
 20
226.0
 10
73.0
 20
214.0
 10
85.0
 20
214.0
 10
94.2990450000000067
 20
210.0
 10
109.0971720000000005
 20
210.0
 10
110.9776180000000068
 20
213.9823430000000144
 10
111.4115670000000051
 20
218.4664820000000134
  0
INSERT
  5
1D1
100
AcDbEntity
100
AcDbBlockReference
  8
HACHURE
 62
256
370
-1
  6
ByLayer
  2
DESENS-G9
 10
13.3903310000000033
 20
-8.9188709999999958
 30
0.0
  0
LWPOLYLINE
  5
1D2
  8
HACHURE
 62
5
370
-1
  6
CONTINUOUS
100
AcDbEntity
100
AcDbPolyline
 90
2
 70
1
 10
103.0
 20
218.0
 42
0.9999999999999999
 10
95.0
 20
218.0
 42
0.9999999999999999
  0
INSERT
  5
1D3
100
AcDbEntity
100
AcDbBlockReference
  8
HACHURE
 62
256
370
-1
  6
ByLayer
  2
DESENS-G10
 10
13.3903310000000033
 20
-8.9188709999999958
 30
0.0
  0
LINE
  5
1D4
100
AcDbEntity
100
AcDbLine
  8
FIN
 62
5
370
-1
  6
CONTINUOUS
 10
72.0
 20
183.0
 30
0.0
 11
72.0
 21
226.0
 31
0.0
  0
LINE
  5
1D5
100
AcDbEntity
100
AcDbLine
  8
FIN
 62
5
370
-1
  6
CONTINUOUS
 10
64.0
 20
183.0
 30
0.0
 11
64.0
 21
226.0
 31
0.0
  0
LWPOLYLINE
  5
1D6
  8
FIN
 62
5
370
-1
  6
CONTINUOUS
100
AcDbEntity
100
AcDbPolyline
 90
5
 70
0
 10
109.0971720000000005
 20
210.0
 10
110.9776180000000068
 20
213.9823430000000144
 10
111.4115670000000051
 20
218.4664820000000134
 10
113.002713
 20
222.227373
 10
113.2920119999999997
 20
226.0
  0
LINE
  5
1D7
100
AcDbEntity
100
AcDbLine
  8
FORT
 62
7
370
-1
  6
CONTINUOUS
 10
73.0
 20
214.0
 30
0.0
 11
85.0
 21
214.0
 31
0.0
  0
MTEXT
  5
1D8
100
AcDbEntity
100
AcDbMText
  8
TEXTE
 62
7
370
-1
  6
CONTINUOUS
 10
58.6945180000000022
 20
157.4778280000000166
 30
0.0
 40
5.0
 41
100.0
 71
8
 72
2
  1
usiner
  7
ISO9
 50
0.0
 73
1
 44
1.0
  0
LINE
  5
1D9
100
AcDbEntity
100
AcDbLine
  8
FORT
 62
7
370
-1
  6
CONTINUOUS
 10
63.0
 20
184.0
 30
0.0
 11
73.0
 21
184.0
 31
0.0
  0
LINE
  5
1DA
100
AcDbEntity
100
AcDbLine
  8
FORT
 62
7
370
-1
  6
CONTINUOUS
 10
64.5
 20
182.5
 30
0.0
 11
71.5
 21
182.5
 31
0.0
  0
LINE
  5
1DB
100
AcDbEntity
100
AcDbLine
  8
FORT
 62
7
370
-1
  6
CONTINUOUS
 10
64.5
 20
180.5
 30
0.0
 11
71.5
 21
180.5
 31
0.0
  0
LINE
  5
1DC
100
AcDbEntity
100
AcDbLine
  8
FORT
 62
7
370
-1
  6
CONTINUOUS
 10
70.5
 20
179.5
 30
0.0
 11
65.5
 21
179.5
 31
0.0
  0
LINE
  5
1DD
100
AcDbEntity
100
AcDbLine
  8
FORT
 62
7
370
-1
  6
CONTINUOUS
 10
63.0
 20
184.0
 30
0.0
 11
64.5
 21
182.5
 31
0.0
  0
LINE
  5
1DE
100
AcDbEntity
100
AcDbLine
  8
FORT
 62
7
370
-1
  6
CONTINUOUS
 10
64.5
 20
180.5
 30
0.0
 11
65.5
 21
179.5
 31
0.0
  0
LINE
  5
1DF
100
AcDbEntity
100
AcDbLine
  8
FORT
 62
7
370
-1
  6
CONTINUOUS
 10
64.5
 20
180.5
 30
0.0
 11
64.5
 21
182.5
 31
0.0
  0
LINE
  5
1E0
100
AcDbEntity
100
AcDbLine
  8
FORT
 62
7
370
-1
  6
CONTINUOUS
 10
59.0
 20
216.0
 30
0.0
 11
61.0
 21
214.0
 31
0.0
  0
LINE
  5
1E1
100
AcDbEntity
100
AcDbLine
  8
FORT
 62
7
370
-1
  6
CONTINUOUS
 10
61.0
 20
214.0
 30
0.0
 11
63.0
 21
214.0
 31
0.0
  0
LINE
  5
1E2
100
AcDbEntity
100
AcDbLine
  8
FORT
 62
7
370
-1
  6
CONTINUOUS
 10
71.5
 20
182.5
 30
0.0
 11
73.0
 21
184.0
 31
0.0
  0
LINE
  5
1E3
100
AcDbEntity
100
AcDbLine
  8
FORT
 62
7
370
-1
  6
CONTINUOUS
 10
70.5
 20
179.5
 30
0.0
 11
71.5
 21
180.5
 31
0.0
  0
LINE
  5
1E4
100
AcDbEntity
100
AcDbLine
  8
FORT
 62
7
370
-1
  6
CONTINUOUS
 10
71.5
 20
180.5
 30
0.0
 11
71.5
 21
182.5
 31
0.0
  0
LWPOLYLINE
  5
1E5
  8
HACHURE
 62
5
370
-1
  6
CONTINUOUS
100
AcDbEntity
100
AcDbPolyline
 90
9
 70
1
 10
91.0
 20
173.0
 10
89.0
 20
173.0
 10
89.0
 20
203.0
 10
87.0
 20
203.0
 10
84.0
 20
200.0
 10
84.0
 20
151.0
 10
87.0
 20
151.0
 10
87.0
 20
162.0
 10
91.0
 20
162.0
  0
INSERT
  5
1E6
100
AcDbEntity
100
AcDbBlockReference
  8
HACHURE
 62
256
370
-1
  6
ByLayer
  2
DESENS-G11
 10
13.3903310000000033
 20
-8.9188709999999958
 30
0.0
  0
LINE
  5
1E7
100
AcDbEntity
100
AcDbLine
  8
FORT
 62
7
370
-1
  6
CONTINUOUS
 10
128.0
 20
195.0
 30
0.0
 11
128.0
 21
168.5
 31
0.0
  0
LINE
  5
1E8
100
AcDbEntity
100
AcDbLine
  8
FORT
 62
7
370
-1
  6
CONTINUOUS
 10
84.0
 20
151.0
 30
0.0
 11
84.0
 21
200.0
 31
0.0
  0
LINE
  5
1E9
100
AcDbEntity
100
AcDbLine
  8
FORT
 62
7
370
-1
  6
CONTINUOUS
 10
104.0
 20
175.0
 30
0.0
 11
104.0
 21
188.0
 31
0.0
  0
LINE
  5
1EA
100
AcDbEntity
100
AcDbLine
  8
FORT
 62
7
370
-1
  6
CONTINUOUS
 10
94.0
 20
188.0
 30
0.0
 11
94.0
 21
175.0
 31
0.0
  0
LINE
  5
1EB
100
AcDbEntity
100
AcDbLine
  8
FORT
 62
7
370
-1
  6
CONTINUOUS
 10
89.0
 20
173.0
 30
0.0
 11
89.0
 21
203.0
 31
0.0
  0
LINE
  5
1EC
100
AcDbEntity
100
AcDbLine
  8
FORT
 62
7
370
-1
  6
CONTINUOUS
 10
109.0
 20
173.0
 30
0.0
 11
109.0
 21
203.0
 31
0.0
  0
LWPOLYLINE
  5
1ED
  8
HACHURE
 62
5
370
-1
  6
CONTINUOUS
100
AcDbEntity
100
AcDbPolyline
 90
21
 70
1
 10
109.0
 20
203.0
 10
111.0
 20
203.0
 10
111.0
 20
207.0
 10
87.0
 20
207.0
 10
87.0
 20
203.0
 10
89.0
 20
203.0
 10
89.0
 20
174.0
 10
95.0
 20
174.0
 10
95.0
 20
175.0
 10
94.0
 20
175.0
 10
94.0
 20
188.0
 10
95.0
 20
189.0
 10
95.0
 20
195.0
 10
99.0
 20
197.3094010000000083
 10
103.0
 20
195.0
 10
103.0
 20
189.0
 10
104.0
 20
188.0
 10
104.0
 20
175.0
 10
103.0
 20
175.0
 10
103.0
 20
174.0
 10
109.0
 20
174.0
  0
INSERT
  5
1EE
100
AcDbEntity
100
AcDbBlockReference
  8
HACHURE
 62
256
370
-1
  6
ByLayer
  2
DESENS-G12
 10
13.3903310000000033
 20
-8.9188709999999958
 30
0.0
  0
LINE
  5
1EF
100
AcDbEntity
100
AcDbLine
  8
FIN
 62
5
370
-1
  6
CONTINUOUS
 10
103.0
 20
189.0
 30
0.0
 11
103.0
 21
175.0
 31
0.0
  0
LINE
  5
1F0
100
AcDbEntity
100
AcDbLine
  8
FIN
 62
5
370
-1
  6
CONTINUOUS
 10
95.0
 20
189.0
 30
0.0
 11
95.0
 21
175.0
 31
0.0
  0
LWPOLYLINE
  5
1F1
  8
HACHURE
 62
5
370
-1
  6
CONTINUOUS
100
AcDbEntity
100
AcDbPolyline
 90
2
 70
1
 10
132.0
 20
174.0
 42
0.9999999999999999
 10
128.0
 20
174.0
 42
0.9999999999999999
  0
INSERT
  5
1F2
100
AcDbEntity
100
AcDbBlockReference
  8
HACHURE
 62
256
370
-1
  6
ByLayer
  2
DESENS-G13
 10
13.3903310000000033
 20
-8.9188709999999958
 30
0.0
  0
CIRCLE
  5
1F3
100
AcDbEntity
100
AcDbCircle
  8
FORT
 62
7
370
-1
  6
CONTINUOUS
 10
130.0
 20
174.0
 30
0.0
 40
2.0
  0
LINE
  5
1F4
100
AcDbEntity
100
AcDbLine
  8
FORT
 62
7
370
-1
  6
CONTINUOUS
 10
128.0
 20
176.0
 30
0.0
 11
132.0
 21
176.0
 31
0.0
  0
LINE
  5
1F5
100
AcDbEntity
100
AcDbLine
  8
FORT
 62
7
370
-1
  6
CONTINUOUS
 10
128.0
 20
172.0
 30
0.0
 11
132.0
 21
172.0
 31
0.0
  0
LINE
  5
1F6
100
AcDbEntity
100
AcDbLine
  8
FORT
 62
7
370
-1
  6
CONTINUOUS
 10
106.0
 20
161.0
 30
0.0
 11
106.0
 21
174.0
 31
0.0
  0
LINE
  5
1F7
100
AcDbEntity
100
AcDbLine
  8
FORT
 62
7
370
-1
  6
CONTINUOUS
 10
107.0
 20
162.0
 30
0.0
 11
107.0
 21
173.0
 31
0.0
  0
LINE
  5
1F8
100
AcDbEntity
100
AcDbLine
  8
FORT
 62
7
370
-1
  6
CONTINUOUS
 10
92.0
 20
161.0
 30
0.0
 11
92.0
 21
174.0
 31
0.0
  0
LINE
  5
1F9
100
AcDbEntity
100
AcDbLine
  8
FORT
 62
7
370
-1
  6
CONTINUOUS
 10
91.0
 20
162.0
 30
0.0
 11
91.0
 21
173.0
 31
0.0
  0
LINE
  5
1FA
100
AcDbEntity
100
AcDbLine
  8
FORT
 62
7
370
-1
  6
CONTINUOUS
 10
130.0
 20
167.0
 30
0.0
 11
128.0
 21
169.0
 31
0.0
  0
LINE
  5
1FB
100
AcDbEntity
100
AcDbLine
  8
FORT
 62
7
370
-1
  6
CONTINUOUS
 10
126.5
 20
167.0
 30
0.0
 11
126.5
 21
168.5
 31
0.0
  0
LINE
  5
1FC
100
AcDbEntity
100
AcDbLine
  8
FORT
 62
7
370
-1
  6
CONTINUOUS
 10
128.5
 20
168.5
 30
0.0
 11
126.5
 21
168.5
 31
0.0
  0
LINE
  5
1FD
100
AcDbEntity
100
AcDbLine
  8
FORT
 62
7
370
-1
  6
CONTINUOUS
 10
106.0
 20
162.0
 30
0.0
 11
111.0
 21
162.0
 31
0.0
  0
LINE
  5
1FE
100
AcDbEntity
100
AcDbLine
  8
FORT
 62
7
370
-1
  6
CONTINUOUS
 10
92.0
 20
162.0
 30
0.0
 11
87.0
 21
162.0
 31
0.0
  0
LINE
  5
1FF
100
AcDbEntity
100
AcDbLine
  8
FORT
 62
7
370
-1
  6
CONTINUOUS
 10
89.0
 20
161.0
 30
0.0
 11
109.0
 21
161.0
 31
0.0
  0
LINE
  5
200
100
AcDbEntity
100
AcDbLine
  8
FORT
 62
7
370
-1
  6
CONTINUOUS
 10
98.0
 20
156.0
 30
0.0
 11
100.0
 21
156.0
 31
0.0
  0
LINE
  5
201
100
AcDbEntity
100
AcDbLine
  8
FORT
 62
7
370
-1
  6
CONTINUOUS
 10
98.0
 20
156.0
 30
0.0
 11
98.0
 21
153.0
 31
0.0
  0
LINE
  5
202
100
AcDbEntity
100
AcDbLine
  8
FORT
 62
7
370
-1
  6
CONTINUOUS
 10
100.0
 20
153.0
 30
0.0
 11
100.0
 21
156.0
 31
0.0
  0
LINE
  5
203
100
AcDbEntity
100
AcDbLine
  8
FORT
 62
7
370
-1
  6
CONTINUOUS
 10
100.0
 20
153.0
 30
0.0
 11
109.0
 21
153.0
 31
0.0
  0
LINE
  5
204
100
AcDbEntity
100
AcDbLine
  8
FORT
 62
7
370
-1
  6
CONTINUOUS
 10
89.0
 20
153.0
 30
0.0
 11
98.0
 21
153.0
 31
0.0
  0
LINE
  5
205
100
AcDbEntity
100
AcDbLine
  8
FORT
 62
7
370
-1
  6
CONTINUOUS
 10
109.0
 20
153.0
 30
0.0
 11
109.0
 21
161.0
 31
0.0
  0
LINE
  5
206
100
AcDbEntity
100
AcDbLine
  8
FORT
 62
7
370
-1
  6
CONTINUOUS
 10
111.0
 20
151.0
 30
0.0
 11
111.0
 21
162.0
 31
0.0
  0
LINE
  5
207
100
AcDbEntity
100
AcDbLine
  8
FORT
 62
7
370
-1
  6
CONTINUOUS
 10
89.0
 20
153.0
 30
0.0
 11
89.0
 21
161.0
 31
0.0
  0
LINE
  5
208
100
AcDbEntity
100
AcDbLine
  8
FORT
 62
7
370
-1
  6
CONTINUOUS
 10
87.0
 20
151.0
 30
0.0
 11
87.0
 21
162.0
 31
0.0
  0
LINE
  5
209
100
AcDbEntity
100
AcDbLine
  8
FORT
 62
7
370
-1
  6
CONTINUOUS
 10
103.0
 20
174.0
 30
0.0
 11
103.0
 21
175.0
 31
0.0
  0
LINE
  5
20A
100
AcDbEntity
100
AcDbLine
  8
FORT
 62
7
370
-1
  6
CONTINUOUS
 10
106.0
 20
173.0
 30
0.0
 11
109.0
 21
173.0
 31
0.0
  0
LINE
  5
20B
100
AcDbEntity
100
AcDbLine
  8
FORT
 62
7
370
-1
  6
CONTINUOUS
 10
95.0
 20
174.0
 30
0.0
 11
95.0
 21
175.0
 31
0.0
  0
LINE
  5
20C
100
AcDbEntity
100
AcDbLine
  8
FORT
 62
7
370
-1
  6
CONTINUOUS
 10
94.0
 20
175.0
 30
0.0
 11
104.0
 21
175.0
 31
0.0
  0
LINE
  5
20D
100
AcDbEntity
100
AcDbLine
  8
FORT
 62
7
370
-1
  6
CONTINUOUS
 10
92.0
 20
173.0
 30
0.0
 11
89.0
 21
173.0
 31
0.0
  0
LINE
  5
20E
100
AcDbEntity
100
AcDbLine
  8
FORT
 62
7
370
-1
  6
CONTINUOUS
 10
89.0
 20
174.0
 30
0.0
 11
109.0
 21
174.0
 31
0.0
  0
CIRCLE
  5
20F
100
AcDbEntity
100
AcDbCircle
  8
FORT
 62
7
370
-1
  6
CONTINUOUS
 10
103.9443140000000056
 20
157.0047360000000083
 30
0.0
 40
0.25
  0
CIRCLE
  5
210
100
AcDbEntity
100
AcDbCircle
  8
FORT
 62
7
370
-1
  6
CONTINUOUS
 10
102.5133830000000046
 20
142.0292420000000106
 30
0.0
 40
0.25
  0
LINE
  5
211
100
AcDbEntity
100
AcDbLine
  8
FIN
 62
5
370
-1
  6
CONTINUOUS
 10
104.0
 20
174.0
 30
0.0
 11
104.0
 21
175.0
 31
0.0
  0
LINE
  5
212
100
AcDbEntity
100
AcDbLine
  8
FIN
 62
5
370
-1
  6
CONTINUOUS
 10
94.0
 20
174.0
 30
0.0
 11
94.0
 21
175.0
 31
0.0
  0
LINE
  5
213
100
AcDbEntity
100
AcDbLine
  8
FORT
 62
7
370
-1
  6
CONTINUOUS
 10
132.0
 20
172.0
 30
0.0
 11
132.0
 21
176.0
 31
0.0
  0
LINE
  5
214
100
AcDbEntity
100
AcDbLine
  8
FORT
 62
7
370
-1
  6
CONTINUOUS
 10
133.0
 20
157.0
 30
0.0
 11
133.0
 21
167.0
 31
0.0
  0
LINE
  5
215
100
AcDbEntity
100
AcDbLine
  8
FORT
 62
7
370
-1
  6
CONTINUOUS
 10
132.0
 20
200.0
 30
0.0
 11
128.0
 21
200.0
 31
0.0
  0
LINE
  5
216
100
AcDbEntity
100
AcDbLine
  8
FORT
 62
7
370
-1
  6
CONTINUOUS
 10
132.0
 20
200.0
 30
0.0
 11
130.0
 21
198.8453000000000088
 31
0.0
  0
LINE
  5
217
100
AcDbEntity
100
AcDbLine
  8
FORT
 62
7
370
-1
  6
CONTINUOUS
 10
87.0
 20
203.0
 30
0.0
 11
87.0
 21
213.1396970000000124
 31
0.0
  0
LINE
  5
218
100
AcDbEntity
100
AcDbLine
  8
FORT
 62
7
370
-1
  6
CONTINUOUS
 10
85.0
 20
214.0
 30
0.0
 11
94.2990450000000067
 21
210.0
 31
0.0
  0
LINE
  5
219
100
AcDbEntity
100
AcDbLine
  8
FORT
 62
7
370
-1
  6
CONTINUOUS
 10
128.0
 20
200.0
 30
0.0
 11
130.0
 21
198.8453000000000088
 31
0.0
  0
LINE
  5
21A
100
AcDbEntity
100
AcDbLine
  8
FORT
 62
7
370
-1
  6
CONTINUOUS
 10
128.0
 20
200.0
 30
0.0
 11
128.0
 21
202.0
 31
0.0
  0
LINE
  5
21B
100
AcDbEntity
100
AcDbLine
  8
FORT
 62
7
370
-1
  6
CONTINUOUS
 10
125.5
 20
202.0
 30
0.0
 11
125.5
 21
203.0
 31
0.0
  0
LINE
  5
21C
100
AcDbEntity
100
AcDbLine
  8
FORT
 62
7
370
-1
  6
CONTINUOUS
 10
111.0
 20
203.0
 30
0.0
 11
111.0
 21
210.0
 31
0.0
  0
LINE
  5
21D
100
AcDbEntity
100
AcDbLine
  8
FORT
 62
7
370
-1
  6
CONTINUOUS
 10
94.2990450000000067
 20
210.0
 30
0.0
 11
113.0
 21
210.0
 31
0.0
  0
LINE
  5
21E
100
AcDbEntity
100
AcDbLine
  8
FORT
 62
7
370
-1
  6
CONTINUOUS
 10
84.0
 20
200.0
 30
0.0
 11
87.0
 21
203.0
 31
0.0
  0
LINE
  5
21F
100
AcDbEntity
100
AcDbLine
  8
FORT
 62
7
370
-1
  6
CONTINUOUS
 10
87.0
 20
207.0
 30
0.0
 11
111.0
 21
207.0
 31
0.0
  0
LINE
  5
220
100
AcDbEntity
100
AcDbLine
  8
FORT
 62
7
370
-1
  6
CONTINUOUS
 10
113.0
 20
210.0
 30
0.0
 11
122.2990450000000067
 21
206.0
 31
0.0
  0
LINE
  5
221
100
AcDbEntity
100
AcDbLine
  8
FORT
 62
7
370
-1
  6
CONTINUOUS
 10
124.0
 20
196.5
 30
0.0
 11
125.5
 21
195.0
 31
0.0
  0
LINE
  5
222
100
AcDbEntity
100
AcDbLine
  8
FORT
 62
7
370
-1
  6
CONTINUOUS
 10
122.5
 20
196.5
 30
0.0
 11
124.0
 21
196.5
 31
0.0
  0
LINE
  5
223
100
AcDbEntity
100
AcDbLine
  8
FORT
 62
7
370
-1
  6
CONTINUOUS
 10
122.5
 20
195.0
 30
0.0
 11
122.5
 21
196.5
 31
0.0
  0
LINE
  5
224
100
AcDbEntity
100
AcDbLine
  8
FORT
 62
7
370
-1
  6
CONTINUOUS
 10
122.5
 20
195.0
 30
0.0
 11
128.0
 21
195.0
 31
0.0
  0
LINE
  5
225
100
AcDbEntity
100
AcDbLine
  8
FORT
 62
7
370
-1
  6
CONTINUOUS
 10
128.0
 20
192.0
 30
0.0
 11
131.0
 21
189.0
 31
0.0
  0
LINE
  5
226
100
AcDbEntity
100
AcDbLine
  8
FORT
 62
7
370
-1
  6
CONTINUOUS
 10
128.0
 20
179.0
 30
0.0
 11
130.0
 21
181.0
 31
0.0
  0
LINE
  5
227
100
AcDbEntity
100
AcDbLine
  8
FORT
 62
7
370
-1
  6
CONTINUOUS
 10
103.0
 20
189.0
 30
0.0
 11
104.0
 21
188.0
 31
0.0
  0
LINE
  5
228
100
AcDbEntity
100
AcDbLine
  8
FORT
 62
7
370
-1
  6
CONTINUOUS
 10
95.0
 20
189.0
 30
0.0
 11
94.0
 21
188.0
 31
0.0
  0
LINE
  5
229
100
AcDbEntity
100
AcDbLine
  8
FORT
 62
7
370
-1
  6
CONTINUOUS
 10
95.0
 20
189.0
 30
0.0
 11
95.0
 21
195.0
 31
0.0
  0
LINE
  5
22A
100
AcDbEntity
100
AcDbLine
  8
FORT
 62
7
370
-1
  6
CONTINUOUS
 10
103.0
 20
195.0
 30
0.0
 11
103.0
 21
189.0
 31
0.0
  0
LINE
  5
22B
100
AcDbEntity
100
AcDbLine
  8
FORT
 62
7
370
-1
  6
CONTINUOUS
 10
124.0
 20
196.5
 30
0.0
 11
124.0
 21
202.0
 31
0.0
  0
LINE
  5
22C
100
AcDbEntity
100
AcDbLine
  8
FORT
 62
7
370
-1
  6
CONTINUOUS
 10
99.0
 20
197.3094010000000083
 30
0.0
 11
95.0
 21
195.0
 31
0.0
  0
LINE
  5
22D
100
AcDbEntity
100
AcDbLine
  8
FORT
 62
7
370
-1
  6
CONTINUOUS
 10
99.0
 20
197.3094010000000083
 30
0.0
 11
103.0
 21
195.0
 31
0.0
  0
LINE
  5
22E
100
AcDbEntity
100
AcDbLine
  8
FORT
 62
7
370
-1
  6
CONTINUOUS
 10
87.0
 20
203.0
 30
0.0
 11
89.0
 21
203.0
 31
0.0
  0
LINE
  5
22F
100
AcDbEntity
100
AcDbLine
  8
FORT
 62
7
370
-1
  6
CONTINUOUS
 10
95.0
 20
195.0
 30
0.0
 11
103.0
 21
195.0
 31
0.0
  0
LINE
  5
230
100
AcDbEntity
100
AcDbLine
  8
FORT
 62
7
370
-1
  6
CONTINUOUS
 10
94.0
 20
188.0
 30
0.0
 11
104.0
 21
188.0
 31
0.0
  0
LINE
  5
231
100
AcDbEntity
100
AcDbLine
  8
FORT
 62
7
370
-1
  6
CONTINUOUS
 10
95.0
 20
189.0
 30
0.0
 11
103.0
 21
189.0
 31
0.0
  0
LINE
  5
232
100
AcDbEntity
100
AcDbLine
  8
FORT
 62
7
370
-1
  6
CONTINUOUS
 10
94.0
 20
192.0
 30
0.0
 11
104.0
 21
192.0
 31
0.0
  0
LINE
  5
233
100
AcDbEntity
100
AcDbLine
  8
FIN
 62
5
370
-1
  6
CONTINUOUS
 10
124.0
 20
203.0
 30
0.0
 11
124.0
 21
202.0
 31
0.0
  0
LINE
  5
234
100
AcDbEntity
100
AcDbLine
  8
FIN
 62
5
370
-1
  6
CONTINUOUS
 10
104.0
 20
192.0
 30
0.0
 11
104.0
 21
188.0
 31
0.0
  0
LINE
  5
235
100
AcDbEntity
100
AcDbLine
  8
FIN
 62
5
370
-1
  6
CONTINUOUS
 10
94.0
 20
188.0
 30
0.0
 11
94.0
 21
192.0
 31
0.0
  0
LINE
  5
236
100
AcDbEntity
100
AcDbLine
  8
FIN
 62
5
370
-1
  6
CONTINUOUS
 10
125.5
 20
202.0
 30
0.0
 11
125.5
 21
195.0
 31
0.0
  0
LINE
  5
237
100
AcDbEntity
100
AcDbLine
  8
FORT
 62
7
370
-1
  6
CONTINUOUS
 10
132.0
 20
202.0
 30
0.0
 11
132.0
 21
200.0
 31
0.0
  0
LINE
  5
238
100
AcDbEntity
100
AcDbLine
  8
FORT
 62
7
370
-1
  6
CONTINUOUS
 10
134.0
 20
189.0
 30
0.0
 11
134.0
 21
199.0
 31
0.0
  0
LINE
  5
239
100
AcDbEntity
100
AcDbLine
  8
FORT
 62
7
370
-1
  6
CONTINUOUS
 10
66.2505580000000123
 20
226.0
 30
0.0
 11
77.2376050000000021
 21
226.0
 31
0.0
  0
LINE
  5
23A
100
AcDbEntity
100
AcDbLine
  8
FORT
 62
7
370
-1
  6
CONTINUOUS
 10
61.0717970000000037
 20
231.0
 30
0.0
 11
74.9282029999999963
 21
231.0
 31
0.0
  0
ARC
  5
23B
100
AcDbEntity
  8
FORT
 62
7
370
-1
  6
CONTINUOUS
100
AcDbCircle
 10
74.9282029999999963
 20
229.1666670000000181
 30
0.0
 40
3.1666669999999999
100
AcDbArc
 50
223.1735510000000033
 51
316.8264490000000251
  0
ARC
  5
23C
100
AcDbEntity
  8
FORT
 62
7
370
-1
  6
CONTINUOUS
100
AcDbCircle
 10
74.9282029999999963
 20
227.8333330000000103
 30
0.0
 40
3.1666669999999999
100
AcDbArc
 50
43.1735510000000033
 51
136.8264489999999967
  0
LINE
  5
23D
100
AcDbEntity
100
AcDbLine
  8
FORT
 62
7
370
-1
  6
CONTINUOUS
 10
73.3903310000000033
 20
252.2764519999999777
 30
0.0
 11
83.3903310000000033
 21
252.2764519999999777
 31
0.0
  0
MTEXT
  5
23E
100
AcDbEntity
100
AcDbMText
  8
TEXTE
 62
7
370
-1
  6
CONTINUOUS
 10
56.3903310000000033
 20
254.2764519999999777
 30
0.0
 40
5.0
 41
100.0
 71
7
 72
2
  1
2
  7
ISO9
 50
0.0
 73
1
 44
1.0
  0
MTEXT
  5
23F
100
AcDbEntity
100
AcDbMText
  8
TEXTE
 62
7
370
-1
  6
CONTINUOUS
 10
36.3903310000000033
 20
254.2764519999999777
 30
0.0
 40
5.0
 41
100.0
 71
7
 72
2
  1
1
  7
ISO9
 50
0.0
 73
1
 44
1.0
  0
ARC
  5
240
100
AcDbEntity
  8
FORT
 62
7
370
-1
  6
CONTINUOUS
100
AcDbCircle
 10
68.0
 20
237.1666670000000181
 30
0.0
 40
11.1666670000000003
100
AcDbArc
 50
245.5673020000000122
 51
294.4326980000000162
  0
ARC
  5
241
100
AcDbEntity
  8
FORT
 62
7
370
-1
  6
CONTINUOUS
100
AcDbCircle
 10
68.0
 20
219.8333330000000103
 30
0.0
 40
11.1666670000000003
100
AcDbArc
 50
65.567301999999998
 51
114.432698000000002
  0
LINE
  5
242
100
AcDbEntity
100
AcDbLine
  8
FORT
 62
7
370
-1
  6
CONTINUOUS
 10
67.4000000000000057
 20
242.5000190000000089
 30
0.0
 11
68.5999999999999943
 21
242.5000190000000089
 31
0.0
  0
LINE
  5
243
100
AcDbEntity
100
AcDbLine
  8
FORT
 62
7
370
-1
  6
CONTINUOUS
 10
67.4000000000000057
 20
242.5000190000000089
 30
0.0
 11
67.4000000000000057
 21
244.5000190000000089
 31
0.0
  0
LINE
  5
244
100
AcDbEntity
100
AcDbLine
  8
FORT
 62
7
370
-1
  6
CONTINUOUS
 10
64.0
 20
244.5000190000000089
 30
0.0
 11
63.0
 21
243.5000190000000089
 31
0.0
  0
LINE
  5
245
100
AcDbEntity
100
AcDbLine
  8
FORT
 62
7
370
-1
  6
CONTINUOUS
 10
64.0
 20
244.5000190000000089
 30
0.0
 11
67.4000000000000057
 21
244.5000190000000089
 31
0.0
  0
LINE
  5
246
100
AcDbEntity
100
AcDbLine
  8
FORT
 62
7
370
-1
  6
CONTINUOUS
 10
63.0
 20
243.5000190000000089
 30
0.0
 11
67.4000000000000057
 21
243.5000190000000089
 31
0.0
  0
ARC
  5
247
100
AcDbEntity
  8
FORT
 62
7
370
-1
  6
CONTINUOUS
100
AcDbCircle
 10
61.0717970000000037
 20
229.1666670000000181
 30
0.0
 40
3.1666669999999999
100
AcDbArc
 50
223.1735510000000033
 51
316.8264490000000251
  0
LINE
  5
248
100
AcDbEntity
100
AcDbLine
  8
FORT
 62
7
370
-1
  6
CONTINUOUS
 10
46.232723
 20
218.0
 30
0.0
 11
48.232723
 21
218.0
 31
0.0
  0
LINE
  5
249
100
AcDbEntity
100
AcDbLine
  8
FORT
 62
7
370
-1
  6
CONTINUOUS
 10
49.232723
 20
218.0
 30
0.0
 11
54.232723
 21
218.0
 31
0.0
  0
LINE
  5
24A
100
AcDbEntity
100
AcDbLine
  8
FORT
 62
7
370
-1
  6
CONTINUOUS
 10
39.8993900000000039
 20
227.418611999999996
 30
0.0
 11
39.8993900000000039
 21
218.0
 31
0.0
  0
LINE
  5
24B
100
AcDbEntity
100
AcDbLine
  8
FORT
 62
7
370
-1
  6
CONTINUOUS
 10
39.8993900000000039
 20
218.0
 30
0.0
 11
40.8327230000000014
 21
220.8000000000000114
 31
0.0
  0
LINE
  5
24C
100
AcDbEntity
100
AcDbLine
  8
FORT
 62
7
370
-1
  6
CONTINUOUS
 10
58.7623960000000025
 20
227.0
 30
0.0
 11
58.7623960000000025
 21
230.0
 31
0.0
  0
LINE
  5
24D
100
AcDbEntity
100
AcDbLine
  8
FORT
 62
7
370
-1
  6
CONTINUOUS
 10
63.3811980000000048
 20
227.0
 30
0.0
 11
63.3811980000000048
 21
230.0
 31
0.0
  0
ARC
  5
24E
100
AcDbEntity
  8
FORT
 62
7
370
-1
  6
CONTINUOUS
100
AcDbCircle
 10
61.0717970000000037
 20
227.8333330000000103
 30
0.0
 40
3.1666669999999999
100
AcDbArc
 50
43.1735510000000033
 51
136.8264489999999967
  0
LINE
  5
24F
100
AcDbEntity
100
AcDbLine
  8
FORT
 62
7
370
-1
  6
CONTINUOUS
 10
59.0
 20
224.0
 30
0.0
 11
61.0
 21
226.0
 31
0.0
  0
LINE
  5
250
100
AcDbEntity
100
AcDbLine
  8
FORT
 62
7
370
-1
  6
CONTINUOUS
 10
39.8993900000000039
 20
218.0
 30
0.0
 11
38.9660570000000064
 21
220.8000000000000114
 31
0.0
  0
LINE
  5
251
100
AcDbEntity
100
AcDbLine
  8
FORT
 62
7
370
-1
  6
CONTINUOUS
 10
35.2327230000000071
 20
218.0
 30
0.0
 11
45.2327230000000071
 21
218.0
 31
0.0
  0
LINE
  5
252
100
AcDbEntity
100
AcDbLine
  8
FORT
 62
7
370
-1
  6
CONTINUOUS
 10
63.0
 20
231.0
 30
0.0
 11
63.0
 21
243.5000190000000089
 31
0.0
  0
LINE
  5
253
100
AcDbEntity
100
AcDbLine
  8
FORT
 62
7
370
-1
  6
CONTINUOUS
 10
53.3903310000000033
 20
252.2764519999999777
 30
0.0
 11
63.3903310000000033
 21
252.2764519999999777
 31
0.0
  0
LINE
  5
254
100
AcDbEntity
100
AcDbLine
  8
FORT
 62
7
370
-1
  6
CONTINUOUS
 10
33.3903310000000033
 20
252.2764519999999777
 30
0.0
 11
43.3903310000000033
 21
252.2764519999999777
 31
0.0
  0
CIRCLE
  5
255
100
AcDbEntity
100
AcDbCircle
  8
FORT
 62
7
370
-1
  6
CONTINUOUS
 10
60.8100700000000032
 20
228.5401919999999905
 30
0.0
 40
0.25
  0
CIRCLE
  5
256
100
AcDbEntity
100
AcDbCircle
  8
FORT
 62
7
370
-1
  6
CONTINUOUS
 10
65.9244630000000029
 20
240.7648379999999975
 30
0.0
 40
0.25
  0
LINE
  5
257
100
AcDbEntity
100
AcDbLine
  8
FIN
 62
5
370
-1
  6
CONTINUOUS
 10
63.3903310000000033
 20
252.2764519999999777
 30
0.0
 11
65.9244630000000029
 21
240.7648379999999975
 31
0.0
  0
LINE
  5
258
100
AcDbEntity
100
AcDbLine
  8
FIN
 62
5
370
-1
  6
CONTINUOUS
 10
43.3903310000000033
 20
252.2764519999999777
 30
0.0
 11
60.8100700000000032
 21
228.5401919999999905
 31
0.0
  0
LINE
  5
259
100
AcDbEntity
100
AcDbLine
  8
FIN
 62
5
370
-1
  6
CONTINUOUS
 10
64.0
 20
231.0
 30
0.0
 11
64.0
 21
244.5000190000000089
 31
0.0
  0
LINE
  5
25A
100
AcDbEntity
100
AcDbLine
  8
FORT
 62
7
370
-1
  6
CONTINUOUS
 10
68.5999999999999943
 20
244.5000190000000089
 30
0.0
 11
72.0
 21
244.5000190000000089
 31
0.0
  0
LINE
  5
25B
100
AcDbEntity
100
AcDbLine
  8
FORT
 62
7
370
-1
  6
CONTINUOUS
 10
68.5999999999999943
 20
243.5000190000000089
 30
0.0
 11
73.0
 21
243.5000190000000089
 31
0.0
  0
LINE
  5
25C
100
AcDbEntity
100
AcDbLine
  8
FORT
 62
7
370
-1
  6
CONTINUOUS
 10
68.5999999999999943
 20
242.5000190000000089
 30
0.0
 11
68.5999999999999943
 21
244.5000190000000089
 31
0.0
  0
LINE
  5
25D
100
AcDbEntity
100
AcDbLine
  8
FORT
 62
7
370
-1
  6
CONTINUOUS
 10
72.0
 20
244.5000190000000089
 30
0.0
 11
73.0
 21
243.5000190000000089
 31
0.0
  0
LINE
  5
25E
100
AcDbEntity
100
AcDbLine
  8
FORT
 62
7
370
-1
  6
CONTINUOUS
 10
72.6188020000000023
 20
227.0
 30
0.0
 11
72.6188020000000023
 21
230.0
 31
0.0
  0
LINE
  5
25F
100
AcDbEntity
100
AcDbLine
  8
FORT
 62
7
370
-1
  6
CONTINUOUS
 10
73.0
 20
231.0
 30
0.0
 11
73.0
 21
243.5000190000000089
 31
0.0
  0
LINE
  5
260
100
AcDbEntity
100
AcDbLine
  8
FIN
 62
5
370
-1
  6
CONTINUOUS
 10
72.0
 20
231.0
 30
0.0
 11
72.0
 21
244.5000190000000089
 31
0.0
  0
MTEXT
  5
261
100
AcDbEntity
100
AcDbMText
  8
TEXTE
 62
7
370
-1
  6
CONTINUOUS
 10
116.3903310000000033
 20
254.2764519999999777
 30
0.0
 40
5.0
 41
100.0
 71
7
 72
2
  1
5
  7
ISO9
 50
0.0
 73
1
 44
1.0
  0
MTEXT
  5
262
100
AcDbEntity
100
AcDbMText
  8
TEXTE
 62
7
370
-1
  6
CONTINUOUS
 10
96.3903310000000033
 20
254.2764519999999777
 30
0.0
 40
5.0
 41
100.0
 71
7
 72
2
  1
4
  7
ISO9
 50
0.0
 73
1
 44
1.0
  0
MTEXT
  5
263
100
AcDbEntity
100
AcDbMText
  8
TEXTE
 62
7
370
-1
  6
CONTINUOUS
 10
76.3903310000000033
 20
254.2764519999999777
 30
0.0
 40
5.0
 41
100.0
 71
7
 72
2
  1
3
  7
ISO9
 50
0.0
 73
1
 44
1.0
  0
LINE
  5
264
100
AcDbEntity
100
AcDbLine
  8
FORT
 62
7
370
-1
  6
CONTINUOUS
 10
111.0
 20
226.0
 30
0.0
 11
111.0
 21
228.0
 31
0.0
  0
LINE
  5
265
100
AcDbEntity
100
AcDbLine
  8
FORT
 62
7
370
-1
  6
CONTINUOUS
 10
87.0
 20
226.0
 30
0.0
 11
87.0
 21
228.0
 31
0.0
  0
LINE
  5
266
100
AcDbEntity
100
AcDbLine
  8
FORT
 62
7
370
-1
  6
CONTINUOUS
 10
77.2376050000000021
 20
227.0
 30
0.0
 11
77.2376050000000021
 21
230.0
 31
0.0
  0
LINE
  5
267
100
AcDbEntity
100
AcDbLine
  8
FORT
 62
7
370
-1
  6
CONTINUOUS
 10
87.0
 20
228.0
 30
0.0
 11
111.0
 21
228.0
 31
0.0
  0
LINE
  5
268
100
AcDbEntity
100
AcDbLine
  8
FORT
 62
7
370
-1
  6
CONTINUOUS
 10
113.3903310000000033
 20
252.2764519999999777
 30
0.0
 11
123.3903310000000033
 21
252.2764519999999777
 31
0.0
  0
LINE
  5
269
100
AcDbEntity
100
AcDbLine
  8
FORT
 62
7
370
-1
  6
CONTINUOUS
 10
93.3903310000000033
 20
252.2764519999999777
 30
0.0
 11
103.3903310000000033
 21
252.2764519999999777
 31
0.0
  0
CIRCLE
  5
26A
100
AcDbEntity
100
AcDbCircle
  8
FORT
 62
7
370
-1
  6
CONTINUOUS
 10
97.2728880000000089
 20
219.7796209999999917
 30
0.0
 40
0.25
  0
LINE
  5
26B
100
AcDbEntity
100
AcDbLine
  8
FORT
 62
7
370
-1
  6
CONTINUOUS
 10
107.1643899999999974
 20
230.8381469999999922
 30
0.0
 11
107.1126250000000084
 21
228.0
 31
0.0
  0
LINE
  5
26C
100
AcDbEntity
100
AcDbLine
  8
FORT
 62
7
370
-1
  6
CONTINUOUS
 10
106.241146999999998
 20
230.7015340000000094
 30
0.0
 11
107.1126250000000084
 21
228.0
 31
0.0
  0
LINE
  5
26D
100
AcDbEntity
100
AcDbLine
  8
FIN
 62
5
370
-1
  6
CONTINUOUS
 10
103.3903310000000033
 20
252.2764519999999777
 30
0.0
 11
107.1126250000000084
 21
228.0
 31
0.0
  0
LINE
  5
26E
100
AcDbEntity
100
AcDbLine
  8
FIN
 62
5
370
-1
  6
CONTINUOUS
 10
83.3903310000000033
 20
252.2764519999999777
 30
0.0
 11
97.2728880000000089
 21
219.7796209999999917
 31
0.0
  0
MTEXT
  5
26F
100
AcDbEntity
100
AcDbMText
  8
TEXTE
 62
7
370
-1
  6
CONTINUOUS
 10
118.8830350000000067
 20
265.6073860000000195
 30
0.0
 40
5.0
 41
100.0
 71
7
 72
2
  1
A-A
  7
ISO9
 50
0.0
 73
1
 44
1.0
  0
LINE
  5
270
100
AcDbEntity
100
AcDbLine
  8
FORT
 62
7
370
-1
  6
CONTINUOUS
 10
155.0
 20
208.0
 30
0.0
 11
155.0
 21
224.0
 31
0.0
  0
MTEXT
  5
271
100
AcDbEntity
100
AcDbMText
  8
TEXTE
 62
7
370
-1
  6
CONTINUOUS
 10
182.8575380000000052
 20
215.5837580000000173
 30
0.0
 40
5.0
 41
100.0
 71
7
 72
2
  1
B
  7
ISO9
 50
0.0
 73
1
 44
1.0
  0
LINE
  5
272
100
AcDbEntity
100
AcDbLine
  8
FIN
 62
5
370
-1
  6
CONTINUOUS
 10
193.3903310000000033
 20
252.2764519999999777
 30
0.0
 11
193.3903310000000033
 21
195.152622000000008
 31
0.0
  0
LINE
  5
273
100
AcDbEntity
100
AcDbLine
  8
FIN
 62
5
370
-1
  6
CONTINUOUS
 10
144.9101029999999923
 20
199.7826340000000016
 30
0.0
 11
143.3903310000000033
 21
252.2764519999999777
 31
0.0
  0
LWPOLYLINE
  5
274
  8
HACHURE
 62
5
370
-1
  6
CONTINUOUS
100
AcDbEntity
100
AcDbPolyline
 90
15
 70
1
 10
178.0
 20
200.0
 10
175.0
 20
203.0
 10
170.5
 20
203.0
 10
170.5
 20
202.0
 10
172.0
 20
202.0
 10
172.0
 20
196.5
 10
173.5
 20
196.5
 10
173.5
 20
195.0
 10
168.0
 20
195.0
 10
168.0
 20
168.5
 10
169.5
 20
168.5
 10
169.5
 20
167.0
 10
163.0
 20
167.0
 10
163.0
 20
165.0
 10
178.0
 20
165.0
  0
INSERT
  5
275
100
AcDbEntity
100
AcDbBlockReference
  8
HACHURE
 62
256
370
-1
  6
ByLayer
  2
DESENS-G14
 10
13.3903310000000033
 20
-8.9188709999999958
 30
0.0
  0
LWPOLYLINE
  5
276
  8
HACHURE
 62
5
370
-1
  6
CONTINUOUS
100
AcDbEntity
100
AcDbPolyline
 90
15
 70
1
 10
160.514977000000016
 20
179.5420139999999947
 10
161.1344699999999932
 20
181.0
 10
166.0
 20
181.0
 10
168.0
 20
179.0
 10
168.0
 20
176.0
 10
164.0
 20
176.0
 10
164.0
 20
172.0
 10
168.0
 20
172.0
 10
168.0
 20
169.0
 10
166.0
 20
167.0
 10
160.2342439999999897
 20
167.0
 10
159.938949000000008
 20
168.0255020000000172
 10
160.3186139999999966
 20
171.1050089999999955
 10
160.0934000000000026
 20
174.3110709999999983
 10
160.6838539999999966
 20
177.1374670000000151
  0
INSERT
  5
277
100
AcDbEntity
100
AcDbBlockReference
  8
HACHURE
 62
256
370
-1
  6
ByLayer
  2
DESENS-G15
 10
13.3903310000000033
 20
-8.9188709999999958
 30
0.0
  0
LINE
  5
278
100
AcDbEntity
100
AcDbLine
  8
FORT
 62
7
370
-1
  6
CONTINUOUS
 10
168.0
 20
168.5
 30
0.0
 11
168.0
 21
195.0
 31
0.0
  0
LINE
  5
279
100
AcDbEntity
100
AcDbLine
  8
FORT
 62
7
370
-1
  6
CONTINUOUS
 10
178.0
 20
165.0
 30
0.0
 11
178.0
 21
200.0
 31
0.0
  0
LWPOLYLINE
  5
27A
  8
FIN
 62
5
370
-1
  6
CONTINUOUS
100
AcDbEntity
100
AcDbPolyline
 90
7
 70
0
 10
161.1344699999999932
 20
181.0
 10
160.514977000000016
 20
179.5420139999999947
 10
160.6838539999999966
 20
177.1374670000000151
 10
160.0934000000000026
 20
174.3110709999999983
 10
160.3186139999999966
 20
171.1050089999999955
 10
159.938949000000008
 20
168.0255020000000172
 10
160.2342439999999897
 20
167.0
  0
LWPOLYLINE
  5
27B
  8
FIN
 62
5
370
-1
  6
CONTINUOUS
100
AcDbEntity
100
AcDbPolyline
 90
7
 70
0
 10
135.6813860000000034
 20
181.0
 10
136.1032360000000097
 20
179.5420139999999947
 10
135.7657560000000103
 20
177.1374670000000151
 10
136.1876060000000166
 20
174.3110709999999983
 10
135.6813860000000034
 20
171.1050089999999955
 10
136.0610510000000204
 20
168.0255020000000172
 10
135.7657560000000103
 20
167.0
  0
LWPOLYLINE
  5
27C
  8
HACHURE
 62
5
370
-1
  6
CONTINUOUS
100
AcDbEntity
100
AcDbPolyline
 90
2
 70
1
 10
168.0
 20
174.0
 42
0.9999999999999999
 10
164.0
 20
174.0
 42
0.9999999999999999
  0
INSERT
  5
27D
100
AcDbEntity
100
AcDbBlockReference
  8
HACHURE
 62
256
370
-1
  6
ByLayer
  2
DESENS-G16
 10
13.3903310000000033
 20
-8.9188709999999958
 30
0.0
  0
CIRCLE
  5
27E
100
AcDbEntity
100
AcDbCircle
  8
FORT
 62
7
370
-1
  6
CONTINUOUS
 10
166.0
 20
174.0
 30
0.0
 40
2.0
  0
LINE
  5
27F
100
AcDbEntity
100
AcDbLine
  8
FORT
 62
7
370
-1
  6
CONTINUOUS
 10
164.0
 20
176.0
 30
0.0
 11
164.0
 21
172.0
 31
0.0
  0
LINE
  5
280
100
AcDbEntity
100
AcDbLine
  8
FORT
 62
7
370
-1
  6
CONTINUOUS
 10
135.822700999999995
 20
172.0
 30
0.0
 11
160.2557439999999929
 21
172.0
 31
0.0
  0
ARC
  5
281
100
AcDbEntity
  8
FORT
 62
7
370
-1
  6
CONTINUOUS
100
AcDbCircle
 10
224.9041579999999954
 20
162.0
 30
0.0
 40
47.0
100
AcDbArc
 50
176.3403350000000103
 51
183.6596649999999897
  0
LINE
  5
282
100
AcDbEntity
100
AcDbLine
  8
FORT
 62
7
370
-1
  6
CONTINUOUS
 10
164.0
 20
172.0
 30
0.0
 11
168.0
 21
172.0
 31
0.0
  0
ARC
  5
283
100
AcDbEntity
  8
FORT
 62
7
370
-1
  6
CONTINUOUS
100
AcDbCircle
 10
177.6969390000000146
 20
162.0
 30
0.0
 40
15.0
100
AcDbArc
 50
168.463041000000004
 51
191.536958999999996
  0
LINE
  5
284
100
AcDbEntity
100
AcDbLine
  8
FORT
 62
7
370
-1
  6
CONTINUOUS
 10
163.0
 20
165.0
 30
0.0
 11
163.0
 21
167.0
 31
0.0
  0
LINE
  5
285
100
AcDbEntity
100
AcDbLine
  8
FORT
 62
7
370
-1
  6
CONTINUOUS
 10
167.5
 20
168.5
 30
0.0
 11
169.5
 21
168.5
 31
0.0
  0
LINE
  5
286
100
AcDbEntity
100
AcDbLine
  8
FORT
 62
7
370
-1
  6
CONTINUOUS
 10
166.0
 20
167.0
 30
0.0
 11
168.0
 21
169.0
 31
0.0
  0
LINE
  5
287
100
AcDbEntity
100
AcDbLine
  8
FORT
 62
7
370
-1
  6
CONTINUOUS
 10
169.5
 20
167.0
 30
0.0
 11
169.5
 21
168.5
 31
0.0
  0
LINE
  5
288
100
AcDbEntity
100
AcDbLine
  8
FORT
 62
7
370
-1
  6
CONTINUOUS
 10
135.9409080000000074
 20
169.0
 30
0.0
 11
160.0590929999999901
 21
169.0
 31
0.0
  0
LINE
  5
289
100
AcDbEntity
100
AcDbLine
  8
FORT
 62
7
370
-1
  6
CONTINUOUS
 10
163.0
 20
159.0
 30
0.0
 11
178.0
 21
159.0
 31
0.0
  0
LINE
  5
28A
100
AcDbEntity
100
AcDbLine
  8
FORT
 62
7
370
-1
  6
CONTINUOUS
 10
163.0
 20
165.0
 30
0.0
 11
178.0
 21
165.0
 31
0.0
  0
LINE
  5
28B
100
AcDbEntity
100
AcDbLine
  8
FORT
 62
7
370
-1
  6
CONTINUOUS
 10
178.0
 20
151.0
 30
0.0
 11
178.0
 21
159.0
 31
0.0
  0
LINE
  5
28C
100
AcDbEntity
100
AcDbLine
  8
FORT
 62
7
370
-1
  6
CONTINUOUS
 10
168.0
 20
158.0
 30
0.0
 11
168.0
 21
166.0
 31
0.0
  0
LINE
  5
28D
100
AcDbEntity
100
AcDbLine
  8
FORT
 62
7
370
-1
  6
CONTINUOUS
 10
163.0
 20
157.0
 30
0.0
 11
163.0
 21
159.0
 31
0.0
  0
LINE
  5
28E
100
AcDbEntity
100
AcDbLine
  8
FORT
 62
7
370
-1
  6
CONTINUOUS
 10
135.9355270000000075
 20
176.0
 30
0.0
 11
160.4462290000000166
 21
176.0
 31
0.0
  0
LINE
  5
28F
100
AcDbEntity
100
AcDbLine
  8
FORT
 62
7
370
-1
  6
CONTINUOUS
 10
164.0308960000000127
 20
176.0
 30
0.0
 11
168.0
 21
176.0
 31
0.0
  0
CIRCLE
  5
290
100
AcDbEntity
100
AcDbCircle
  8
FORT
 62
7
370
-1
  6
CONTINUOUS
 10
140.58936700000001
 20
153.8468269999999904
 30
0.0
 40
0.25
  0
CIRCLE
  5
291
100
AcDbEntity
100
AcDbCircle
  8
FORT
 62
7
370
-1
  6
CONTINUOUS
 10
166.0
 20
174.0
 30
0.0
 40
0.25
  0
LINE
  5
292
100
AcDbEntity
100
AcDbLine
  8
FIN
 62
5
370
-1
  6
CONTINUOUS
 10
166.0
 20
174.0
 30
0.0
 11
193.3903310000000033
 21
166.8665840000000173
 31
0.0
  0
LINE
  5
293
100
AcDbEntity
100
AcDbLine
  8
FIN
 62
5
370
-1
  6
CONTINUOUS
 10
178.0
 20
151.0
 30
0.0
 11
187.7333280000000002
 21
151.0
 31
0.0
  0
LINE
  5
294
100
AcDbEntity
100
AcDbLine
  8
FIN
 62
5
370
-1
  6
CONTINUOUS
 10
168.0
 20
166.0
 30
0.0
 11
178.0
 21
166.0
 31
0.0
  0
LINE
  5
295
100
AcDbEntity
100
AcDbLine
  8
FIN
 62
5
370
-1
  6
CONTINUOUS
 10
168.0
 20
158.0
 30
0.0
 11
178.0
 21
158.0
 31
0.0
  0
LWPOLYLINE
  5
296
  8
HACHURE
 62
5
370
-1
  6
CONTINUOUS
100
AcDbEntity
100
AcDbPolyline
 90
15
 70
1
 10
172.0
 20
196.5
 10
172.0
 20
202.0
 10
168.0
 20
202.0
 10
168.0
 20
200.0
 10
166.0
 20
198.8453000000000088
 10
164.0
 20
200.0
 10
164.0
 20
202.0
 10
155.0
 20
202.0
 10
155.0
 20
199.0
 10
162.0
 20
199.0
 10
162.0
 20
189.0
 10
165.0
 20
189.0
 10
168.0
 20
192.0
 10
168.0
 20
195.0
 10
170.5
 20
195.0
  0
INSERT
  5
297
100
AcDbEntity
100
AcDbBlockReference
  8
HACHURE
 62
256
370
-1
  6
ByLayer
  2
DESENS-G17
 10
13.3903310000000033
 20
-8.9188709999999958
 30
0.0
  0
LWPOLYLINE
  5
298
  8
HACHURE
 62
5
370
-1
  6
CONTINUOUS
100
AcDbEntity
100
AcDbPolyline
 90
2
 70
1
 10
138.3000000000000114
 20
187.0
 42
0.9999999999999999
 10
135.6999999999999886
 20
187.0
 42
0.9999999999999999
  0
INSERT
  5
299
100
AcDbEntity
100
AcDbBlockReference
  8
HACHURE
 62
256
370
-1
  6
ByLayer
  2
DESENS-G18
 10
13.3903310000000033
 20
-8.9188709999999958
 30
0.0
  0
LWPOLYLINE
  5
29A
  8
HACHURE
 62
5
370
-1
  6
CONTINUOUS
100
AcDbEntity
100
AcDbPolyline
 90
2
 70
1
 10
157.6999999999999886
 20
193.0
 42
0.9999999999999999
 10
160.3000000000000114
 20
193.0
 42
0.9999999999999999
  0
INSERT
  5
29B
100
AcDbEntity
100
AcDbBlockReference
  8
HACHURE
 62
256
370
-1
  6
ByLayer
  2
DESENS-G19
 10
13.3903310000000033
 20
-8.9188709999999958
 30
0.0
  0
LWPOLYLINE
  5
29C
  8
HACHURE
 62
5
370
-1
  6
CONTINUOUS
100
AcDbEntity
100
AcDbPolyline
 90
2
 70
1
 10
138.3000000000000114
 20
199.0
 10
135.6999999999999886
 20
199.0
 42
0.9999999999999999
  0
INSERT
  5
29D
100
AcDbEntity
100
AcDbBlockReference
  8
HACHURE
 62
256
370
-1
  6
ByLayer
  2
DESENS-G20
 10
13.3903310000000033
 20
-8.9188709999999958
 30
0.0
  0
LWPOLYLINE
  5
29E
  8
HACHURE
 62
5
370
-1
  6
CONTINUOUS
100
AcDbEntity
100
AcDbPolyline
 90
2
 70
1
 10
157.7000000000000171
 20
181.0
 10
160.3000000000000114
 20
181.0
 42
0.9999999999999999
  0
INSERT
  5
29F
100
AcDbEntity
100
AcDbBlockReference
  8
HACHURE
 62
256
370
-1
  6
ByLayer
  2
DESENS-G21
 10
13.3903310000000033
 20
-8.9188709999999958
 30
0.0
  0
LINE
  5
2A0
100
AcDbEntity
100
AcDbLine
  8
FORT
 62
7
370
-1
  6
CONTINUOUS
 10
136.0271639999999991
 20
179.0
 30
0.0
 11
160.5530439999999999
 21
179.0
 31
0.0
  0
ARC
  5
2A1
100
AcDbEntity
  8
FORT
 62
7
370
-1
  6
CONTINUOUS
100
AcDbCircle
 10
159.0
 20
181.0
 30
0.0
 40
1.3
100
AcDbArc
 50
0.0
 51
180.0
  0
ARC
  5
2A2
100
AcDbEntity
  8
FORT
 62
7
370
-1
  6
CONTINUOUS
100
AcDbCircle
 10
137.0
 20
199.0
 30
0.0
 40
1.3
100
AcDbArc
 50
180.0
 51
0.0
  0
LINE
  5
2A3
100
AcDbEntity
100
AcDbLine
  8
FORT
 62
7
370
-1
  6
CONTINUOUS
 10
154.0293020000000013
 20
193.0081649999999911
 30
0.0
 11
158.6579480000000046
 21
191.7458070000000134
 31
0.0
  0
LINE
  5
2A4
100
AcDbEntity
100
AcDbLine
  8
FORT
 62
7
370
-1
  6
CONTINUOUS
 10
136.6579480000000046
 20
197.7458070000000134
 30
0.0
 11
142.0896840000000054
 21
196.2644239999999911
 31
0.0
  0
LINE
  5
2A5
100
AcDbEntity
100
AcDbLine
  8
FORT
 62
7
370
-1
  6
CONTINUOUS
 10
154.0
 20
195.7111160000000041
 30
0.0
 11
159.3420529999999928
 21
194.254193000000015
 31
0.0
  0
LINE
  5
2A6
100
AcDbEntity
100
AcDbLine
  8
FORT
 62
7
370
-1
  6
CONTINUOUS
 10
154.0287620000000004
 20
183.7032719999999983
 30
0.0
 11
159.3420529999999928
 21
182.254193000000015
 31
0.0
  0
LINE
  5
2A7
100
AcDbEntity
100
AcDbLine
  8
FORT
 62
7
370
-1
  6
CONTINUOUS
 10
137.3420530000000213
 20
188.254193000000015
 30
0.0
 11
142.0310310000000129
 21
186.9753809999999987
 31
0.0
  0
LINE
  5
2A8
100
AcDbEntity
100
AcDbLine
  8
FORT
 62
7
370
-1
  6
CONTINUOUS
 10
136.6579480000000046
 20
185.7458070000000134
 30
0.0
 11
142.0
 21
184.2888839999999959
 31
0.0
  0
CIRCLE
  5
2A9
100
AcDbEntity
100
AcDbCircle
  8
FORT
 62
7
370
-1
  6
CONTINUOUS
 10
159.0
 20
193.0
 30
0.0
 40
1.3
  0
CIRCLE
  5
2AA
100
AcDbEntity
100
AcDbCircle
  8
FORT
 62
7
370
-1
  6
CONTINUOUS
 10
137.0
 20
187.0
 30
0.0
 40
1.3
  0
LINE
  5
2AB
100
AcDbEntity
100
AcDbLine
  8
FORT
 62
7
370
-1
  6
CONTINUOUS
 10
175.0
 20
203.0
 30
0.0
 11
178.0
 21
200.0
 31
0.0
  0
LINE
  5
2AC
100
AcDbEntity
100
AcDbLine
  8
FORT
 62
7
370
-1
  6
CONTINUOUS
 10
164.0
 20
200.0
 30
0.0
 11
168.0
 21
200.0
 31
0.0
  0
LINE
  5
2AD
100
AcDbEntity
100
AcDbLine
  8
FORT
 62
7
370
-1
  6
CONTINUOUS
 10
170.5
 20
202.0
 30
0.0
 11
170.5
 21
203.0
 31
0.0
  0
LINE
  5
2AE
100
AcDbEntity
100
AcDbLine
  8
FORT
 62
7
370
-1
  6
CONTINUOUS
 10
168.0
 20
200.0
 30
0.0
 11
166.0
 21
198.8453000000000088
 31
0.0
  0
LINE
  5
2AF
100
AcDbEntity
100
AcDbLine
  8
FORT
 62
7
370
-1
  6
CONTINUOUS
 10
164.0
 20
200.0
 30
0.0
 11
166.0
 21
198.8453000000000088
 31
0.0
  0
LINE
  5
2B0
100
AcDbEntity
100
AcDbLine
  8
FORT
 62
7
370
-1
  6
CONTINUOUS
 10
168.0
 20
200.0
 30
0.0
 11
168.0
 21
202.0
 31
0.0
  0
LINE
  5
2B1
100
AcDbEntity
100
AcDbLine
  8
FORT
 62
7
370
-1
  6
CONTINUOUS
 10
164.0
 20
202.0
 30
0.0
 11
164.0
 21
200.0
 31
0.0
  0
LINE
  5
2B2
100
AcDbEntity
100
AcDbLine
  8
FORT
 62
7
370
-1
  6
CONTINUOUS
 10
154.0
 20
199.0
 30
0.0
 11
162.0
 21
199.0
 31
0.0
  0
LINE
  5
2B3
100
AcDbEntity
100
AcDbLine
  8
FORT
 62
7
370
-1
  6
CONTINUOUS
 10
155.0
 20
199.0
 30
0.0
 11
155.0
 21
202.0
 31
0.0
  0
LINE
  5
2B4
100
AcDbEntity
100
AcDbLine
  8
FORT
 62
7
370
-1
  6
CONTINUOUS
 10
153.0
 20
206.0
 30
0.0
 11
155.0
 21
208.0
 31
0.0
  0
LINE
  5
2B5
100
AcDbEntity
100
AcDbLine
  8
FORT
 62
7
370
-1
  6
CONTINUOUS
 10
141.0
 20
199.0
 30
0.0
 11
141.0
 21
202.0
 31
0.0
  0
ARC
  5
2B6
100
AcDbEntity
  8
FORT
 62
7
370
-1
  6
CONTINUOUS
100
AcDbCircle
 10
148.0
 20
193.25
 30
0.0
 40
12.75
100
AcDbArc
 50
61.9275130000000047
 51
118.0724869999999953
  0
LINE
  5
2B7
100
AcDbEntity
100
AcDbLine
  8
FORT
 62
7
370
-1
  6
CONTINUOUS
 10
142.0
 20
204.5
 30
0.0
 11
154.0
 21
204.5
 31
0.0
  0
LINE
  5
2B8
100
AcDbEntity
100
AcDbLine
  8
FORT
 62
7
370
-1
  6
CONTINUOUS
 10
154.0
 20
202.0
 30
0.0
 11
172.0
 21
202.0
 31
0.0
  0
LINE
  5
2B9
100
AcDbEntity
100
AcDbLine
  8
FORT
 62
7
370
-1
  6
CONTINUOUS
 10
154.0
 20
203.0
 30
0.0
 11
175.0
 21
203.0
 31
0.0
  0
LINE
  5
2BA
100
AcDbEntity
100
AcDbLine
  8
FORT
 62
7
370
-1
  6
CONTINUOUS
 10
173.5
 20
195.0
 30
0.0
 11
173.5
 21
196.5
 31
0.0
  0
LINE
  5
2BB
100
AcDbEntity
100
AcDbLine
  8
FORT
 62
7
370
-1
  6
CONTINUOUS
 10
172.0
 20
196.5
 30
0.0
 11
173.5
 21
196.5
 31
0.0
  0
LINE
  5
2BC
100
AcDbEntity
100
AcDbLine
  8
FORT
 62
7
370
-1
  6
CONTINUOUS
 10
154.0
 20
189.0
 30
0.0
 11
165.0
 21
189.0
 31
0.0
  0
LINE
  5
2BD
100
AcDbEntity
100
AcDbLine
  8
FORT
 62
7
370
-1
  6
CONTINUOUS
 10
168.0
 20
192.0
 30
0.0
 11
165.0
 21
189.0
 31
0.0
  0
LINE
  5
2BE
100
AcDbEntity
100
AcDbLine
  8
FORT
 62
7
370
-1
  6
CONTINUOUS
 10
168.0
 20
179.0
 30
0.0
 11
166.0
 21
181.0
 31
0.0
  0
LINE
  5
2BF
100
AcDbEntity
100
AcDbLine
  8
FORT
 62
7
370
-1
  6
CONTINUOUS
 10
172.0
 20
196.5
 30
0.0
 11
170.5
 21
195.0
 31
0.0
  0
LINE
  5
2C0
100
AcDbEntity
100
AcDbLine
  8
FORT
 62
7
370
-1
  6
CONTINUOUS
 10
168.0
 20
195.0
 30
0.0
 11
173.5
 21
195.0
 31
0.0
  0
LINE
  5
2C1
100
AcDbEntity
100
AcDbLine
  8
FORT
 62
7
370
-1
  6
CONTINUOUS
 10
172.0
 20
196.5
 30
0.0
 11
172.0
 21
202.0
 31
0.0
  0
LINE
  5
2C2
100
AcDbEntity
100
AcDbLine
  8
FORT
 62
7
370
-1
  6
CONTINUOUS
 10
142.0
 20
181.0
 30
0.0
 11
142.0
 21
204.5
 31
0.0
  0
LINE
  5
2C3
100
AcDbEntity
100
AcDbLine
  8
FORT
 62
7
370
-1
  6
CONTINUOUS
 10
154.0
 20
181.0
 30
0.0
 11
154.0
 21
204.5
 31
0.0
  0
LINE
  5
2C4
100
AcDbEntity
100
AcDbLine
  8
FORT
 62
7
370
-1
  6
CONTINUOUS
 10
142.0
 20
204.5
 30
0.0
 11
142.0
 21
181.0
 31
0.0
  0
LINE
  5
2C5
100
AcDbEntity
100
AcDbLine
  8
FORT
 62
7
370
-1
  6
CONTINUOUS
 10
162.0
 20
189.0
 30
0.0
 11
162.0
 21
199.0
 31
0.0
  0
CIRCLE
  5
2C6
100
AcDbEntity
100
AcDbCircle
  8
FORT
 62
7
370
-1
  6
CONTINUOUS
 10
144.9101029999999923
 20
199.7826340000000016
 30
0.0
 40
0.25
  0
CIRCLE
  5
2C7
100
AcDbEntity
100
AcDbCircle
  8
FORT
 62
7
370
-1
  6
CONTINUOUS
 10
135.8630289999999832
 20
200.5409950000000094
 30
0.0
 40
0.25
  0
LINE
  5
2C8
100
AcDbEntity
100
AcDbLine
  8
FORT
 62
7
370
-1
  6
CONTINUOUS
 10
162.6725629999999967
 20
182.5427019999999914
 30
0.0
 11
159.898840000000007
 21
181.9391950000000122
 31
0.0
  0
LINE
  5
2C9
100
AcDbEntity
100
AcDbLine
  8
FORT
 62
7
370
-1
  6
CONTINUOUS
 10
162.3269190000000037
 20
183.4096350000000086
 30
0.0
 11
159.898840000000007
 21
181.9391950000000122
 31
0.0
  0
LINE
  5
2CA
100
AcDbEntity
100
AcDbLine
  8
FIN
 62
5
370
-1
  6
CONTINUOUS
 10
159.898840000000007
 20
181.9391950000000122
 30
0.0
 11
193.3903310000000033
 21
195.152622000000008
 31
0.0
  0
LINE
  5
2CB
100
AcDbEntity
100
AcDbLine
  8
FIN
 62
5
370
-1
  6
CONTINUOUS
 10
172.0
 20
202.0
 30
0.0
 11
172.0
 21
203.0
 31
0.0
  0
LINE
  5
2CC
100
AcDbEntity
100
AcDbLine
  8
FIN
 62
5
370
-1
  6
CONTINUOUS
 10
170.5
 20
195.0
 30
0.0
 11
170.5
 21
202.0
 31
0.0
  0
LINE
  5
2CD
100
AcDbEntity
100
AcDbLine
  8
FORT
 62
7
370
-1
  6
CONTINUOUS
 10
193.3903310000000033
 20
252.2764519999999777
 30
0.0
 11
203.3903310000000033
 21
252.2764519999999777
 31
0.0
  0
MTEXT
  5
2CE
100
AcDbEntity
100
AcDbMText
  8
TEXTE
 62
7
370
-1
  6
CONTINUOUS
 10
176.3903310000000033
 20
254.2764519999999777
 30
0.0
 40
5.0
 41
100.0
 71
7
 72
2
  1
7
  7
ISO9
 50
0.0
 73
1
 44
1.0
  0
MTEXT
  5
2CF
100
AcDbEntity
100
AcDbMText
  8
TEXTE
 62
7
370
-1
  6
CONTINUOUS
 10
136.3903310000000033
 20
254.2764519999999777
 30
0.0
 40
5.0
 41
100.0
 71
7
 72
2
  1
6
  7
ISO9
 50
0.0
 73
1
 44
1.0
  0
LINE
  5
2D0
100
AcDbEntity
100
AcDbLine
  8
FORT
 62
7
370
-1
  6
CONTINUOUS
 10
175.1223659999999995
 20
218.0
 30
0.0
 11
174.1890319999999974
 21
220.8000000000000114
 31
0.0
  0
LINE
  5
2D1
100
AcDbEntity
100
AcDbLine
  8
FORT
 62
7
370
-1
  6
CONTINUOUS
 10
175.1223659999999995
 20
218.0
 30
0.0
 11
176.0556990000000042
 21
220.8000000000000114
 31
0.0
  0
LINE
  5
2D2
100
AcDbEntity
100
AcDbLine
  8
FORT
 62
7
370
-1
  6
CONTINUOUS
 10
175.1223659999999995
 20
227.418611999999996
 30
0.0
 11
175.1223659999999995
 21
218.0
 31
0.0
  0
LINE
  5
2D3
100
AcDbEntity
100
AcDbLine
  8
FORT
 62
7
370
-1
  6
CONTINUOUS
 10
165.7890319999999917
 20
218.0
 30
0.0
 11
160.7890319999999917
 21
218.0
 31
0.0
  0
LINE
  5
2D4
100
AcDbEntity
100
AcDbLine
  8
FORT
 62
7
370
-1
  6
CONTINUOUS
 10
168.7890319999999917
 20
218.0
 30
0.0
 11
166.7890319999999917
 21
218.0
 31
0.0
  0
LINE
  5
2D5
100
AcDbEntity
100
AcDbLine
  8
FORT
 62
7
370
-1
  6
CONTINUOUS
 10
155.0
 20
224.0
 30
0.0
 11
153.0
 21
226.0
 31
0.0
  0
LINE
  5
2D6
100
AcDbEntity
100
AcDbLine
  8
FORT
 62
7
370
-1
  6
CONTINUOUS
 10
179.7890319999999917
 20
218.0
 30
0.0
 11
169.7890319999999917
 21
218.0
 31
0.0
  0
LINE
  5
2D7
100
AcDbEntity
100
AcDbLine
  8
FORT
 62
7
370
-1
  6
CONTINUOUS
 10
173.3903310000000033
 20
252.2764519999999777
 30
0.0
 11
183.3903310000000033
 21
252.2764519999999777
 31
0.0
  0
CIRCLE
  5
2D8
100
AcDbEntity
100
AcDbCircle
  8
FORT
 62
7
370
-1
  6
CONTINUOUS
 10
151.0626770000000079
 20
221.0270399999999995
 30
0.0
 40
0.25
  0
LINE
  5
2D9
100
AcDbEntity
100
AcDbLine
  8
FIN
 62
5
370
-1
  6
CONTINUOUS
 10
151.0626770000000079
 20
221.0270399999999995
 30
0.0
 11
173.3903310000000033
 21
252.2764519999999777
 31
0.0
  0
MTEXT
  5
2DA
100
AcDbEntity
100
AcDbMText
  8
TEXTE
 62
7
370
-1
  6
CONTINUOUS
 10
196.3903310000000033
 20
254.2764519999999777
 30
0.0
 40
5.0
 41
100.0
 71
7
 72
2
  1
8
  7
ISO9
 50
0.0
 73
1
 44
1.0
  0
MTEXT
  5
2DB
100
AcDbEntity
100
AcDbMText
  8
TEXTE
 62
7
370
-1
  6
CONTINUOUS
 10
58.6945180000000022
 20
164.9778280000000166
 30
0.0
 40
5.0
 41
100.0
 71
8
 72
2
  1
Pi\U+00e8ce\~\U+00e0
  7
normallatin1
 50
0.0
 73
1
 44
1.0
  0
MTEXT
  5
2DC
100
AcDbEntity
100
AcDbMText
  8
TEXTE
 62
7
370
-1
  6
CONTINUOUS
 10
95.4495353629782102
 20
126.6160840000000007
 30
0.0
 40
5.0
 41
100.0
 71
9
 72
2
  1
Table\~de\~machine-outil
  7
ISO9
 50
0.0
 73
1
 44
1.0
  0
LINE
  5
2DD
100
AcDbEntity
100
AcDbLine
  8
FIN
 62
5
370
-1
  6
CONTINUOUS
 10
17.5267669029817235
 20
124.6160840000000007
 30
0.0
 11
99.0084499999999963
 21
124.6160840000000007
 31
0.0
  0
LINE
  5
2DE
100
AcDbEntity
100
AcDbLine
  8
AXE
 62
256
370
-1
  6
ByLayer
 10
68.0
 20
175.2256710000000055
 30
0.0
 11
68.0
 21
248.2743719999999996
 31
0.0
  0
LINE
  5
2DF
100
AcDbEntity
100
AcDbLine
  8
AXE
 62
256
370
-1
  6
ByLayer
 10
99.0
 20
233.200158000000016
 30
0.0
 11
99.0
 21
145.6653239999999983
 31
0.0
  0
LINE
  5
2E0
100
AcDbEntity
100
AcDbLine
  8
AXE
 62
256
370
-1
  6
ByLayer
 10
131.0
 20
145.6653239999999983
 30
0.0
 11
131.0
 21
210.4948770000000025
 31
0.0
  0
LINE
  5
2E1
100
AcDbEntity
100
AcDbLine
  8
AXE
 62
256
370
-1
  6
ByLayer
 10
121.0
 20
145.357011
 30
0.0
 11
121.0
 21
169.642989
 31
0.0
  0
LINE
  5
2E2
100
AcDbEntity
100
AcDbLine
  8
AXE
 62
256
370
-1
  6
ByLayer
 10
130.0
 20
196.2168159999999943
 30
0.0
 11
130.0
 21
205.052234999999996
 31
0.0
  0
LINE
  5
2E3
100
AcDbEntity
100
AcDbLine
  8
AXE
 62
256
370
-1
  6
ByLayer
 10
90.0670690000000036
 20
218.0
 30
0.0
 11
107.9329309999999964
 21
218.0
 31
0.0
  0
LINE
  5
2E4
100
AcDbEntity
100
AcDbLine
  8
AXE
 62
256
370
-1
  6
ByLayer
 10
148.0
 20
153.7316739999999982
 30
0.0
 11
148.0
 21
210.4948770000000025
 31
0.0
  0
LINE
  5
2E5
100
AcDbEntity
100
AcDbLine
  8
AXE
 62
256
370
-1
  6
ByLayer
 10
159.3852990000000034
 20
162.0
 30
0.0
 11
183.235116000000005
 21
162.0
 31
0.0
  0
LINE
  5
2E6
100
AcDbEntity
100
AcDbLine
  8
AXE
 62
256
370
-1
  6
ByLayer
 10
166.0
 20
196.2168159999999943
 30
0.0
 11
166.0
 21
205.052234999999996
 31
0.0
  0
LINE
  5
2E7
100
AcDbEntity
100
AcDbLine
  8
AXE
 62
256
370
-1
  6
ByLayer
 10
52.4376980000000046
 20
40.9034584410065918
 30
0.0
 11
184.3246980000000121
 21
40.9034584410065918
 31
0.0
  0
LINE
  5
2E8
100
AcDbEntity
100
AcDbLine
  8
AXE
 62
256
370
-1
  6
ByLayer
 10
99.0
 20
40.9034584410065918
 30
0.0
 11
99.0
 21
60.2751214410066041
 31
0.0
  0
LINE
  5
2E9
100
AcDbEntity
100
AcDbLine
  8
AXE
 62
256
370
-1
  6
ByLayer
 10
131.0
 20
40.9034584410065918
 30
0.0
 11
131.0
 21
94.7575104410065876
 31
0.0
  0
LINE
  5
2EA
100
AcDbEntity
100
AcDbLine
  8
AXE
 62
256
370
-1
  6
ByLayer
 10
68.0
 20
40.9034584410065918
 30
0.0
 11
68.0
 21
52.1348234410066027
 31
0.0
  0
LINE
  5
2EB
100
AcDbEntity
100
AcDbLine
  8
AXE
 62
256
370
-1
  6
ByLayer
 10
116.0
 20
90.2370364410066088
 30
0.0
 11
116.0
 21
97.5698814410066007
 31
0.0
  0
LINE
  5
2EC
100
AcDbEntity
100
AcDbLine
  8
AXE
 62
256
370
-1
  6
ByLayer
 10
112.8685700000000054
 20
75.9034584410066202
 30
0.0
 11
129.131430000000023
 21
75.9034584410066202
 31
0.0
  0
LINE
  5
2ED
100
AcDbEntity
100
AcDbLine
  8
AXE
 62
256
370
-1
  6
ByLayer
 10
121.0
 20
67.7720284410065972
 30
0.0
 11
121.0
 21
90.8787194410066093
 31
0.0
  0
LINE
  5
2EE
100
AcDbEntity
100
AcDbLine
  8
AXE
 62
256
370
-1
  6
ByLayer
 10
112.3335780000000028
 20
93.9034584410066202
 30
0.0
 11
119.6664230000000089
 21
93.9034584410066202
 31
0.0
  0
LINE
  5
2EF
100
AcDbEntity
100
AcDbLine
  8
AXE
 62
256
370
-1
  6
ByLayer
 10
148.0
 20
40.9034584410065918
 30
0.0
 11
148.0
 21
71.6395944410066079
 31
0.0
  0
LINE
  5
2F0
100
AcDbEntity
100
AcDbLine
  8
INTERROMPU
 62
256
370
-1
  6
ByLayer
 10
92.5447520000000026
 20
164.0
 30
0.0
 11
149.5903840000000002
 21
164.0
 31
0.0
  0
LINE
  5
2F1
100
AcDbEntity
100
AcDbLine
  8
INTERROMPU
 62
256
370
-1
  6
ByLayer
 10
92.5447520000000026
 20
164.0
 30
0.0
 11
92.5447520000000026
 21
200.0
 31
0.0
  0
LINE
  5
2F2
100
AcDbEntity
100
AcDbLine
  8
INTERROMPU
 62
256
370
-1
  6
ByLayer
 10
126.5
 20
151.0
 30
0.0
 11
126.5
 21
164.0
 31
0.0
  0
LINE
  5
2F3
100
AcDbEntity
100
AcDbLine
  8
INTERROMPU
 62
256
370
-1
  6
ByLayer
 10
115.5
 20
151.0
 30
0.0
 11
115.5
 21
164.0
 31
0.0
  0
LINE
  5
2F4
100
AcDbEntity
100
AcDbLine
  8
INTERROMPU
 62
256
370
-1
  6
ByLayer
 10
92.5447520000000026
 20
200.0
 30
0.0
 11
94.8635189999999966
 21
203.0
 31
0.0
  0
LINE
  5
2F5
100
AcDbEntity
100
AcDbLine
  8
INTERROMPU
 62
256
370
-1
  6
ByLayer
 10
84.0
 20
200.0
 30
0.0
 11
92.5447520000000026
 21
200.0
 31
0.0
  0
LINE
  5
2F6
100
AcDbEntity
100
AcDbLine
  8
INTERROMPU
 62
256
370
-1
  6
ByLayer
 10
89.0
 20
203.0
 30
0.0
 11
109.0
 21
203.0
 31
0.0
  0
LINE
  5
2F7
100
AcDbEntity
100
AcDbLine
  8
INTERROMPU
 62
256
370
-1
  6
ByLayer
 10
149.5903840000000002
 20
164.0
 30
0.0
 11
149.5903840000000002
 21
200.0
 31
0.0
  0
LINE
  5
2F8
100
AcDbEntity
100
AcDbLine
  8
INTERROMPU
 62
256
370
-1
  6
ByLayer
 10
149.5903840000000002
 20
200.0
 30
0.0
 11
148.6213199999999972
 21
203.0
 31
0.0
  0
LINE
  5
2F9
100
AcDbEntity
100
AcDbLine
  8
INTERROMPU
 62
256
370
-1
  6
ByLayer
 10
154.0
 20
203.0
 30
0.0
 11
142.0
 21
203.0
 31
0.0
  0
LINE
  5
2FA
100
AcDbEntity
100
AcDbLine
  8
INTERROMPU
 62
256
370
-1
  6
ByLayer
 10
149.5903840000000002
 20
200.0
 30
0.0
 11
178.0
 21
200.0
 31
0.0
  0
LINE
  5
2FB
100
AcDbEntity
100
AcDbLine
  8
FIN
 62
256
370
-1
  6
ByLayer
 10
62.0
 20
178.0
 30
0.0
 11
60.0
 21
178.0
 31
0.0
  0
LINE
  5
2FC
100
AcDbEntity
100
AcDbLine
  8
FIN
 62
256
370
-1
  6
ByLayer
 10
59.0
 20
178.0
 30
0.0
 11
57.0
 21
178.0
 31
0.0
  0
LINE
  5
2FD
100
AcDbEntity
100
AcDbLine
  8
FIN
 62
256
370
-1
  6
ByLayer
 10
63.0
 20
178.0
 30
0.0
 11
78.0
 21
178.0
 31
0.0
  0
LINE
  5
2FE
100
AcDbEntity
100
AcDbLine
  8
FIN
 62
256
370
-1
  6
ByLayer
 10
78.0
 20
178.0
 30
0.0
 11
78.0
 21
170.0
 31
0.0
  0
LINE
  5
2FF
100
AcDbEntity
100
AcDbLine
  8
FIN
 62
256
370
-1
  6
ByLayer
 10
78.0
 20
169.0
 30
0.0
 11
78.0
 21
167.0
 31
0.0
  0
LINE
  5
300
100
AcDbEntity
100
AcDbLine
  8
FIN
 62
256
370
-1
  6
ByLayer
 10
78.0
 20
166.0
 30
0.0
 11
78.0
 21
164.0
 31
0.0
  0
LINE
  5
301
100
AcDbEntity
100
AcDbLine
  8
FIN
 62
256
370
-1
  6
ByLayer
 10
78.0
 20
163.0
 30
0.0
 11
78.0
 21
151.0
 31
0.0
  0
LINE
  5
302
100
AcDbEntity
100
AcDbLine
  8
FIN
 62
256
370
-1
  6
ByLayer
 10
40.0
 20
166.0
 30
0.0
 11
40.0
 21
164.0
 31
0.0
  0
LINE
  5
303
100
AcDbEntity
100
AcDbLine
  8
FIN
 62
256
370
-1
  6
ByLayer
 10
40.0
 20
163.0
 30
0.0
 11
40.0
 21
161.0
 31
0.0
  0
LINE
  5
304
100
AcDbEntity
100
AcDbLine
  8
FIN
 62
256
370
-1
  6
ByLayer
 10
40.0
 20
160.0
 30
0.0
 11
40.0
 21
151.0
 31
0.0
  0
LINE
  5
305
100
AcDbEntity
100
AcDbLine
  8
FIN
 62
256
370
-1
  6
ByLayer
 10
56.0
 20
178.0
 30
0.0
 11
40.0
 21
178.0
 31
0.0
  0
LINE
  5
306
100
AcDbEntity
100
AcDbLine
  8
FIN
 62
256
370
-1
  6
ByLayer
 10
40.0
 20
178.0
 30
0.0
 11
40.0
 21
167.0
 31
0.0
  0
LINE
  5
307
100
AcDbEntity
100
AcDbLine
  8
FIN
 62
256
370
-1
  6
ByLayer
 10
84.0
 20
151.0
 30
0.0
 11
65.0
 21
151.0
 31
0.0
  0
LINE
  5
308
100
AcDbEntity
100
AcDbLine
  8
FIN
 62
256
370
-1
  6
ByLayer
 10
64.0
 20
151.0
 30
0.0
 11
62.0
 21
151.0
 31
0.0
  0
LINE
  5
309
100
AcDbEntity
100
AcDbLine
  8
FIN
 62
256
370
-1
  6
ByLayer
 10
61.0
 20
151.0
 30
0.0
 11
59.0
 21
151.0
 31
0.0
  0
LINE
  5
30A
100
AcDbEntity
100
AcDbLine
  8
FIN
 62
256
370
-1
  6
ByLayer
 10
58.0
 20
151.0
 30
0.0
 11
34.0
 21
151.0
 31
0.0
  0
LINE
  5
30B
100
AcDbEntity
100
AcDbLine
  8
FIN
 62
5
370
-1
  6
CONTINUOUS
 10
34.0052300000000045
 20
151.0
 30
0.0
 11
35.4370480000000043
 21
144.8663090000000011
 31
0.0
  0
LINE
  5
30C
100
AcDbEntity
100
AcDbLine
  8
FIN
 62
5
370
-1
  6
CONTINUOUS
 10
35.4370480000000043
 20
144.8663090000000011
 30
0.0
 11
39.1316190000000006
 21
140.7123730000000137
 31
0.0
  0
LINE
  5
30D
100
AcDbEntity
100
AcDbLine
  8
FIN
 62
5
370
-1
  6
CONTINUOUS
 10
39.1316190000000006
 20
140.7123730000000137
 30
0.0
 11
44.6571940000000041
 21
138.619798000000003
 31
0.0
  0
LINE
  5
30E
100
AcDbEntity
100
AcDbLine
  8
FIN
 62
5
370
-1
  6
CONTINUOUS
 10
178.3629559999999969
 20
138.6558150000000182
 30
0.0
 11
183.8866790000000151
 21
140.8408330000000035
 31
0.0
  0
LINE
  5
30F
100
AcDbEntity
100
AcDbLine
  8
FIN
 62
5
370
-1
  6
CONTINUOUS
 10
183.8866790000000151
 20
140.8408330000000035
 30
0.0
 11
187.3761560000000088
 21
145.851807000000008
 31
0.0
  0
LINE
  5
310
100
AcDbEntity
100
AcDbLine
  8
FIN
 62
5
370
-1
  6
CONTINUOUS
 10
187.3761560000000088
 20
145.851807000000008
 30
0.0
 11
187.7333280000000002
 21
151.0
 31
0.0
  0
LINE
  5
311
100
AcDbEntity
100
AcDbLine
  8
FIN
 62
5
370
-1
  6
CONTINUOUS
 10
44.6571940000000041
 20
138.619798000000003
 30
0.0
 11
57.0
 21
138.26634845423402
 31
0.0
  0
LINE
  5
312
100
AcDbEntity
100
AcDbLine
  8
FIN
 62
5
370
-1
  6
CONTINUOUS
 10
58.0
 20
138.2377123770108938
 30
0.0
 11
60.0
 21
138.1804402225646413
 31
0.0
  0
LINE
  5
313
100
AcDbEntity
100
AcDbLine
  8
FIN
 62
5
370
-1
  6
CONTINUOUS
 10
61.0
 20
138.1518041453415151
 30
0.0
 11
63.0
 21
138.0945319908952911
 31
0.0
  0
LINE
  5
314
100
AcDbEntity
100
AcDbLine
  8
FIN
 62
5
370
-1
  6
CONTINUOUS
 10
64.0
 20
138.0658959136721649
 30
0.0
 11
91.0888330000000082
 21
137.2901779999999974
 31
0.0
  0
LINE
  5
315
100
AcDbEntity
100
AcDbLine
  8
FIN
 62
5
370
-1
  6
CONTINUOUS
 10
91.0888330000000082
 20
137.2901779999999974
 30
0.0
 11
111.0
 21
138.0820994359538361
 31
0.0
  0
LINE
  5
316
100
AcDbEntity
100
AcDbLine
  8
FIN
 62
5
370
-1
  6
CONTINUOUS
 10
112.0
 20
138.1218721642903517
 30
0.0
 11
114.0
 21
138.2014176209633547
 31
0.0
  0
LINE
  5
317
100
AcDbEntity
100
AcDbLine
  8
FIN
 62
5
370
-1
  6
CONTINUOUS
 10
115.0
 20
138.2411903492998704
 30
0.0
 11
117.0
 21
138.3207358059728733
 31
0.0
  0
LINE
  5
318
100
AcDbEntity
100
AcDbLine
  8
FIN
 62
5
370
-1
  6
CONTINUOUS
 10
118.0
 20
138.360508534309389
 30
0.0
 11
139.1592339999999979
 21
139.2020689999999945
 31
0.0
  0
LINE
  5
319
100
AcDbEntity
100
AcDbLine
  8
FIN
 62
5
370
-1
  6
CONTINUOUS
 10
139.1592339999999979
 20
139.2020689999999945
 30
0.0
 11
149.0
 21
139.0649504429771639
 31
0.0
  0
LINE
  5
31A
100
AcDbEntity
100
AcDbLine
  8
FIN
 62
5
370
-1
  6
CONTINUOUS
 10
150.0
 20
139.0510167149500091
 30
0.0
 11
152.0
 21
139.0231492588956996
 31
0.0
  0
LINE
  5
31B
100
AcDbEntity
100
AcDbLine
  8
FIN
 62
5
370
-1
  6
CONTINUOUS
 10
153.0
 20
139.0092155308685449
 30
0.0
 11
155.0
 21
138.9813480748142354
 31
0.0
  0
LINE
  5
31C
100
AcDbEntity
100
AcDbLine
  8
FIN
 62
5
370
-1
  6
CONTINUOUS
 10
156.0
 20
138.9674143467870806
 30
0.0
 11
178.3629559999999969
 21
138.6558150000000182
 31
0.0
  0
MTEXT
  5
31D
100
AcDbEntity
100
AcDbMText
  8
TEXTE
 62
7
370
-1
  6
CONTINUOUS
 10
252.0805723533812852
 20
68.343073000000004
 30
0.0
 40
5.0
 41
100.0
 71
7
 72
2
  1
Vis\~sans\~t\U+00eate\~fendue,
  7
normallatin1
 50
0.0
 73
1
 44
1.0
  0
ENDSEC
  0
SECTION
  2
OBJECTS
  0
DICTIONARY
  5
C
100
AcDbDictionary
280
0
281
1
  3
ACAD_GROUP
350
D
  3
ACAD_LAYOUT
350
1A
  3
ACAD_MLINESTYLE
350
17
  3
ACAD_PLOTSETTINGS
350
19
  3
ACAD_PLOTSTYLENAME
350
E
  3
AcDbVariableDictionary
350
31E
  0
DICTIONARY
  5
D
100
AcDbDictionary
280
0
281
1
  0
ACDBDICTIONARYWDFLT
  5
E
100
AcDbDictionary
281
1
  3
Normal
350
F
100
AcDbDictionaryWithDefault
340
F
  0
ACDBPLACEHOLDER
  5
F
  0
DICTIONARY
  5
17
100
AcDbDictionary
280
0
281
1
  3
Standard
350
18
  0
MLINESTYLE
  5
18
100
AcDbMlineStyle
  2
STANDARD
 70
0
  3

 62
256
 51
90.0
 52
90.0
 71
2
 49
0.5
 62
256
  6
BYLAYER
 49
-0.5
 62
256
  6
BYLAYER
  0
DICTIONARY
  5
19
100
AcDbDictionary
280
0
281
1
  0
DICTIONARY
  5
1A
100
AcDbDictionary
281
1
  3
Layout1
350
1E
  3
Layout2
350
26
  3
Model
350
22
  0
LAYOUT
  5
1E
100
AcDbPlotSettings
  1

  2
C:\Program Files\AutoCAD 2002\plotters\DWF ePlot (optimized for plotting).pc3
  4

  6

 40
0.0
 41
0.0
 42
0.0
 43
0.0
 44
0.0
 45
0.0
 46
0.0
 47
0.0
 48
0.0
 49
0.0
140
0.0
141
0.0
142
1.0
143
1.0
 70
688
 72
0
 73
0
 74
5
  7

 75
16
147
1.0
148
0.0
149
0.0
100
AcDbLayout
  1
Layout1
 70
1
 71
1
 10
0.0
 20
0.0
 11
420.0
 21
297.0
 12
0.0
 22
0.0
 32
0.0
 14
100000000000000000000.0
 24
100000000000000000000.0
 34
100000000000000000000.0
 15
-100000000000000000000.0
 25
-100000000000000000000.0
 35
-100000000000000000000.0
146
0.0
 13
0.0
 23
0.0
 33
0.0
 16
1.0
 26
0.0
 36
0.0
 17
0.0
 27
1.0
 37
0.0
 76
0
330
1B
  0
LAYOUT
  5
22
100
AcDbPlotSettings
  1

  2
C:\Program Files\AutoCAD 2002\plotters\DWF ePlot (optimized for plotting).pc3
  4

  6

 40
0.0
 41
0.0
 42
0.0
 43
0.0
 44
0.0
 45
0.0
 46
0.0
 47
0.0
 48
0.0
 49
0.0
140
0.0
141
0.0
142
1.0
143
1.0
 70
1712
 72
0
 73
0
 74
0
  7

 75
0
147
1.0
148
0.0
149
0.0
100
AcDbLayout
  1
Model
 70
1
 71
0
 10
0.0
 20
0.0
 11
12.0
 21
9.0
 12
0.0
 22
0.0
 32
0.0
 14
0.0
 24
0.0
 34
0.0
 15
0.0
 25
0.0
 35
0.0
146
0.0
 13
0.0
 23
0.0
 33
0.0
 16
1.0
 26
0.0
 36
0.0
 17
0.0
 27
1.0
 37
0.0
 76
0
330
1F
  0
LAYOUT
  5
26
100
AcDbPlotSettings
  1

  2
C:\Program Files\AutoCAD 2002\plotters\DWF ePlot (optimized for plotting).pc3
  4

  6

 40
0.0
 41
0.0
 42
0.0
 43
0.0
 44
0.0
 45
0.0
 46
0.0
 47
0.0
 48
0.0
 49
0.0
140
0.0
141
0.0
142
1.0
143
1.0
 70
688
 72
0
 73
0
 74
5
  7

 75
16
147
1.0
148
0.0
149
0.0
100
AcDbLayout
  1
Layout2
 70
1
 71
2
 10
0.0
 20
0.0
 11
12.0
 21
9.0
 12
0.0
 22
0.0
 32
0.0
 14
0.0
 24
0.0
 34
0.0
 15
0.0
 25
0.0
 35
0.0
146
0.0
 13
0.0
 23
0.0
 33
0.0
 16
1.0
 26
0.0
 36
0.0
 17
0.0
 27
1.0
 37
0.0
 76
0
330
23
  0
DICTIONARY
  5
31E
100
AcDbDictionary
281
1
  3
DIMASSOC
350
320
  3
HIDETEXT
350
31F
  0
DICTIONARYVAR
  5
31F
100
DictionaryVariables
280
0
  1
2
  0
DICTIONARYVAR
  5
320
100
DictionaryVariables
280
0
  1
1
  0
ENDSEC
  0
EOF
