999
dxflib 2.0.4.8
  0
SECTION
  2
HEADER
  9
$ACADVER
  1
AC1015
  9
$HANDSEED
  5
FFFF
  9
$DIMTAD
 70
0
  9
$AXISUNIT
 10
0.0
 20
0.0
 30
0.0
  9
$USERR4
 40
0.0
  9
$VIEWSIZE
 40
9.0
  9
$SNAPBASE
 10
0.0
 20
0.0
 30
0.0
  9
$CLAYER
  8
HACHURE
  9
$MENU
  1
acad
  9
$VIEWDIR
 10
0.0
 20
0.0
 30
1.0
  9
$CHAMFERA
 40
1.0
  9
$ATTREQ
 70
1
  9
$USERR5
 40
0.0
  9
$DIMASZ
 40
0.18
  9
$GRIDUNIT
 10
0.1
 20
0.1
  9
$DIMADEC
 70
0
  9
$EXTMIN
 10
0.0
 20
0.0
 30
0.0
  9
$ORTHOMODE
 70
0
  9
$REGENMODE
 70
1
  9
$TRACEWID
 40
0.05
  9
$CHAMFERB
 40
1.0
  9
$DIMGAP
 40
0.625
  9
$SNAPSTYLE
 70
0
  9
$DIMSHO
 70
1
  9
$DIMALT
 70
0
  9
$SKETCHINC
 40
0.1
  9
$USRTIMER
 70
1
  9
$ANGBASE
 50
0.0
  9
$LIMMIN
 10
-13.751322
 20
-4.592784
  9
$DIMTSZ
 40
0.0
  9
$AXISMODE
 70
0
  9
$SPLFRAME
 70
0
  9
$SPLINESEGS
 70
10
  9
$AUPREC
 70
0
  9
$LUNITS
 70
2
  9
$BLIPMODE
 70
1
  9
$INSBASE
 10
0.0
 20
0.0
 30
0.0
  9
$DIMRND
 40
0.0
  9
$DIMCEN
 40
0.09
  9
$ELEVATION
 40
0.0
  9
$SKPOLY
 70
0
  9
$USERI1
 70
0
  9
$DIMEXO
 40
0.0625
  9
$INSUNITS
 70
4
  9
$EXTMAX
 10
210.0
 20
297.0
 30
0.0
  9
$FILLMODE
 70
1
  9
$DRAGMODE
 70
2
  9
$TEXTSIZE
 40
0.2
  9
$USERI2
 70
0
  9
$VIEWCTR
 10
6.0
 20
4.5
  9
$DIMSCALE
 40
1.0
  9
$DIMDLE
 40
0.0
  9
$DIMZIN
 70
0
  9
$TDUSRTIMER
 40
0.0
  9
$ANGDIR
 70
0
  9
$USERI3
 70
0
  9
$DIMLUNIT
 70
2
  9
$LIMMAX
 10
476.5491240000000062
 20
301.5927839999999946
  9
$QTEXTMODE
 70
0
  9
$OSMODE
 70
0
  9
$USERI4
 70
0
  9
$DIMTXT
 40
0.18
  9
$GRIDMODE
 70
1
  9
$ATTMODE
 70
1
  9
$DIMLIM
 70
0
  9
$DIMSE1
 70
0
  9
$THICKNESS
 40
0.0
  9
$LIMCHECK
 70
0
  9
$FASTZOOM
 70
1
  9
$PDMODE
 70
0
  9
$USERI5
 70
0
  9
$LUPREC
 70
4
  9
$CELTYPE
  6
CONTINUOUS
  9
$DIMTOH
 70
1
  9
$DIMSE2
 70
0
  9
$DIMLFAC
 40
1.0
  9
$TDINDWG
 40
0.0
  9
$SNAPMODE
 70
0
  9
$SNAPANG
 50
0.0
  9
$CECOLOR
 62
7
  9
$DIMDLI
 40
0.38
  9
$DIMTM
 40
0.0
  9
$DIMASO
 70
1
  9
$PLINEWID
 40
0.0
  9
$DIMSTYLE
  2
Standard
  9
$PLIMMAX
 10
210.0
 20
297.0
  9
$PLIMMIN
 10
0.0
 20
0.0
  9
$LTSCALE
 40
0.3
  9
$DIMTIH
 70
1
  9
$DIMALTD
 70
2
  9
$FILLETRAD
 40
3.0
  9
$TDUPDATE
 40
0.0
  9
$DIMEXE
 40
0.18
  9
$PDSIZE
 40
0.0
  9
$ATTDIA
 70
0
  9
$USERR1
 40
0.0
  9
$PINSBASE
 10
0.0
 20
0.0
 30
0.0
  9
$DIMAUNIT
 70
0
  9
$SNAPUNIT
 10
5.0
 20
5.0
 30
0.0
  9
$SNAPISOPAIR
 70
0
  9
$TEXTSTYLE
  7
STANDARD
  9
$DIMTP
 40
0.0
  9
$DIMTOL
 70
0
  9
$DIMALTF
 40
25.3999999999999986
  9
$TDCREATE
 40
0.0
  9
$COORDS
 70
2
  9
$USERR2
 40
0.0
  9
$AUNITS
 70
0
  9
$USERR3
 40
0.0
  0
ENDSEC
  0
SECTION
  2
TABLES
  0
TABLE
  2
VPORT
  5
8
100
AcDbSymbolTable
 70
1
  0
VPORT
  5
30
100
AcDbSymbolTableRecord
100
AcDbViewportTableRecord
  2
*Active
 70
0
 10
0.0
 20
0.0
 11
1.0
 21
1.0
 12
286.3055555555554861
 22
148.5
 13
0.0
 23
0.0
 14
10.0
 24
10.0
 15
10.0
 25
10.0
 16
0.0
 26
0.0
 36
1.0
 17
0.0
 27
0.0
 37
0.0
 40
297.0
 41
1.92798353909465
 42
50.0
 43
0.0
 44
0.0
 50
0.0
 51
0.0
 71
0
 72
100
 73
1
 74
3
 75
1
 76
1
 77
0
 78
0
281
0
 65
1
110
0.0
120
0.0
130
0.0
111
1.0
121
0.0
131
0.0
112
0.0
122
1.0
132
0.0
 79
0
146
0.0
  0
ENDTAB
  0
TABLE
  2
LTYPE
  5
5
100
AcDbSymbolTable
 70
21
  0
LTYPE
  5
14
100
AcDbSymbolTableRecord
100
AcDbLinetypeTableRecord
  2
ByBlock
 70
0
  3

 72
65
 73
0
 40
0.0
  0
LTYPE
  5
15
100
AcDbSymbolTableRecord
100
AcDbLinetypeTableRecord
  2
ByLayer
 70
0
  3

 72
65
 73
0
 40
0.0
  0
LTYPE
  5
16
100
AcDbSymbolTableRecord
100
AcDbLinetypeTableRecord
  2
CONTINUOUS
 70
0
  3
Solid line
 72
65
 73
0
 40
0.0
  0
LTYPE
  5
31
100
AcDbSymbolTableRecord
100
AcDbLinetypeTableRecord
  2
DOT
 70
0
  3
Dot . . . . . . . . . . . . . . . . . . . . . .
 72
65
 73
2
 40
6.3499999999999996
 49
0.0
 74
0
 49
-6.3499999999999996
 74
0
  0
LTYPE
  5
32
100
AcDbSymbolTableRecord
100
AcDbLinetypeTableRecord
  2
DOT2
 70
0
  3
Dot (.5x) .....................................
 72
65
 73
2
 40
3.1749999999999998
 49
0.0
 74
0
 49
-3.1749999999999998
 74
0
  0
LTYPE
  5
33
100
AcDbSymbolTableRecord
100
AcDbLinetypeTableRecord
  2
DOTX2
 70
0
  3
Dot (2x) .  .  .  .  .  .  .  .  .  .  .  .  .
 72
65
 73
2
 40
12.6999999999999993
 49
0.0
 74
0
 49
-12.6999999999999993
 74
0
  0
LTYPE
  5
34
100
AcDbSymbolTableRecord
100
AcDbLinetypeTableRecord
  2
DASHED
 70
0
  3
Dashed __ __ __ __ __ __ __ __ __ __ __ __ __ _
 72
65
 73
2
 40
19.0500000000000007
 49
12.6999999999999993
 74
0
 49
-6.3499999999999996
 74
0
  0
LTYPE
  5
35
100
AcDbSymbolTableRecord
100
AcDbLinetypeTableRecord
  2
DASHED2
 70
0
  3
Dashed (.5x) _ _ _ _ _ _ _ _ _ _ _ _ _ _ _ _ _
 72
65
 73
2
 40
9.5250000000000004
 49
6.3499999999999996
 74
0
 49
-3.1749999999999998
 74
0
  0
LTYPE
  5
36
100
AcDbSymbolTableRecord
100
AcDbLinetypeTableRecord
  2
DASHEDX2
 70
0
  3
Dashed (2x) ____  ____  ____  ____  ____  ___
 72
65
 73
2
 40
38.1000000000000014
 49
25.3999999999999986
 74
0
 49
-12.6999999999999993
 74
0
  0
LTYPE
  5
37
100
AcDbSymbolTableRecord
100
AcDbLinetypeTableRecord
  2
DASHDOT
 70
0
  3
Dash dot __ . __ . __ . __ . __ . __ . __ . __
 72
65
 73
4
 40
25.3999999999999986
 49
12.6999999999999993
 74
0
 49
-6.3499999999999996
 74
0
 49
0.0
 74
0
 49
-6.3499999999999996
 74
0
  0
LTYPE
  5
38
100
AcDbSymbolTableRecord
100
AcDbLinetypeTableRecord
  2
DASHDOT2
 70
0
  3
Dash dot (.5x) _._._._._._._._._._._._._._._.
 72
65
 73
4
 40
12.6999999999999993
 49
6.3499999999999996
 74
0
 49
-3.1749999999999998
 74
0
 49
0.0
 74
0
 49
-3.1749999999999998
 74
0
  0
LTYPE
  5
39
100
AcDbSymbolTableRecord
100
AcDbLinetypeTableRecord
  2
DASHDOTX2
 70
0
  3
Dash dot (2x) ____  .  ____  .  ____  .  ___
 72
65
 73
4
 40
50.7999999999999972
 49
25.3999999999999986
 74
0
 49
-12.6999999999999993
 74
0
 49
0.0
 74
0
 49
-12.6999999999999993
 74
0
  0
LTYPE
  5
3A
100
AcDbSymbolTableRecord
100
AcDbLinetypeTableRecord
  2
DIVIDE
 70
0
  3
Divide ____ . . ____ . . ____ . . ____ . . ____
 72
65
 73
6
 40
31.75
 49
12.6999999999999993
 74
0
 49
-6.3499999999999996
 74
0
 49
0.0
 74
0
 49
-6.3499999999999996
 74
0
 49
0.0
 74
0
 49
-6.3499999999999996
 74
0
  0
LTYPE
  5
3B
100
AcDbSymbolTableRecord
100
AcDbLinetypeTableRecord
  2
DIVIDE2
 70
0
  3
Divide (.5x) __..__..__..__..__..__..__..__.._
 72
65
 73
6
 40
15.875
 49
6.3499999999999996
 74
0
 49
-3.1749999999999998
 74
0
 49
0.0
 74
0
 49
-3.1749999999999998
 74
0
 49
0.0
 74
0
 49
-3.1749999999999998
 74
0
  0
LTYPE
  5
3C
100
AcDbSymbolTableRecord
100
AcDbLinetypeTableRecord
  2
DIVIDEX2
 70
0
  3
Divide (2x) ________  .  .  ________  .  .  _
 72
65
 73
6
 40
63.5
 49
25.3999999999999986
 74
0
 49
-12.6999999999999993
 74
0
 49
0.0
 74
0
 49
-12.6999999999999993
 74
0
 49
0.0
 74
0
 49
-12.6999999999999993
 74
0
  0
LTYPE
  5
3D
100
AcDbSymbolTableRecord
100
AcDbLinetypeTableRecord
  2
CENTER
 70
0
  3
Center ____ _ ____ _ ____ _ ____ _ ____ _ ____
 72
65
 73
4
 40
50.7999999999999972
 49
31.75
 74
0
 49
-6.3499999999999996
 74
0
 49
6.3499999999999996
 74
0
 49
-6.3499999999999996
 74
0
  0
LTYPE
  5
3E
100
AcDbSymbolTableRecord
100
AcDbLinetypeTableRecord
  2
CENTER2
 70
0
  3
Center (.5x) ___ _ ___ _ ___ _ ___ _ ___ _ ___
 72
65
 73
4
 40
28.5749999999999993
 49
19.0500000000000007
 74
0
 49
-3.1749999999999998
 74
0
 49
3.1749999999999998
 74
0
 49
-3.1749999999999998
 74
0
  0
LTYPE
  5
3F
100
AcDbSymbolTableRecord
100
AcDbLinetypeTableRecord
  2
CENTERX2
 70
0
  3
Center (2x) ________  __  ________  __  _____
 72
65
 73
4
 40
101.5999999999999943
 49
63.5
 74
0
 49
-12.6999999999999993
 74
0
 49
12.6999999999999993
 74
0
 49
-12.6999999999999993
 74
0
  0
LTYPE
  5
40
100
AcDbSymbolTableRecord
100
AcDbLinetypeTableRecord
  2
BORDER
 70
0
  3
Border __ __ . __ __ . __ __ . __ __ . __ __ .
 72
65
 73
6
 40
44.4500000000000028
 49
12.6999999999999993
 74
0
 49
-6.3499999999999996
 74
0
 49
12.6999999999999993
 74
0
 49
-6.3499999999999996
 74
0
 49
0.0
 74
0
 49
-6.3499999999999996
 74
0
  0
LTYPE
  5
41
100
AcDbSymbolTableRecord
100
AcDbLinetypeTableRecord
  2
BORDER2
 70
0
  3
Border (.5x) __.__.__.__.__.__.__.__.__.__.__.
 72
65
 73
6
 40
22.2250000000000014
 49
6.3499999999999996
 74
0
 49
-3.1749999999999998
 74
0
 49
6.3499999999999996
 74
0
 49
-3.1749999999999998
 74
0
 49
0.0
 74
0
 49
-3.1749999999999998
 74
0
  0
LTYPE
  5
42
100
AcDbSymbolTableRecord
100
AcDbLinetypeTableRecord
  2
BORDERX2
 70
0
  3
Border (2x) ____  ____  .  ____  ____  .  ___
 72
65
 73
6
 40
88.9000000000000057
 49
25.3999999999999986
 74
0
 49
-12.6999999999999993
 74
0
 49
25.3999999999999986
 74
0
 49
-12.6999999999999993
 74
0
 49
0.0
 74
0
 49
-12.6999999999999993
 74
0
  0
ENDTAB
  0
TABLE
  2
LAYER
  5
2
100
AcDbSymbolTable
 70
7
  0
LAYER
  5
10
100
AcDbSymbolTableRecord
100
AcDbLayerTableRecord
  2
0
 70
0
 62
7
  6
CONTINUOUS
390
F
  0
LAYER
  5
43
100
AcDbSymbolTableRecord
100
AcDbLayerTableRecord
  2
FORT
 70
0
 62
7
  6
CONTINUOUS
370
50
390
F
  0
LAYER
  5
44
100
AcDbSymbolTableRecord
100
AcDbLayerTableRecord
  2
FIN
 70
0
 62
5
  6
CONTINUOUS
370
25
390
F
  0
LAYER
  5
45
100
AcDbSymbolTableRecord
100
AcDbLayerTableRecord
  2
TEXTE
 70
0
 62
7
  6
CONTINUOUS
390
F
  0
LAYER
  5
46
100
AcDbSymbolTableRecord
100
AcDbLayerTableRecord
  2
HACHURE
 70
0
 62
7
  6
CONTINUOUS
370
25
390
F
  0
LAYER
  5
47
100
AcDbSymbolTableRecord
100
AcDbLayerTableRecord
  2
AXE
 70
0
 62
3
  6
CENTERX2
370
20
390
F
  0
LAYER
  5
48
100
AcDbSymbolTableRecord
100
AcDbLayerTableRecord
  2
INTERROMPU
 70
0
 62
5
  6
DASHED
370
20
390
F
  0
ENDTAB
  0
TABLE
  2
STYLE
  5
3
100
AcDbSymbolTable
 70
1
  0
STYLE
  5
11
100
AcDbSymbolTableRecord
100
AcDbTextStyleTableRecord
  2
Standard
 70
0
 40
0.0
 41
0.75
 50
0.0
 71
0
 42
2.5
  3
txt
  4

  0
ENDTAB
  0
TABLE
  2
VIEW
  5
6
100
AcDbSymbolTable
 70
0
  0
ENDTAB
  0
TABLE
  2
UCS
  5
7
100
AcDbSymbolTable
 70
0
  0
ENDTAB
  0
TABLE
  2
APPID
  5
9
100
AcDbSymbolTable
 70
1
  0
APPID
  5
12
100
AcDbSymbolTableRecord
100
AcDbRegAppTableRecord
  2
ACAD
 70
0
  0
ENDTAB
  0
TABLE
  2
DIMSTYLE
  5
A
100
AcDbSymbolTable
 70
1
100
AcDbDimStyleTable
 71
0
  0
DIMSTYLE
105
27
100
AcDbSymbolTableRecord
100
AcDbDimStyleTableRecord
  2
Standard
 41
0.18
 42
0.0625
 43
3.75
 44
0.18
 70
0
 73
0
 74
0
 77
1
 78
8
140
0.18
141
2.5
143
0.03937007874016
147
0.625
171
3
172
1
271
2
272
2
274
3
278
44
283
0
284
8
340
11
  0
ENDTAB
  0
TABLE
  2
BLOCK_RECORD
  5
1
100
AcDbSymbolTable
 70
1
  0
BLOCK_RECORD
  5
1F
100
AcDbSymbolTableRecord
100
AcDbBlockTableRecord
  2
*Model_Space
340
22
  0
BLOCK_RECORD
  5
1B
100
AcDbSymbolTableRecord
100
AcDbBlockTableRecord
  2
*Paper_Space
340
1E
  0
BLOCK_RECORD
  5
23
100
AcDbSymbolTableRecord
100
AcDbBlockTableRecord
  2
*Paper_Space0
340
26
  0
BLOCK_RECORD
  5
49
100
AcDbSymbolTableRecord
100
AcDbBlockTableRecord
  2
DESENS-G1
340
0
  0
BLOCK_RECORD
  5
4A
100
AcDbSymbolTableRecord
100
AcDbBlockTableRecord
  2
DESENS-G2
340
0
  0
BLOCK_RECORD
  5
4B
100
AcDbSymbolTableRecord
100
AcDbBlockTableRecord
  2
DESENS-G3
340
0
  0
BLOCK_RECORD
  5
4C
100
AcDbSymbolTableRecord
100
AcDbBlockTableRecord
  2
DESENS-G4
340
0
  0
BLOCK_RECORD
  5
4D
100
AcDbSymbolTableRecord
100
AcDbBlockTableRecord
  2
DESENS-G5
340
0
  0
BLOCK_RECORD
  5
4E
100
AcDbSymbolTableRecord
100
AcDbBlockTableRecord
  2
DESENS-G6
340
0
  0
BLOCK_RECORD
  5
4F
100
AcDbSymbolTableRecord
100
AcDbBlockTableRecord
  2
DESENS-G7
340
0
  0
BLOCK_RECORD
  5
50
100
AcDbSymbolTableRecord
100
AcDbBlockTableRecord
  2
DESENS-G8
340
0
  0
BLOCK_RECORD
  5
51
100
AcDbSymbolTableRecord
100
AcDbBlockTableRecord
  2
DESENS-G9
340
0
  0
BLOCK_RECORD
  5
52
100
AcDbSymbolTableRecord
100
AcDbBlockTableRecord
  2
DESENS-G10
340
0
  0
BLOCK_RECORD
  5
53
100
AcDbSymbolTableRecord
100
AcDbBlockTableRecord
  2
DESENS-G11
340
0
  0
ENDTAB
  0
ENDSEC
  0
SECTION
  2
BLOCKS
  0
BLOCK
  5
20
100
AcDbEntity
  8
0
100
AcDbBlockBegin
  2
*Model_Space
 70
0
 10
0.0
 20
0.0
 30
0.0
  3
*Model_Space
  1

  0
ENDBLK
  5
21
100
AcDbEntity
  8
0
100
AcDbBlockEnd
  0
BLOCK
  5
1C
100
AcDbEntity
 67
1
  8
0
100
AcDbBlockBegin
  2
*Paper_Space
 70
0
 10
0.0
 20
0.0
 30
0.0
  3
*Paper_Space
  1

  0
ENDBLK
  5
1D
100
AcDbEntity
 67
1
  8
0
100
AcDbBlockEnd
  0
BLOCK
  5
24
100
AcDbEntity
  8
0
100
AcDbBlockBegin
  2
*Paper_Space0
 70
0
 10
0.0
 20
0.0
 30
0.0
  3
*Paper_Space0
  1

  0
ENDBLK
  5
25
100
AcDbEntity
  8
0
100
AcDbBlockEnd
  0
BLOCK
  5
54
100
AcDbEntity
  8
0
100
AcDbBlockBegin
  2
DESENS-G1
 70
0
 10
0.0
 20
0.0
 30
0.0
  3
DESENS-G1
  1

  0
LINE
  5
55
100
AcDbEntity
100
AcDbLine
  8
HACHURE
 62
5
370
-1
  6
CONTINUOUS
 10
115.9996069999999975
 20
216.3654689999999903
 30
0.0
 11
108.9171889999999934
 21
219.6680540000000121
 31
0.0
  0
LINE
  5
56
100
AcDbEntity
100
AcDbLine
  8
HACHURE
 62
5
370
-1
  6
CONTINUOUS
 10
105.6938119999999941
 20
217.6679890000000057
 30
0.0
 11
109.9814269999999965
 21
215.668641000000008
 31
0.0
  0
LINE
  5
57
100
AcDbEntity
100
AcDbLine
  8
HACHURE
 62
5
370
-1
  6
CONTINUOUS
 10
102.4684890000000053
 20
215.6688310000000115
 30
0.0
 11
94.6468050000000005
 21
219.3161420000000135
 31
0.0
  0
LINE
  5
58
100
AcDbEntity
100
AcDbLine
  8
HACHURE
 62
5
370
-1
  6
CONTINUOUS
 10
94.0001510000000025
 20
216.1145309999999995
 30
0.0
 11
94.9555509999999998
 21
215.6690209999999865
 31
0.0
  0
LINE
  5
59
100
AcDbEntity
100
AcDbLine
  8
HACHURE
 62
5
370
-1
  6
CONTINUOUS
 10
115.9998800000000045
 20
218.1165210000000059
 30
0.0
 11
114.6515050000000002
 21
218.7452790000000107
 31
0.0
  0
LINE
  5
5A
100
AcDbEntity
100
AcDbLine
  8
HACHURE
 62
5
370
-1
  6
CONTINUOUS
 10
113.9321230000000043
 20
219.0807320000000118
 30
0.0
 11
112.6728580000000051
 21
219.6679379999999924
 31
0.0
  0
LINE
  5
5B
100
AcDbEntity
100
AcDbLine
  8
HACHURE
 62
5
370
-1
  6
CONTINUOUS
 10
108.9934300000000036
 20
217.8805319999999881
 30
0.0
 11
110.4321929999999981
 21
217.2096259999999859
 31
0.0
  0
LINE
  5
5C
100
AcDbEntity
100
AcDbLine
  8
HACHURE
 62
5
370
-1
  6
CONTINUOUS
 10
111.151574999999994
 20
216.8741719999999873
 30
0.0
 11
112.5903390000000002
 21
216.2032660000000135
 31
0.0
  0
LINE
  5
5D
100
AcDbEntity
100
AcDbLine
  8
HACHURE
 62
5
370
-1
  6
CONTINUOUS
 10
113.3097199999999987
 20
215.8678130000000124
 30
0.0
 11
113.737095999999994
 21
215.6685239999999908
 31
0.0
  0
LINE
  5
5E
100
AcDbEntity
100
AcDbLine
  8
HACHURE
 62
5
370
-1
  6
CONTINUOUS
 10
106.2241580000000027
 20
215.6687139999999943
 30
0.0
 11
105.4934999999999974
 21
216.0094259999999906
 31
0.0
  0
LINE
  5
5F
100
AcDbEntity
100
AcDbLine
  8
HACHURE
 62
5
370
-1
  6
CONTINUOUS
 10
104.7741180000000014
 20
216.3448789999999917
 30
0.0
 11
103.3353539999999953
 21
217.0157849999999939
 31
0.0
  0
LINE
  5
60
100
AcDbEntity
100
AcDbLine
  8
HACHURE
 62
5
370
-1
  6
CONTINUOUS
 10
102.6159719999999993
 20
217.3512389999999925
 30
0.0
 11
101.9358940000000047
 21
217.6683639999999968
 31
0.0
  0
LINE
  5
61
100
AcDbEntity
100
AcDbLine
  8
HACHURE
 62
5
370
-1
  6
CONTINUOUS
 10
101.249849999999995
 20
217.9882719999999949
 30
0.0
 11
101.1772090000000048
 21
218.0221449999999948
 31
0.0
  0
LINE
  5
62
100
AcDbEntity
100
AcDbLine
  8
HACHURE
 62
5
370
-1
  6
CONTINUOUS
 10
100.4578269999999947
 20
218.3575979999999959
 30
0.0
 11
99.0190630000000027
 21
219.0285049999999956
 31
0.0
  0
LINE
  5
63
100
AcDbEntity
100
AcDbLine
  8
HACHURE
 62
5
370
-1
  6
CONTINUOUS
 10
98.2996820000000042
 20
219.3639579999999967
 30
0.0
 11
97.6456830000000053
 21
219.6689230000000066
 31
0.0
  0
LINE
  5
64
100
AcDbEntity
100
AcDbLine
  8
HACHURE
 62
5
370
-1
  6
CONTINUOUS
 10
93.9997759999999971
 20
217.8658859999999891
 30
0.0
 11
94.799751999999998
 21
217.4928510000000017
 31
0.0
  0
LINE
  5
65
100
AcDbEntity
100
AcDbLine
  8
HACHURE
 62
5
370
-1
  6
CONTINUOUS
 10
95.5191329999999965
 20
217.1573980000000006
 30
0.0
 11
96.9578970000000027
 21
216.4864919999999984
 31
0.0
  0
LINE
  5
66
100
AcDbEntity
100
AcDbLine
  8
HACHURE
 62
5
370
-1
  6
CONTINUOUS
 10
97.6772789999999986
 20
216.1510379999999998
 30
0.0
 11
98.7112199999999973
 21
215.6689039999999977
 31
0.0
  0
ENDBLK
  5
67
100
AcDbEntity
  8
0
100
AcDbBlockEnd
  0
BLOCK
  5
68
100
AcDbEntity
  8
0
100
AcDbBlockBegin
  2
DESENS-G2
 70
0
 10
0.0
 20
0.0
 30
0.0
  3
DESENS-G2
  1

  0
LINE
  5
69
100
AcDbEntity
100
AcDbLine
  8
HACHURE
 62
5
370
-1
  6
CONTINUOUS
 10
120.9996900000000011
 20
212.3723050000000114
 30
0.0
 11
119.0965649999999982
 21
215.6686139999999909
 31
0.0
  0
LINE
  5
6A
100
AcDbEntity
100
AcDbLine
  8
HACHURE
 62
5
370
-1
  6
CONTINUOUS
 10
116.8737370000000055
 20
215.6686650000000043
 30
0.0
 11
119.1836320000000029
 21
211.667808000000008
 31
0.0
  0
LINE
  5
6B
100
AcDbEntity
100
AcDbLine
  8
HACHURE
 62
5
370
-1
  6
CONTINUOUS
 10
116.9617070000000041
 20
211.6683800000000133
 30
0.0
 11
114.6523320000000012
 21
215.6683350000000132
 31
0.0
  0
LINE
  5
6C
100
AcDbEntity
100
AcDbLine
  8
HACHURE
 62
5
370
-1
  6
CONTINUOUS
 10
112.4295029999999969
 20
215.6683859999999981
 30
0.0
 11
114.7388779999999997
 21
211.6684319999999957
 31
0.0
  0
LINE
  5
6D
100
AcDbEntity
100
AcDbLine
  8
HACHURE
 62
5
370
-1
  6
CONTINUOUS
 10
112.516050000000007
 20
211.668483000000009
 30
0.0
 11
110.2066750000000042
 21
215.668438000000009
 31
0.0
  0
LINE
  5
6E
100
AcDbEntity
100
AcDbLine
  8
HACHURE
 62
5
370
-1
  6
CONTINUOUS
 10
107.9838469999999973
 20
215.6684889999999939
 30
0.0
 11
110.2932220000000001
 21
211.668533999999994
 31
0.0
  0
LINE
  5
6F
100
AcDbEntity
100
AcDbLine
  8
HACHURE
 62
5
370
-1
  6
CONTINUOUS
 10
108.0718169999999958
 20
211.6682040000000029
 30
0.0
 11
105.761921000000001
 21
215.6690609999999992
 31
0.0
  0
LINE
  5
70
100
AcDbEntity
100
AcDbLine
  8
HACHURE
 62
5
370
-1
  6
CONTINUOUS
 10
103.539092999999994
 20
215.6691120000000126
 30
0.0
 11
105.8489890000000031
 21
211.6682549999999878
 31
0.0
  0
LINE
  5
71
100
AcDbEntity
100
AcDbLine
  8
HACHURE
 62
5
370
-1
  6
CONTINUOUS
 10
103.6261609999999962
 20
211.6683060000000012
 30
0.0
 11
101.3162650000000014
 21
215.6691629999999975
 31
0.0
  0
LINE
  5
72
100
AcDbEntity
100
AcDbLine
  8
HACHURE
 62
5
370
-1
  6
CONTINUOUS
 10
99.0934369999999944
 20
215.6692140000000109
 30
0.0
 11
101.4033330000000035
 21
211.6683569999999861
 31
0.0
  0
LINE
  5
73
100
AcDbEntity
100
AcDbLine
  8
HACHURE
 62
5
370
-1
  6
CONTINUOUS
 10
99.181406999999993
 20
211.6689289999999914
 30
0.0
 11
96.8720320000000044
 21
215.6688839999999914
 31
0.0
  0
LINE
  5
74
100
AcDbEntity
100
AcDbLine
  8
HACHURE
 62
5
370
-1
  6
CONTINUOUS
 10
94.6492039999999974
 20
215.6689350000000047
 30
0.0
 11
96.9585790000000003
 21
211.6689800000000048
 31
0.0
  0
LINE
  5
75
100
AcDbEntity
100
AcDbLine
  8
HACHURE
 62
5
370
-1
  6
CONTINUOUS
 10
94.7357509999999934
 20
211.6690319999999872
 30
0.0
 11
92.4263760000000048
 21
215.6689859999999896
 31
0.0
  0
LINE
  5
76
100
AcDbEntity
100
AcDbLine
  8
HACHURE
 62
5
370
-1
  6
CONTINUOUS
 10
90.2035479999999978
 20
215.6690380000000005
 30
0.0
 11
92.5129230000000007
 21
211.6690830000000005
 31
0.0
  0
LINE
  5
77
100
AcDbEntity
100
AcDbLine
  8
HACHURE
 62
5
370
-1
  6
CONTINUOUS
 10
90.2915179999999964
 20
211.6687530000000095
 30
0.0
 11
89.0008930000000049
 21
213.9041809999999941
 31
0.0
  0
LINE
  5
78
100
AcDbEntity
100
AcDbLine
  8
HACHURE
 62
5
370
-1
  6
CONTINUOUS
 10
121.0
 20
214.5283310000000085
 30
0.0
 11
89.0
 21
214.5283310000000085
 31
0.0
  0
LINE
  5
79
100
AcDbEntity
100
AcDbLine
  8
HACHURE
 62
5
370
-1
  6
CONTINUOUS
 10
89.0
 20
212.6033309999999972
 30
0.0
 11
121.0
 21
212.6033309999999972
 31
0.0
  0
ENDBLK
  5
7A
100
AcDbEntity
  8
0
100
AcDbBlockEnd
  0
BLOCK
  5
7B
100
AcDbEntity
  8
0
100
AcDbBlockBegin
  2
DESENS-G3
 70
0
 10
0.0
 20
0.0
 30
0.0
  3
DESENS-G3
  1

  0
LINE
  5
7C
100
AcDbEntity
100
AcDbLine
  8
HACHURE
 62
5
370
-1
  6
CONTINUOUS
 10
118.9997189999999989
 20
257.7531490000000076
 30
0.0
 11
116.2588750000000033
 21
261.6674790000000144
 31
0.0
  0
LINE
  5
7D
100
AcDbEntity
100
AcDbLine
  8
HACHURE
 62
5
370
-1
  6
CONTINUOUS
 10
115.9998350000000045
 20
256.5019040000000246
 30
0.0
 11
118.9996849999999995
 21
252.2176750000000141
 31
0.0
  0
LINE
  5
7E
100
AcDbEntity
100
AcDbLine
  8
HACHURE
 62
5
370
-1
  6
CONTINUOUS
 10
118.9996500000000026
 20
246.6822009999999921
 30
0.0
 11
115.999801000000005
 21
250.9664300000000026
 31
0.0
  0
LINE
  5
7F
100
AcDbEntity
100
AcDbLine
  8
HACHURE
 62
5
370
-1
  6
CONTINUOUS
 10
109.9998779999999954
 20
259.5352080000000115
 30
0.0
 11
108.5067860000000053
 21
261.6675629999999728
 31
0.0
  0
LINE
  5
80
100
AcDbEntity
100
AcDbLine
  8
HACHURE
 62
5
370
-1
  6
CONTINUOUS
 10
106.9997690000000006
 20
258.2842840000000137
 30
0.0
 11
110.0000670000000014
 21
253.9994140000000016
 31
0.0
  0
LINE
  5
81
100
AcDbEntity
100
AcDbLine
  8
HACHURE
 62
5
370
-1
  6
CONTINUOUS
 10
115.2001199999999983
 20
246.5729690000000005
 30
0.0
 11
118.9996160000000032
 21
241.1467269999999985
 31
0.0
  0
LINE
  5
82
100
AcDbEntity
100
AcDbLine
  8
HACHURE
 62
5
370
-1
  6
CONTINUOUS
 10
118.9995810000000063
 20
235.6112530000000049
 30
0.0
 11
115.2000859999999989
 21
241.0374950000000069
 31
0.0
  0
LINE
  5
83
100
AcDbEntity
100
AcDbLine
  8
HACHURE
 62
5
370
-1
  6
CONTINUOUS
 10
110.8003510000000063
 20
247.320966999999996
 30
0.0
 11
106.9997350000000012
 21
252.7488099999999918
 31
0.0
  0
LINE
  5
84
100
AcDbEntity
100
AcDbLine
  8
HACHURE
 62
5
370
-1
  6
CONTINUOUS
 10
106.9997010000000017
 20
247.2133359999999982
 30
0.0
 11
110.8000930000000039
 21
241.7858129999999903
 31
0.0
  0
LINE
  5
85
100
AcDbEntity
100
AcDbLine
  8
HACHURE
 62
5
370
-1
  6
CONTINUOUS
 10
113.5474339999999955
 20
237.8622029999999938
 30
0.0
 11
118.9995470000000068
 21
230.0757790000000114
 31
0.0
  0
LINE
  5
86
100
AcDbEntity
100
AcDbLine
  8
HACHURE
 62
5
370
-1
  6
CONTINUOUS
 10
115.4090580000000017
 20
229.6680049999999937
 30
0.0
 11
106.9996660000000048
 21
241.6778620000000046
 31
0.0
  0
LINE
  5
87
100
AcDbEntity
100
AcDbLine
  8
HACHURE
 62
5
370
-1
  6
CONTINUOUS
 10
106.9996320000000054
 20
236.1423880000000111
 30
0.0
 11
114.9999030000000033
 21
224.7168169999999918
 31
0.0
  0
LINE
  5
88
100
AcDbEntity
100
AcDbLine
  8
HACHURE
 62
5
370
-1
  6
CONTINUOUS
 10
113.9586919999999992
 20
220.668295999999998
 30
0.0
 11
110.9996210000000048
 21
224.8942879999999889
 31
0.0
  0
LINE
  5
89
100
AcDbEntity
100
AcDbLine
  8
HACHURE
 62
5
370
-1
  6
CONTINUOUS
 10
107.6571930000000066
 20
229.6677689999999927
 30
0.0
 11
106.9995969999999943
 21
230.6069139999999891
 31
0.0
  0
LINE
  5
8A
100
AcDbEntity
100
AcDbLine
  8
HACHURE
 62
5
370
-1
  6
CONTINUOUS
 10
110.0000840000000011
 20
220.7862509999999929
 30
0.0
 11
110.0827599999999933
 21
220.6681780000000117
 31
0.0
  0
LINE
  5
8B
100
AcDbEntity
100
AcDbLine
  8
HACHURE
 62
5
370
-1
  6
CONTINUOUS
 10
118.6108490000000018
 20
261.0771809999999959
 30
0.0
 11
118.1973799999999954
 21
261.6676770000000261
 31
0.0
  0
LINE
  5
8C
100
AcDbEntity
100
AcDbLine
  8
HACHURE
 62
5
370
-1
  6
CONTINUOUS
 10
115.9998300000000029
 20
259.2705789999999979
 30
0.0
 11
116.010003999999995
 21
259.2560500000000161
 31
0.0
  0
LINE
  5
8D
100
AcDbEntity
100
AcDbLine
  8
HACHURE
 62
5
370
-1
  6
CONTINUOUS
 10
116.465280000000007
 20
258.6058479999999804
 30
0.0
 11
117.3758330000000001
 21
257.3054440000000227
 31
0.0
  0
LINE
  5
8E
100
AcDbEntity
100
AcDbLine
  8
HACHURE
 62
5
370
-1
  6
CONTINUOUS
 10
117.8311089999999979
 20
256.655241999999987
 30
0.0
 11
118.7416620000000052
 21
255.3548380000000009
 31
0.0
  0
LINE
  5
8F
100
AcDbEntity
100
AcDbLine
  8
HACHURE
 62
5
370
-1
  6
CONTINUOUS
 10
118.8724739999999969
 20
249.6324950000000058
 30
0.0
 11
117.9619220000000013
 21
250.9328989999999919
 31
0.0
  0
LINE
  5
90
100
AcDbEntity
100
AcDbLine
  8
HACHURE
 62
5
370
-1
  6
CONTINUOUS
 10
117.506645000000006
 20
251.5831009999999992
 30
0.0
 11
116.5960929999999962
 21
252.8835050000000138
 31
0.0
  0
LINE
  5
91
100
AcDbEntity
100
AcDbLine
  8
HACHURE
 62
5
370
-1
  6
CONTINUOUS
 10
116.1408160000000009
 20
253.5337069999999926
 30
0.0
 11
115.9997960000000035
 21
253.7351050000000043
 31
0.0
  0
LINE
  5
92
100
AcDbEntity
100
AcDbLine
  8
HACHURE
 62
5
370
-1
  6
CONTINUOUS
 10
107.1661030000000068
 20
260.8154030000000034
 30
0.0
 11
108.0766559999999998
 21
259.5149989999999889
 31
0.0
  0
LINE
  5
93
100
AcDbEntity
100
AcDbLine
  8
HACHURE
 62
5
370
-1
  6
CONTINUOUS
 10
108.5319319999999976
 20
258.86479700000001
 30
0.0
 11
109.4424850000000049
 21
257.5643929999999955
 31
0.0
  0
LINE
  5
94
100
AcDbEntity
100
AcDbLine
  8
HACHURE
 62
5
370
-1
  6
CONTINUOUS
 10
109.8977610000000027
 20
256.9141910000000166
 30
0.0
 11
109.9998379999999969
 21
256.7684100000000171
 31
0.0
  0
LINE
  5
95
100
AcDbEntity
100
AcDbLine
  8
HACHURE
 62
5
370
-1
  6
CONTINUOUS
 10
115.8893029999999982
 20
248.3573820000000012
 30
0.0
 11
116.2716290000000043
 21
247.8113639999999975
 31
0.0
  0
LINE
  5
96
100
AcDbEntity
100
AcDbLine
  8
HACHURE
 62
5
370
-1
  6
CONTINUOUS
 10
116.7269050000000021
 20
247.1611619999999903
 30
0.0
 11
117.6374579999999952
 21
245.8607580000000041
 31
0.0
  0
LINE
  5
97
100
AcDbEntity
100
AcDbLine
  8
HACHURE
 62
5
370
-1
  6
CONTINUOUS
 10
118.092733999999993
 20
245.2105559999999969
 30
0.0
 11
118.9996110000000016
 21
243.9154020000000003
 31
0.0
  0
LINE
  5
98
100
AcDbEntity
100
AcDbLine
  8
HACHURE
 62
5
370
-1
  6
CONTINUOUS
 10
118.9995760000000047
 20
238.3799280000000067
 30
0.0
 11
118.2235469999999964
 21
239.4882130000000018
 31
0.0
  0
LINE
  5
99
100
AcDbEntity
100
AcDbLine
  8
HACHURE
 62
5
370
-1
  6
CONTINUOUS
 10
117.7682709999999986
 20
240.1384150000000091
 30
0.0
 11
116.8577180000000055
 21
241.4388189999999952
 31
0.0
  0
LINE
  5
9A
100
AcDbEntity
100
AcDbLine
  8
HACHURE
 62
5
370
-1
  6
CONTINUOUS
 10
116.4024419999999935
 20
242.0890210000000025
 30
0.0
 11
115.4918890000000005
 21
243.3894249999999886
 31
0.0
  0
LINE
  5
9B
100
AcDbEntity
100
AcDbLine
  8
HACHURE
 62
5
370
-1
  6
CONTINUOUS
 10
109.5732969999999966
 20
251.8420500000000004
 30
0.0
 11
108.662745000000001
 21
253.1424539999999865
 31
0.0
  0
LINE
  5
9C
100
AcDbEntity
100
AcDbLine
  8
HACHURE
 62
5
370
-1
  6
CONTINUOUS
 10
108.2074680000000058
 20
253.7926559999999938
 30
0.0
 11
107.296915999999996
 21
255.0930600000000084
 31
0.0
  0
LINE
  5
9D
100
AcDbEntity
100
AcDbLine
  8
HACHURE
 62
5
370
-1
  6
CONTINUOUS
 10
107.4277280000000019
 20
249.3707170000000133
 30
0.0
 11
108.3382809999999949
 21
248.0703129999999987
 31
0.0
  0
LINE
  5
9E
100
AcDbEntity
100
AcDbLine
  8
HACHURE
 62
5
370
-1
  6
CONTINUOUS
 10
108.793557000000007
 20
247.4201109999999915
 30
0.0
 11
109.70411
 21
246.1197070000000053
 31
0.0
  0
LINE
  5
9F
100
AcDbEntity
100
AcDbLine
  8
HACHURE
 62
5
370
-1
  6
CONTINUOUS
 10
110.1593859999999978
 20
245.4695049999999981
 30
0.0
 11
110.8000880000000024
 21
244.5544889999999896
 31
0.0
  0
LINE
  5
A0
100
AcDbEntity
100
AcDbLine
  8
HACHURE
 62
5
370
-1
  6
CONTINUOUS
 10
114.9280459999999948
 20
238.6591540000000009
 30
0.0
 11
115.1674249999999944
 21
238.3172840000000008
 31
0.0
  0
LINE
  5
A1
100
AcDbEntity
100
AcDbLine
  8
HACHURE
 62
5
370
-1
  6
CONTINUOUS
 10
115.6227020000000039
 20
237.6670819999999935
 30
0.0
 11
116.5332539999999995
 21
236.3666780000000074
 31
0.0
  0
LINE
  5
A2
100
AcDbEntity
100
AcDbLine
  8
HACHURE
 62
5
370
-1
  6
CONTINUOUS
 10
116.9885309999999947
 20
235.7164760000000001
 30
0.0
 11
117.8990830000000045
 21
234.416072000000014
 31
0.0
  0
LINE
  5
A3
100
AcDbEntity
100
AcDbLine
  8
HACHURE
 62
5
370
-1
  6
CONTINUOUS
 10
118.3543590000000023
 20
233.7658700000000067
 30
0.0
 11
118.9995420000000053
 21
232.8444540000000131
 31
0.0
  0
LINE
  5
A4
100
AcDbEntity
100
AcDbLine
  8
HACHURE
 62
5
370
-1
  6
CONTINUOUS
 10
117.3477869999999967
 20
229.6678819999999916
 30
0.0
 11
117.1193430000000006
 21
229.994133000000005
 31
0.0
  0
LINE
  5
A5
100
AcDbEntity
100
AcDbLine
  8
HACHURE
 62
5
370
-1
  6
CONTINUOUS
 10
116.6640670000000028
 20
230.6443350000000123
 30
0.0
 11
115.7535139999999956
 21
231.9447389999999984
 31
0.0
  0
LINE
  5
A6
100
AcDbEntity
100
AcDbLine
  8
HACHURE
 62
5
370
-1
  6
CONTINUOUS
 10
115.2982379999999978
 20
232.5949410000000057
 30
0.0
 11
114.3876850000000047
 21
233.8953449999999918
 31
0.0
  0
LINE
  5
A7
100
AcDbEntity
100
AcDbLine
  8
HACHURE
 62
5
370
-1
  6
CONTINUOUS
 10
113.9324090000000069
 20
234.5455469999999991
 30
0.0
 11
113.0218569999999971
 21
235.8459510000000137
 31
0.0
  0
LINE
  5
A8
100
AcDbEntity
100
AcDbLine
  8
HACHURE
 62
5
370
-1
  6
CONTINUOUS
 10
112.5665800000000019
 20
236.496151999999995
 30
0.0
 11
111.6560280000000063
 21
237.7965560000000096
 31
0.0
  0
LINE
  5
A9
100
AcDbEntity
100
AcDbLine
  8
HACHURE
 62
5
370
-1
  6
CONTINUOUS
 10
111.2007509999999968
 20
238.4467579999999884
 30
0.0
 11
111.0386699999999962
 21
238.6782350000000008
 31
0.0
  0
LINE
  5
AA
100
AcDbEntity
100
AcDbLine
  8
HACHURE
 62
5
370
-1
  6
CONTINUOUS
 10
110.8000530000000055
 20
239.019014999999996
 30
0.0
 11
110.2901990000000012
 21
239.747162000000003
 31
0.0
  0
LINE
  5
AB
100
AcDbEntity
100
AcDbLine
  8
HACHURE
 62
5
370
-1
  6
CONTINUOUS
 10
109.8349220000000059
 20
240.3973640000000103
 30
0.0
 11
108.9243699999999961
 21
241.6977679999999964
 31
0.0
  0
LINE
  5
AC
100
AcDbEntity
100
AcDbLine
  8
HACHURE
 62
5
370
-1
  6
CONTINUOUS
 10
108.4690939999999983
 20
242.3479700000000037
 30
0.0
 11
107.5585410000000053
 21
243.6483739999999898
 31
0.0
  0
LINE
  5
AD
100
AcDbEntity
100
AcDbLine
  8
HACHURE
 62
5
370
-1
  6
CONTINUOUS
 10
107.1032649999999933
 20
244.2985759999999971
 30
0.0
 11
106.9996610000000032
 21
244.4465370000000064
 31
0.0
  0
LINE
  5
AE
100
AcDbEntity
100
AcDbLine
  8
HACHURE
 62
5
370
-1
  6
CONTINUOUS
 10
106.9996270000000038
 20
238.9110630000000128
 30
0.0
 11
107.2340769999999992
 21
238.576233000000002
 31
0.0
  0
LINE
  5
AF
100
AcDbEntity
100
AcDbLine
  8
HACHURE
 62
5
370
-1
  6
CONTINUOUS
 10
107.6893539999999945
 20
237.9260309999999947
 30
0.0
 11
108.5999060000000043
 21
236.6256270000000086
 31
0.0
  0
LINE
  5
B0
100
AcDbEntity
100
AcDbLine
  8
HACHURE
 62
5
370
-1
  6
CONTINUOUS
 10
109.0551829999999995
 20
235.9754250000000013
 30
0.0
 11
109.9657349999999951
 21
234.6750209999999868
 31
0.0
  0
LINE
  5
B1
100
AcDbEntity
100
AcDbLine
  8
HACHURE
 62
5
370
-1
  6
CONTINUOUS
 10
110.4210109999999929
 20
234.0248190000000079
 30
0.0
 11
111.3315640000000002
 21
232.7244149999999934
 31
0.0
  0
LINE
  5
B2
100
AcDbEntity
100
AcDbLine
  8
HACHURE
 62
5
370
-1
  6
CONTINUOUS
 10
111.786839999999998
 20
232.0742129999999861
 30
0.0
 11
112.6973930000000053
 21
230.773809
 31
0.0
  0
LINE
  5
B3
100
AcDbEntity
100
AcDbLine
  8
HACHURE
 62
5
370
-1
  6
CONTINUOUS
 10
113.1526690000000031
 20
230.1236079999999902
 30
0.0
 11
114.0632219999999961
 21
228.823204000000004
 31
0.0
  0
LINE
  5
B4
100
AcDbEntity
100
AcDbLine
  8
HACHURE
 62
5
370
-1
  6
CONTINUOUS
 10
114.5184979999999939
 20
228.1730019999999968
 30
0.0
 11
115.0001220000000046
 21
227.4851720000000057
 31
0.0
  0
LINE
  5
B5
100
AcDbEntity
100
AcDbLine
  8
HACHURE
 62
5
370
-1
  6
CONTINUOUS
 10
115.5598630000000071
 20
221.1502549999999871
 30
0.0
 11
114.6493109999999973
 21
222.4506590000000017
 31
0.0
  0
LINE
  5
B6
100
AcDbEntity
100
AcDbLine
  8
HACHURE
 62
5
370
-1
  6
CONTINUOUS
 10
114.194034000000002
 20
223.100861000000009
 30
0.0
 11
113.2834820000000065
 21
224.4012649999999951
 31
0.0
  0
LINE
  5
B7
100
AcDbEntity
100
AcDbLine
  8
HACHURE
 62
5
370
-1
  6
CONTINUOUS
 10
112.8282059999999944
 20
225.0514660000000049
 30
0.0
 11
111.9176530000000014
 21
226.351869999999991
 31
0.0
  0
LINE
  5
B8
100
AcDbEntity
100
AcDbLine
  8
HACHURE
 62
5
370
-1
  6
CONTINUOUS
 10
111.4623770000000036
 20
227.0020719999999983
 30
0.0
 11
110.9996160000000032
 21
227.6629629999999906
 31
0.0
  0
LINE
  5
B9
100
AcDbEntity
100
AcDbLine
  8
HACHURE
 62
5
370
-1
  6
CONTINUOUS
 10
109.5956979999999987
 20
229.6679660000000069
 30
0.0
 11
109.1859950000000055
 21
230.2530820000000062
 31
0.0
  0
LINE
  5
BA
100
AcDbEntity
100
AcDbLine
  8
HACHURE
 62
5
370
-1
  6
CONTINUOUS
 10
108.7307189999999935
 20
230.9032840000000135
 30
0.0
 11
107.8201660000000004
 21
232.2036879999999996
 31
0.0
  0
LINE
  5
BB
100
AcDbEntity
100
AcDbLine
  8
HACHURE
 62
5
370
-1
  6
CONTINUOUS
 10
107.3648900000000026
 20
232.8538900000000069
 30
0.0
 11
106.9995920000000069
 21
233.3755889999999908
 31
0.0
  0
LINE
  5
BC
100
AcDbEntity
100
AcDbLine
  8
HACHURE
 62
5
370
-1
  6
CONTINUOUS
 10
110.6826369999999997
 20
222.5801329999999894
 30
0.0
 11
111.5931889999999953
 21
221.2797290000000032
 31
0.0
  0
ENDBLK
  5
BD
100
AcDbEntity
  8
0
100
AcDbBlockEnd
  0
BLOCK
  5
BE
100
AcDbEntity
  8
0
100
AcDbBlockBegin
  2
DESENS-G4
 70
0
 10
0.0
 20
0.0
 30
0.0
  3
DESENS-G4
  1

  0
LINE
  5
BF
100
AcDbEntity
100
AcDbLine
  8
HACHURE
 62
5
370
-1
  6
CONTINUOUS
 10
130.1130200000000059
 20
251.3492349999999931
 30
0.0
 11
125.9996459999999985
 21
247.2358609999999999
 31
0.0
  0
LINE
  5
C0
100
AcDbEntity
100
AcDbLine
  8
HACHURE
 62
5
370
-1
  6
CONTINUOUS
 10
124.4312379999999933
 20
245.6674529999999947
 30
0.0
 11
122.4313690000000037
 21
243.6675830000000076
 31
0.0
  0
LINE
  5
C1
100
AcDbEntity
100
AcDbLine
  8
HACHURE
 62
5
370
-1
  6
CONTINUOUS
 10
123.0000260000000054
 20
239.7478580000000079
 30
0.0
 11
132.7111400000000003
 21
249.4589709999999911
 31
0.0
  0
LINE
  5
C2
100
AcDbEntity
100
AcDbLine
  8
HACHURE
 62
5
370
-1
  6
CONTINUOUS
 10
132.7111299999999972
 20
244.9644549999999867
 30
0.0
 11
123.0000160000000022
 21
235.253341000000006
 31
0.0
  0
LINE
  5
C3
100
AcDbEntity
100
AcDbLine
  8
HACHURE
 62
5
370
-1
  6
CONTINUOUS
 10
122.9999040000000008
 20
230.7648450000000082
 30
0.0
 11
132.7116090000000099
 21
240.4765510000000006
 31
0.0
  0
LINE
  5
C4
100
AcDbEntity
100
AcDbLine
  8
HACHURE
 62
5
370
-1
  6
CONTINUOUS
 10
132.7114970000000085
 20
235.9880550000000028
 30
0.0
 11
120.9993300000000005
 21
224.275888000000009
 31
0.0
  0
LINE
  5
C5
100
AcDbEntity
100
AcDbLine
  8
HACHURE
 62
5
370
-1
  6
CONTINUOUS
 10
107.0013179999999977
 20
205.7894929999999931
 30
0.0
 11
109.8794960000000032
 21
208.6676710000000128
 31
0.0
  0
LINE
  5
C6
100
AcDbEntity
100
AcDbLine
  8
HACHURE
 62
5
370
-1
  6
CONTINUOUS
 10
120.9992179999999991
 20
219.7873930000000087
 30
0.0
 11
132.7119759999999928
 21
231.5001509999999882
 31
0.0
  0
LINE
  5
C7
100
AcDbEntity
100
AcDbLine
  8
HACHURE
 62
5
370
-1
  6
CONTINUOUS
 10
132.7119659999999897
 20
227.0056339999999864
 30
0.0
 11
120.9992079999999959
 21
215.2928760000000068
 31
0.0
  0
LINE
  5
C8
100
AcDbEntity
100
AcDbLine
  8
HACHURE
 62
5
370
-1
  6
CONTINUOUS
 10
117.3741119999999967
 20
211.6677799999999934
 30
0.0
 11
114.9990090000000009
 21
209.2926769999999976
 31
0.0
  0
LINE
  5
C9
100
AcDbEntity
100
AcDbLine
  8
HACHURE
 62
5
370
-1
  6
CONTINUOUS
 10
114.374604000000005
 20
208.6682720000000018
 30
0.0
 11
107.0007159999999971
 21
201.294384000000008
 31
0.0
  0
LINE
  5
CA
100
AcDbEntity
100
AcDbLine
  8
HACHURE
 62
5
370
-1
  6
CONTINUOUS
 10
107.0000119999999981
 20
196.8052959999999985
 30
0.0
 11
132.7124450000000024
 21
222.5177300000000002
 31
0.0
  0
LINE
  5
CB
100
AcDbEntity
100
AcDbLine
  8
HACHURE
 62
5
370
-1
  6
CONTINUOUS
 10
132.712333000000001
 20
218.0292340000000024
 30
0.0
 11
120.3509049999999974
 21
205.667806000000013
 31
0.0
  0
LINE
  5
CC
100
AcDbEntity
100
AcDbLine
  8
HACHURE
 62
5
370
-1
  6
CONTINUOUS
 10
114.9999669999999981
 20
200.316868999999997
 30
0.0
 11
106.9993070000000017
 21
192.3162089999999864
 31
0.0
  0
LINE
  5
CD
100
AcDbEntity
100
AcDbLine
  8
HACHURE
 62
5
370
-1
  6
CONTINUOUS
 10
106.9992969999999985
 20
187.821692000000013
 30
0.0
 11
115.0005490000000066
 21
195.8229440000000068
 31
0.0
  0
LINE
  5
CE
100
AcDbEntity
100
AcDbLine
  8
HACHURE
 62
5
370
-1
  6
CONTINUOUS
 10
124.8448290000000043
 20
205.6672240000000045
 30
0.0
 11
132.7123229999999978
 21
213.534717999999998
 31
0.0
  0
LINE
  5
CF
100
AcDbEntity
100
AcDbLine
  8
HACHURE
 62
5
370
-1
  6
CONTINUOUS
 10
132.7128020000000106
 20
209.0468140000000119
 30
0.0
 11
129.3327329999999904
 21
205.6667449999999917
 31
0.0
  0
LINE
  5
D0
100
AcDbEntity
100
AcDbLine
  8
HACHURE
 62
5
370
-1
  6
CONTINUOUS
 10
115.0010290000000026
 20
191.3350399999999922
 30
0.0
 11
107.3353570000000019
 21
183.6693679999999915
 31
0.0
  0
LINE
  5
D1
100
AcDbEntity
100
AcDbLine
  8
HACHURE
 62
5
370
-1
  6
CONTINUOUS
 10
111.8220769999999931
 20
183.6677050000000122
 30
0.0
 11
115.0015080000000012
 21
186.8471360000000061
 31
0.0
  0
ENDBLK
  5
D2
100
AcDbEntity
  8
0
100
AcDbBlockEnd
  0
BLOCK
  5
D3
100
AcDbEntity
  8
0
100
AcDbBlockBegin
  2
DESENS-G5
 70
0
 10
0.0
 20
0.0
 30
0.0
  3
DESENS-G5
  1

  0
LINE
  5
D4
100
AcDbEntity
100
AcDbLine
  8
HACHURE
 62
5
370
-1
  6
CONTINUOUS
 10
103.1880620000000022
 20
251.6681020000000046
 30
0.0
 11
102.9995849999999962
 21
251.341651000000013
 31
0.0
  0
LINE
  5
D5
100
AcDbEntity
100
AcDbLine
  8
HACHURE
 62
5
370
-1
  6
CONTINUOUS
 10
102.9999830000000003
 20
245.8448669999999936
 30
0.0
 11
106.3617009999999965
 21
251.6675349999999867
 31
0.0
  0
LINE
  5
D6
100
AcDbEntity
100
AcDbLine
  8
HACHURE
 62
5
370
-1
  6
CONTINUOUS
 10
106.9999449999999968
 20
247.2688689999999951
 30
0.0
 11
103.0003360000000043
 21
240.3413419999999974
 31
0.0
  0
LINE
  5
D7
100
AcDbEntity
100
AcDbLine
  8
HACHURE
 62
5
370
-1
  6
CONTINUOUS
 10
98.999756000000005
 20
227.9146629999999902
 30
0.0
 11
100.0118659999999977
 21
229.6676879999999983
 31
0.0
  0
LINE
  5
D8
100
AcDbEntity
100
AcDbLine
  8
HACHURE
 62
5
370
-1
  6
CONTINUOUS
 10
103.0007329999999968
 20
234.8445580000000064
 30
0.0
 11
106.9995609999999999
 21
241.770731000000012
 31
0.0
  0
LINE
  5
D9
100
AcDbEntity
100
AcDbLine
  8
HACHURE
 62
5
370
-1
  6
CONTINUOUS
 10
106.9991770000000031
 20
236.272593999999998
 30
0.0
 11
102.0312080000000066
 21
227.6678200000000061
 31
0.0
  0
LINE
  5
DA
100
AcDbEntity
100
AcDbLine
  8
HACHURE
 62
5
370
-1
  6
CONTINUOUS
 10
101.2499580000000066
 20
226.3146549999999877
 30
0.0
 11
99.1450760000000031
 21
222.6688910000000021
 31
0.0
  0
LINE
  5
DB
100
AcDbEntity
100
AcDbLine
  8
HACHURE
 62
5
370
-1
  6
CONTINUOUS
 10
105.2054339999999968
 20
227.668266999999986
 30
0.0
 11
106.9987930000000063
 21
230.7744559999999865
 31
0.0
  0
LINE
  5
DC
100
AcDbEntity
100
AcDbLine
  8
HACHURE
 62
5
370
-1
  6
CONTINUOUS
 10
109.5378180000000015
 20
229.6680399999999906
 30
0.0
 11
108.3835210000000018
 21
227.6687400000000139
 31
0.0
  0
LINE
  5
DD
100
AcDbEntity
100
AcDbLine
  8
HACHURE
 62
5
370
-1
  6
CONTINUOUS
 10
108.7507149999999996
 20
222.8072659999999985
 30
0.0
 11
111.0003250000000037
 21
226.7037039999999877
 31
0.0
  0
LINE
  5
DE
100
AcDbEntity
100
AcDbLine
  8
HACHURE
 62
5
370
-1
  6
CONTINUOUS
 10
107.0
 20
250.4018289999999922
 30
0.0
 11
103.0
 21
250.4018289999999922
 31
0.0
  0
LINE
  5
DF
100
AcDbEntity
100
AcDbLine
  8
HACHURE
 62
5
370
-1
  6
CONTINUOUS
 10
103.0
 20
247.6530930000000126
 30
0.0
 11
107.0
 21
247.6530930000000126
 31
0.0
  0
LINE
  5
E0
100
AcDbEntity
100
AcDbLine
  8
HACHURE
 62
5
370
-1
  6
CONTINUOUS
 10
107.0
 20
244.9010250000000042
 30
0.0
 11
103.0
 21
244.9010250000000042
 31
0.0
  0
LINE
  5
E1
100
AcDbEntity
100
AcDbLine
  8
HACHURE
 62
5
370
-1
  6
CONTINUOUS
 10
103.0
 20
242.1522889999999961
 30
0.0
 11
107.0
 21
242.1522889999999961
 31
0.0
  0
LINE
  5
E2
100
AcDbEntity
100
AcDbLine
  8
HACHURE
 62
5
370
-1
  6
CONTINUOUS
 10
107.0
 20
239.4035529999999881
 30
0.0
 11
103.0
 21
239.4035529999999881
 31
0.0
  0
LINE
  5
E3
100
AcDbEntity
100
AcDbLine
  8
HACHURE
 62
5
370
-1
  6
CONTINUOUS
 10
103.0
 20
236.6548160000000109
 30
0.0
 11
107.0
 21
236.6548160000000109
 31
0.0
  0
LINE
  5
E4
100
AcDbEntity
100
AcDbLine
  8
HACHURE
 62
5
370
-1
  6
CONTINUOUS
 10
107.0
 20
233.9027480000000025
 30
0.0
 11
103.0
 21
233.9027480000000025
 31
0.0
  0
LINE
  5
E5
100
AcDbEntity
100
AcDbLine
  8
HACHURE
 62
5
370
-1
  6
CONTINUOUS
 10
103.0
 20
231.1540119999999945
 30
0.0
 11
107.0
 21
231.1540119999999945
 31
0.0
  0
LINE
  5
E6
100
AcDbEntity
100
AcDbLine
  8
HACHURE
 62
5
370
-1
  6
CONTINUOUS
 10
111.0
 20
228.4052759999999864
 30
0.0
 11
99.0
 21
228.4052759999999864
 31
0.0
  0
LINE
  5
E7
100
AcDbEntity
100
AcDbLine
  8
HACHURE
 62
5
370
-1
  6
CONTINUOUS
 10
99.0
 20
225.6565400000000068
 30
0.0
 11
101.25
 21
225.6565400000000068
 31
0.0
  0
LINE
  5
E8
100
AcDbEntity
100
AcDbLine
  8
HACHURE
 62
5
370
-1
  6
CONTINUOUS
 10
108.75
 20
225.6565400000000068
 30
0.0
 11
111.0
 21
225.6565400000000068
 31
0.0
  0
LINE
  5
E9
100
AcDbEntity
100
AcDbLine
  8
HACHURE
 62
5
370
-1
  6
CONTINUOUS
 10
111.0
 20
222.9044719999999984
 30
0.0
 11
108.75
 21
222.9044719999999984
 31
0.0
  0
LINE
  5
EA
100
AcDbEntity
100
AcDbLine
  8
HACHURE
 62
5
370
-1
  6
CONTINUOUS
 10
101.25
 20
222.9044719999999984
 30
0.0
 11
99.0
 21
222.9044719999999984
 31
0.0
  0
ENDBLK
  5
EB
100
AcDbEntity
  8
0
100
AcDbBlockEnd
  0
BLOCK
  5
EC
100
AcDbEntity
  8
0
100
AcDbBlockBegin
  2
DESENS-G6
 70
0
 10
0.0
 20
0.0
 30
0.0
  3
DESENS-G6
  1

  0
LINE
  5
ED
100
AcDbEntity
100
AcDbLine
  8
HACHURE
 62
5
370
-1
  6
CONTINUOUS
 10
92.3927829999999943
 20
261.6674049999999738
 30
0.0
 11
91.0002920000000017
 21
259.6787219999999934
 31
0.0
  0
LINE
  5
EE
100
AcDbEntity
100
AcDbLine
  8
HACHURE
 62
5
370
-1
  6
CONTINUOUS
 10
91.0003260000000012
 20
254.1432479999999998
 30
0.0
 11
94.0001759999999962
 21
258.4274770000000103
 31
0.0
  0
LINE
  5
EF
100
AcDbEntity
100
AcDbLine
  8
HACHURE
 62
5
370
-1
  6
CONTINUOUS
 10
100.1448720000000066
 20
261.6674889999999891
 30
0.0
 11
100.0001340000000027
 21
261.4607809999999972
 31
0.0
  0
LINE
  5
F0
100
AcDbEntity
100
AcDbLine
  8
HACHURE
 62
5
370
-1
  6
CONTINUOUS
 10
93.9999860000000069
 20
252.8916830000000004
 30
0.0
 11
91.0003609999999981
 21
248.6077740000000063
 31
0.0
  0
LINE
  5
F1
100
AcDbEntity
100
AcDbLine
  8
HACHURE
 62
5
370
-1
  6
CONTINUOUS
 10
91.0003949999999975
 20
243.0723000000000127
 30
0.0
 11
94.4577620000000024
 21
248.0099309999999946
 31
0.0
  0
LINE
  5
F2
100
AcDbEntity
100
AcDbLine
  8
HACHURE
 62
5
370
-1
  6
CONTINUOUS
 10
100.0001680000000022
 20
255.9253080000000011
 30
0.0
 11
103.0002420000000001
 21
260.2098569999999995
 31
0.0
  0
LINE
  5
F3
100
AcDbEntity
100
AcDbLine
  8
HACHURE
 62
5
370
-1
  6
CONTINUOUS
 10
103.0000519999999966
 20
254.6740629999999896
 30
0.0
 11
99.9999789999999962
 21
250.3895139999999913
 31
0.0
  0
LINE
  5
F4
100
AcDbEntity
100
AcDbLine
  8
HACHURE
 62
5
370
-1
  6
CONTINUOUS
 10
94.7997019999999964
 20
242.9627480000000048
 30
0.0
 11
91.0004299999999944
 21
237.5368259999999907
 31
0.0
  0
LINE
  5
F5
100
AcDbEntity
100
AcDbLine
  8
HACHURE
 62
5
370
-1
  6
CONTINUOUS
 10
91.0004639999999938
 20
232.0013519999999971
 30
0.0
 11
95.4922849999999954
 21
238.4163369999999986
 31
0.0
  0
LINE
  5
F6
100
AcDbEntity
100
AcDbLine
  8
HACHURE
 62
5
370
-1
  6
CONTINUOUS
 10
99.1996950000000055
 20
243.7110670000000141
 30
0.0
 11
103.0000869999999935
 21
249.1385889999999961
 31
0.0
  0
LINE
  5
F7
100
AcDbEntity
100
AcDbLine
  8
HACHURE
 62
5
370
-1
  6
CONTINUOUS
 10
103.0001209999999929
 20
243.6031150000000025
 30
0.0
 11
93.2425999999999959
 21
229.66793100000001
 31
0.0
  0
LINE
  5
F8
100
AcDbEntity
100
AcDbLine
  8
HACHURE
 62
5
370
-1
  6
CONTINUOUS
 10
94.9998850000000061
 20
226.6420699999999897
 30
0.0
 11
103.000156000000004
 21
238.0676410000000089
 31
0.0
  0
LINE
  5
F9
100
AcDbEntity
100
AcDbLine
  8
HACHURE
 62
5
370
-1
  6
CONTINUOUS
 10
103.0001900000000035
 20
232.532166999999987
 30
0.0
 11
100.9944650000000053
 21
229.667695000000009
 31
0.0
  0
LINE
  5
FA
100
AcDbEntity
100
AcDbLine
  8
HACHURE
 62
5
370
-1
  6
CONTINUOUS
 10
99.0003909999999934
 20
226.8198620000000005
 30
0.0
 11
94.6929659999999984
 21
220.6682219999999859
 31
0.0
  0
LINE
  5
FB
100
AcDbEntity
100
AcDbLine
  8
HACHURE
 62
5
370
-1
  6
CONTINUOUS
 10
98.5691230000000047
 20
220.6684239999999875
 30
0.0
 11
99.9694559999999939
 21
222.6683069999999987
 31
0.0
  0
LINE
  5
FC
100
AcDbEntity
100
AcDbLine
  8
HACHURE
 62
5
370
-1
  6
CONTINUOUS
 10
93.6559649999999948
 20
260.7045610000000124
 30
0.0
 11
92.7454129999999992
 21
259.4041569999999979
 31
0.0
  0
LINE
  5
FD
100
AcDbEntity
100
AcDbLine
  8
HACHURE
 62
5
370
-1
  6
CONTINUOUS
 10
92.2901360000000039
 20
258.753955000000019
 30
0.0
 11
91.3795839999999941
 21
257.4535510000000045
 31
0.0
  0
LINE
  5
FE
100
AcDbEntity
100
AcDbLine
  8
HACHURE
 62
5
370
-1
  6
CONTINUOUS
 10
91.248771000000005
 20
251.7312080000000094
 30
0.0
 11
92.159323999999998
 21
253.0316119999999955
 31
0.0
  0
LINE
  5
FF
100
AcDbEntity
100
AcDbLine
  8
HACHURE
 62
5
370
-1
  6
CONTINUOUS
 10
92.6145999999999958
 20
253.6818140000000028
 30
0.0
 11
93.5251530000000031
 21
254.9822179999999889
 31
0.0
  0
LINE
  5
100
100
AcDbEntity
100
AcDbLine
  8
HACHURE
 62
5
370
-1
  6
CONTINUOUS
 10
93.9804290000000009
 20
255.6324199999999962
 30
0.0
 11
93.9999909999999943
 21
255.6603580000000022
 31
0.0
  0
LINE
  5
101
100
AcDbEntity
100
AcDbLine
  8
HACHURE
 62
5
370
-1
  6
CONTINUOUS
 10
102.0823000000000036
 20
261.6675690000000145
 30
0.0
 11
102.044589000000002
 21
261.6137120000000209
 31
0.0
  0
LINE
  5
102
100
AcDbEntity
100
AcDbLine
  8
HACHURE
 62
5
370
-1
  6
CONTINUOUS
 10
101.5893130000000042
 20
260.9635099999999852
 30
0.0
 11
100.6787609999999944
 21
259.6631060000000275
 31
0.0
  0
LINE
  5
103
100
AcDbEntity
100
AcDbLine
  8
HACHURE
 62
5
370
-1
  6
CONTINUOUS
 10
100.2234839999999991
 20
259.0129039999999918
 30
0.0
 11
100.0001730000000038
 21
258.6939830000000029
 31
0.0
  0
LINE
  5
104
100
AcDbEntity
100
AcDbLine
  8
HACHURE
 62
5
370
-1
  6
CONTINUOUS
 10
94.0000260000000054
 20
250.1248840000000087
 30
0.0
 11
93.8496159999999975
 21
249.9100770000000011
 31
0.0
  0
LINE
  5
105
100
AcDbEntity
100
AcDbLine
  8
HACHURE
 62
5
370
-1
  6
CONTINUOUS
 10
93.3943399999999997
 20
249.2598749999999939
 30
0.0
 11
92.4837870000000066
 21
247.9594710000000077
 31
0.0
  0
LINE
  5
106
100
AcDbEntity
100
AcDbLine
  8
HACHURE
 62
5
370
-1
  6
CONTINUOUS
 10
92.0285109999999946
 20
247.3092690000000005
 30
0.0
 11
91.1179580000000016
 21
246.0088649999999859
 31
0.0
  0
LINE
  5
107
100
AcDbEntity
100
AcDbLine
  8
HACHURE
 62
5
370
-1
  6
CONTINUOUS
 10
91.000434999999996
 20
240.3055009999999925
 30
0.0
 11
91.8976980000000054
 21
241.5869260000000054
 31
0.0
  0
LINE
  5
108
100
AcDbEntity
100
AcDbLine
  8
HACHURE
 62
5
370
-1
  6
CONTINUOUS
 10
92.3529750000000007
 20
242.2371280000000127
 30
0.0
 11
93.2635269999999963
 21
243.5375319999999988
 31
0.0
  0
LINE
  5
109
100
AcDbEntity
100
AcDbLine
  8
HACHURE
 62
5
370
-1
  6
CONTINUOUS
 10
93.7188040000000058
 20
244.1877340000000061
 30
0.0
 11
94.6293560000000014
 21
245.4881379999999922
 31
0.0
  0
LINE
  5
10A
100
AcDbEntity
100
AcDbLine
  8
HACHURE
 62
5
370
-1
  6
CONTINUOUS
 10
99.9999839999999978
 20
253.158188999999993
 30
0.0
 11
100.0926719999999932
 21
253.2905609999999967
 31
0.0
  0
LINE
  5
10B
100
AcDbEntity
100
AcDbLine
  8
HACHURE
 62
5
370
-1
  6
CONTINUOUS
 10
100.5479480000000052
 20
253.940763000000004
 30
0.0
 11
101.4585009999999983
 21
255.2411669999999901
 31
0.0
  0
LINE
  5
10C
100
AcDbEntity
100
AcDbLine
  8
HACHURE
 62
5
370
-1
  6
CONTINUOUS
 10
101.9137769999999961
 20
255.8913689999999974
 30
0.0
 11
102.8243290000000059
 21
257.191773000000012
 31
0.0
  0
LINE
  5
10D
100
AcDbEntity
100
AcDbLine
  8
HACHURE
 62
5
370
-1
  6
CONTINUOUS
 10
102.6935169999999999
 20
251.4694299999999885
 30
0.0
 11
101.7829640000000069
 21
250.1690260000000023
 31
0.0
  0
LINE
  5
10E
100
AcDbEntity
100
AcDbLine
  8
HACHURE
 62
5
370
-1
  6
CONTINUOUS
 10
101.3276879999999949
 20
249.5188239999999951
 30
0.0
 11
100.4171350000000018
 21
248.2184200000000089
 31
0.0
  0
LINE
  5
10F
100
AcDbEntity
100
AcDbLine
  8
HACHURE
 62
5
370
-1
  6
CONTINUOUS
 10
99.961859000000004
 20
247.5682180000000017
 30
0.0
 11
99.1997000000000071
 21
246.4797419999999875
 31
0.0
  0
LINE
  5
110
100
AcDbEntity
100
AcDbLine
  8
HACHURE
 62
5
370
-1
  6
CONTINUOUS
 10
94.498542999999998
 20
239.7657949999999971
 30
0.0
 11
93.5879910000000024
 21
238.465391000000011
 31
0.0
  0
LINE
  5
111
100
AcDbEntity
100
AcDbLine
  8
HACHURE
 62
5
370
-1
  6
CONTINUOUS
 10
93.1327150000000046
 20
237.8151890000000037
 30
0.0
 11
92.2221619999999973
 21
236.5147849999999892
 31
0.0
  0
LINE
  5
112
100
AcDbEntity
100
AcDbLine
  8
HACHURE
 62
5
370
-1
  6
CONTINUOUS
 10
91.7668859999999995
 20
235.8645830000000103
 30
0.0
 11
91.0004689999999954
 21
234.7700269999999989
 31
0.0
  0
LINE
  5
113
100
AcDbEntity
100
AcDbLine
  8
HACHURE
 62
5
370
-1
  6
CONTINUOUS
 10
91.3038719999999984
 20
229.667808000000008
 30
0.0
 11
91.6360729999999961
 21
230.1422399999999868
 31
0.0
  0
LINE
  5
114
100
AcDbEntity
100
AcDbLine
  8
HACHURE
 62
5
370
-1
  6
CONTINUOUS
 10
92.0913489999999939
 20
230.7924419999999941
 30
0.0
 11
93.0019020000000012
 21
232.0928460000000086
 31
0.0
  0
LINE
  5
115
100
AcDbEntity
100
AcDbLine
  8
HACHURE
 62
5
370
-1
  6
CONTINUOUS
 10
93.457177999999999
 20
232.7430479999999875
 30
0.0
 11
94.3677310000000062
 21
234.043452000000002
 31
0.0
  0
LINE
  5
116
100
AcDbEntity
100
AcDbLine
  8
HACHURE
 62
5
370
-1
  6
CONTINUOUS
 10
94.823007000000004
 20
234.6936540000000093
 30
0.0
 11
95.7335599999999971
 21
235.9940579999999954
 31
0.0
  0
LINE
  5
117
100
AcDbEntity
100
AcDbLine
  8
HACHURE
 62
5
370
-1
  6
CONTINUOUS
 10
96.1888359999999949
 20
236.6442600000000027
 30
0.0
 11
96.8715959999999967
 21
237.6193429999999864
 31
0.0
  0
LINE
  5
118
100
AcDbEntity
100
AcDbLine
  8
HACHURE
 62
5
370
-1
  6
CONTINUOUS
 10
99.1997340000000065
 20
240.9442679999999939
 30
0.0
 11
99.8310460000000006
 21
241.8458750000000066
 31
0.0
  0
LINE
  5
119
100
AcDbEntity
100
AcDbLine
  8
HACHURE
 62
5
370
-1
  6
CONTINUOUS
 10
100.2863229999999959
 20
242.4960770000000139
 30
0.0
 11
101.1968750000000057
 21
243.796481
 31
0.0
  0
LINE
  5
11A
100
AcDbEntity
100
AcDbLine
  8
HACHURE
 62
5
370
-1
  6
CONTINUOUS
 10
101.652152000000001
 20
244.4466830000000073
 30
0.0
 11
102.5627039999999965
 21
245.7470869999999934
 31
0.0
  0
LINE
  5
11B
100
AcDbEntity
100
AcDbLine
  8
HACHURE
 62
5
370
-1
  6
CONTINUOUS
 10
103.0001610000000056
 20
240.8363160000000107
 30
0.0
 11
102.8871680000000026
 21
240.6749460000000056
 31
0.0
  0
LINE
  5
11C
100
AcDbEntity
100
AcDbLine
  8
HACHURE
 62
5
370
-1
  6
CONTINUOUS
 10
102.4318920000000048
 20
240.0247439999999983
 30
0.0
 11
101.5213389999999976
 21
238.7243400000000122
 31
0.0
  0
LINE
  5
11D
100
AcDbEntity
100
AcDbLine
  8
HACHURE
 62
5
370
-1
  6
CONTINUOUS
 10
101.0660629999999998
 20
238.0741380000000049
 30
0.0
 11
100.1555100000000067
 21
236.7737339999999904
 31
0.0
  0
LINE
  5
11E
100
AcDbEntity
100
AcDbLine
  8
HACHURE
 62
5
370
-1
  6
CONTINUOUS
 10
99.7002339999999947
 20
236.1235320000000115
 30
0.0
 11
98.7896810000000016
 21
234.823127999999997
 31
0.0
  0
LINE
  5
11F
100
AcDbEntity
100
AcDbLine
  8
HACHURE
 62
5
370
-1
  6
CONTINUOUS
 10
98.3344050000000038
 20
234.1729259999999897
 30
0.0
 11
97.4238519999999966
 21
232.872523000000001
 31
0.0
  0
LINE
  5
120
100
AcDbEntity
100
AcDbLine
  8
HACHURE
 62
5
370
-1
  6
CONTINUOUS
 10
96.9685759999999988
 20
232.2223209999999938
 30
0.0
 11
96.0580230000000057
 21
230.9219170000000076
 31
0.0
  0
LINE
  5
121
100
AcDbEntity
100
AcDbLine
  8
HACHURE
 62
5
370
-1
  6
CONTINUOUS
 10
95.6027469999999937
 20
230.2717150000000004
 30
0.0
 11
94.9998899999999935
 21
229.4107449999999915
 31
0.0
  0
LINE
  5
122
100
AcDbEntity
100
AcDbLine
  8
HACHURE
 62
5
370
-1
  6
CONTINUOUS
 10
93.9999739999999946
 20
222.4471949999999936
 30
0.0
 11
94.1061059999999969
 21
222.5987660000000119
 31
0.0
  0
LINE
  5
123
100
AcDbEntity
100
AcDbLine
  8
HACHURE
 62
5
370
-1
  6
CONTINUOUS
 10
95.0001479999999958
 20
223.8755909999999858
 30
0.0
 11
95.4719340000000045
 21
224.5493720000000053
 31
0.0
  0
LINE
  5
124
100
AcDbEntity
100
AcDbLine
  8
HACHURE
 62
5
370
-1
  6
CONTINUOUS
 10
95.9272109999999998
 20
225.1995740000000126
 30
0.0
 11
96.8377629999999954
 21
226.4999779999999987
 31
0.0
  0
LINE
  5
125
100
AcDbEntity
100
AcDbLine
  8
HACHURE
 62
5
370
-1
  6
CONTINUOUS
 10
97.2930400000000049
 20
227.150180000000006
 30
0.0
 11
98.2035920000000004
 21
228.4505829999999946
 31
0.0
  0
LINE
  5
126
100
AcDbEntity
100
AcDbLine
  8
HACHURE
 62
5
370
-1
  6
CONTINUOUS
 10
98.6588689999999957
 20
229.1007850000000019
 30
0.0
 11
99.0001720000000063
 21
229.588216999999986
 31
0.0
  0
LINE
  5
127
100
AcDbEntity
100
AcDbLine
  8
HACHURE
 62
5
370
-1
  6
CONTINUOUS
 10
99.0559609999999964
 20
229.6678919999999948
 30
0.0
 11
99.5694210000000055
 21
230.401188999999988
 31
0.0
  0
LINE
  5
128
100
AcDbEntity
100
AcDbLine
  8
HACHURE
 62
5
370
-1
  6
CONTINUOUS
 10
100.0246970000000033
 20
231.0513909999999953
 30
0.0
 11
100.9352499999999964
 21
232.3517950000000098
 31
0.0
  0
LINE
  5
129
100
AcDbEntity
100
AcDbLine
  8
HACHURE
 62
5
370
-1
  6
CONTINUOUS
 10
101.3905259999999942
 20
233.0019969999999887
 30
0.0
 11
102.3010790000000014
 21
234.3024010000000033
 31
0.0
  0
LINE
  5
12A
100
AcDbEntity
100
AcDbLine
  8
HACHURE
 62
5
370
-1
  6
CONTINUOUS
 10
102.7563549999999992
 20
234.9526030000000105
 30
0.0
 11
103.0001950000000051
 21
235.3008419999999887
 31
0.0
  0
LINE
  5
12B
100
AcDbEntity
100
AcDbLine
  8
HACHURE
 62
5
370
-1
  6
CONTINUOUS
 10
103.000230000000002
 20
229.7653679999999952
 30
0.0
 11
102.9316689999999994
 21
229.6674539999999922
 31
0.0
  0
LINE
  5
12C
100
AcDbEntity
100
AcDbLine
  8
HACHURE
 62
5
370
-1
  6
CONTINUOUS
 10
99.0004299999999944
 20
224.0530630000000087
 30
0.0
 11
98.5280560000000065
 21
223.3784420000000068
 31
0.0
  0
LINE
  5
12D
100
AcDbEntity
100
AcDbLine
  8
HACHURE
 62
5
370
-1
  6
CONTINUOUS
 10
98.0727799999999945
 20
222.7282399999999996
 30
0.0
 11
97.1622270000000015
 21
221.4278370000000109
 31
0.0
  0
LINE
  5
12E
100
AcDbEntity
100
AcDbLine
  8
HACHURE
 62
5
370
-1
  6
CONTINUOUS
 10
96.7069510000000037
 20
220.7776350000000036
 30
0.0
 11
96.6303939999999955
 21
220.6683010000000138
 31
0.0
  0
ENDBLK
  5
12F
100
AcDbEntity
  8
0
100
AcDbBlockEnd
  0
BLOCK
  5
130
100
AcDbEntity
  8
0
100
AcDbBlockBegin
  2
DESENS-G7
 70
0
 10
0.0
 20
0.0
 30
0.0
  3
DESENS-G7
  1

  0
LINE
  5
131
100
AcDbEntity
100
AcDbLine
  8
HACHURE
 62
5
370
-1
  6
CONTINUOUS
 10
85.8755210000000062
 20
251.6679010000000005
 30
0.0
 11
84.9998700000000014
 21
250.1512280000000032
 31
0.0
  0
LINE
  5
132
100
AcDbEntity
100
AcDbLine
  8
HACHURE
 62
5
370
-1
  6
CONTINUOUS
 10
85.5862139999999982
 20
245.667507999999998
 30
0.0
 11
89.050407000000007
 21
251.667665999999997
 31
0.0
  0
LINE
  5
133
100
AcDbEntity
100
AcDbLine
  8
HACHURE
 62
5
370
-1
  6
CONTINUOUS
 10
90.9998700000000014
 20
249.5449350000000095
 30
0.0
 11
88.7614260000000002
 21
245.6678369999999916
 31
0.0
  0
LINE
  5
134
100
AcDbEntity
100
AcDbLine
  8
HACHURE
 62
5
370
-1
  6
CONTINUOUS
 10
87.6068039999999968
 20
243.6679719999999918
 30
0.0
 11
86.9997070000000008
 21
242.6164499999999862
 31
0.0
  0
LINE
  5
135
100
AcDbEntity
100
AcDbLine
  8
HACHURE
 62
5
370
-1
  6
CONTINUOUS
 10
86.9997890000000069
 20
237.117291999999992
 30
0.0
 11
90.9997890000000069
 21
244.0454949999999883
 31
0.0
  0
LINE
  5
136
100
AcDbEntity
100
AcDbLine
  8
HACHURE
 62
5
370
-1
  6
CONTINUOUS
 10
90.9998709999999988
 20
238.5463369999999941
 30
0.0
 11
86.9998709999999988
 21
231.6181339999999977
 31
0.0
  0
LINE
  5
137
100
AcDbEntity
100
AcDbLine
  8
HACHURE
 62
5
370
-1
  6
CONTINUOUS
 10
87.2009610000000066
 20
226.4671339999999873
 30
0.0
 11
90.9999519999999933
 21
233.0471789999999999
 31
0.0
  0
LINE
  5
138
100
AcDbEntity
100
AcDbLine
  8
HACHURE
 62
5
370
-1
  6
CONTINUOUS
 10
92.2241549999999961
 20
229.6682610000000011
 30
0.0
 11
89.0001960000000025
 21
224.0842010000000073
 31
0.0
  0
LINE
  5
139
100
AcDbEntity
100
AcDbLine
  8
HACHURE
 62
5
370
-1
  6
CONTINUOUS
 10
91.3575369999999936
 20
222.6679359999999974
 30
0.0
 11
94.9996270000000038
 21
228.9762210000000096
 31
0.0
  0
LINE
  5
13A
100
AcDbEntity
100
AcDbLine
  8
HACHURE
 62
5
370
-1
  6
CONTINUOUS
 10
95.000197
 20
223.4779080000000135
 30
0.0
 11
94.5325859999999949
 21
222.6679829999999924
 31
0.0
  0
LINE
  5
13B
100
AcDbEntity
100
AcDbLine
  8
HACHURE
 62
5
370
-1
  6
CONTINUOUS
 10
91.0
 20
251.6531369999999868
 30
0.0
 11
85.0
 21
251.6531369999999868
 31
0.0
  0
LINE
  5
13C
100
AcDbEntity
100
AcDbLine
  8
HACHURE
 62
5
370
-1
  6
CONTINUOUS
 10
85.0
 20
248.9034880000000101
 30
0.0
 11
91.0
 21
248.9034880000000101
 31
0.0
  0
LINE
  5
13D
100
AcDbEntity
100
AcDbLine
  8
HACHURE
 62
5
370
-1
  6
CONTINUOUS
 10
91.0
 20
246.1538380000000075
 30
0.0
 11
85.0
 21
246.1538380000000075
 31
0.0
  0
LINE
  5
13E
100
AcDbEntity
100
AcDbLine
  8
HACHURE
 62
5
370
-1
  6
CONTINUOUS
 10
87.0
 20
243.4041880000000049
 30
0.0
 11
91.0
 21
243.4041880000000049
 31
0.0
  0
LINE
  5
13F
100
AcDbEntity
100
AcDbLine
  8
HACHURE
 62
5
370
-1
  6
CONTINUOUS
 10
91.0
 20
240.6545389999999998
 30
0.0
 11
87.0
 21
240.6545389999999998
 31
0.0
  0
LINE
  5
140
100
AcDbEntity
100
AcDbLine
  8
HACHURE
 62
5
370
-1
  6
CONTINUOUS
 10
87.0
 20
237.9048889999999972
 30
0.0
 11
91.0
 21
237.9048889999999972
 31
0.0
  0
LINE
  5
141
100
AcDbEntity
100
AcDbLine
  8
HACHURE
 62
5
370
-1
  6
CONTINUOUS
 10
91.0
 20
235.1552389999999946
 30
0.0
 11
87.0
 21
235.1552389999999946
 31
0.0
  0
LINE
  5
142
100
AcDbEntity
100
AcDbLine
  8
HACHURE
 62
5
370
-1
  6
CONTINUOUS
 10
87.0
 20
232.4055899999999895
 30
0.0
 11
91.0
 21
232.4055899999999895
 31
0.0
  0
LINE
  5
143
100
AcDbEntity
100
AcDbLine
  8
HACHURE
 62
5
370
-1
  6
CONTINUOUS
 10
95.0
 20
229.6559399999999869
 30
0.0
 11
87.0
 21
229.6559399999999869
 31
0.0
  0
LINE
  5
144
100
AcDbEntity
100
AcDbLine
  8
HACHURE
 62
5
370
-1
  6
CONTINUOUS
 10
87.0
 20
226.9062900000000127
 30
0.0
 11
95.0
 21
226.9062900000000127
 31
0.0
  0
LINE
  5
145
100
AcDbEntity
100
AcDbLine
  8
HACHURE
 62
5
370
-1
  6
CONTINUOUS
 10
95.0
 20
224.1566400000000101
 30
0.0
 11
89.0
 21
224.1566400000000101
 31
0.0
  0
ENDBLK
  5
146
100
AcDbEntity
  8
0
100
AcDbBlockEnd
  0
BLOCK
  5
147
100
AcDbEntity
  8
0
100
AcDbBlockBegin
  2
DESENS-G8
 70
0
 10
0.0
 20
0.0
 30
0.0
  3
DESENS-G8
  1

  0
LINE
  5
148
100
AcDbEntity
100
AcDbLine
  8
HACHURE
 62
5
370
-1
  6
CONTINUOUS
 10
81.0377419999999944
 20
251.6670760000000087
 30
0.0
 11
77.2859899999999982
 21
247.9153230000000008
 31
0.0
  0
LINE
  5
149
100
AcDbEntity
100
AcDbLine
  8
HACHURE
 62
5
370
-1
  6
CONTINUOUS
 10
77.2858769999999993
 20
243.4268280000000004
 30
0.0
 11
83.9998510000000067
 21
250.1408010000000104
 31
0.0
  0
LINE
  5
14A
100
AcDbEntity
100
AcDbLine
  8
HACHURE
 62
5
370
-1
  6
CONTINUOUS
 10
84.0223309999999941
 20
245.6687740000000133
 30
0.0
 11
77.2864589999999936
 21
238.9329030000000103
 31
0.0
  0
LINE
  5
14B
100
AcDbEntity
100
AcDbLine
  8
HACHURE
 62
5
370
-1
  6
CONTINUOUS
 10
77.2869390000000038
 20
234.4449989999999957
 30
0.0
 11
88.509642999999997
 21
245.6677029999999888
 31
0.0
  0
LINE
  5
14C
100
AcDbEntity
100
AcDbLine
  8
HACHURE
 62
5
370
-1
  6
CONTINUOUS
 10
86.9991229999999973
 20
239.6688000000000045
 30
0.0
 11
77.2868260000000049
 21
229.9565029999999979
 31
0.0
  0
LINE
  5
14D
100
AcDbEntity
100
AcDbLine
  8
HACHURE
 62
5
370
-1
  6
CONTINUOUS
 10
77.2873060000000009
 20
225.4685990000000118
 30
0.0
 11
86.9990109999999959
 21
235.1803040000000067
 31
0.0
  0
LINE
  5
14E
100
AcDbEntity
100
AcDbLine
  8
HACHURE
 62
5
370
-1
  6
CONTINUOUS
 10
86.9990010000000069
 20
230.6857880000000023
 30
0.0
 11
77.2872959999999978
 21
220.9740820000000099
 31
0.0
  0
LINE
  5
14F
100
AcDbEntity
100
AcDbLine
  8
HACHURE
 62
5
370
-1
  6
CONTINUOUS
 10
77.2877749999999963
 20
216.4861779999999953
 30
0.0
 11
87.2350370000000055
 21
226.4334409999999878
 31
0.0
  0
LINE
  5
150
100
AcDbEntity
100
AcDbLine
  8
HACHURE
 62
5
370
-1
  6
CONTINUOUS
 10
89.0010120000000029
 20
223.7110319999999888
 30
0.0
 11
77.2882539999999949
 21
211.9982740000000092
 31
0.0
  0
LINE
  5
151
100
AcDbEntity
100
AcDbLine
  8
HACHURE
 62
5
370
-1
  6
CONTINUOUS
 10
77.2882440000000059
 20
207.5037580000000048
 30
0.0
 11
89.0010019999999997
 21
219.2165160000000128
 31
0.0
  0
LINE
  5
152
100
AcDbEntity
100
AcDbLine
  8
HACHURE
 62
5
370
-1
  6
CONTINUOUS
 10
89.0008899999999983
 20
214.7280199999999866
 30
0.0
 11
79.9402220000000057
 21
205.667351999999994
 31
0.0
  0
LINE
  5
153
100
AcDbEntity
100
AcDbLine
  8
HACHURE
 62
5
370
-1
  6
CONTINUOUS
 10
84.429310000000001
 20
205.6680570000000046
 30
0.0
 11
90.428325000000001
 21
211.6670719999999903
 31
0.0
  0
LINE
  5
154
100
AcDbEntity
100
AcDbLine
  8
HACHURE
 62
5
370
-1
  6
CONTINUOUS
 10
94.9185970000000054
 20
211.6689599999999984
 30
0.0
 11
88.9183979999999963
 21
205.6687609999999893
 31
0.0
  0
LINE
  5
155
100
AcDbEntity
100
AcDbLine
  8
HACHURE
 62
5
370
-1
  6
CONTINUOUS
 10
93.172622000000004
 20
205.42847900000001
 30
0.0
 11
96.4124220000000065
 21
208.6682790000000125
 31
0.0
  0
LINE
  5
156
100
AcDbEntity
100
AcDbLine
  8
HACHURE
 62
5
370
-1
  6
CONTINUOUS
 10
100.9003260000000068
 20
208.6677990000000023
 30
0.0
 11
94.9995579999999933
 21
202.7670310000000029
 31
0.0
  0
LINE
  5
157
100
AcDbEntity
100
AcDbLine
  8
HACHURE
 62
5
370
-1
  6
CONTINUOUS
 10
94.9994460000000061
 20
198.2785350000000051
 30
0.0
 11
103.0001060000000024
 21
206.2791960000000131
 31
0.0
  0
LINE
  5
158
100
AcDbEntity
100
AcDbLine
  8
HACHURE
 62
5
370
-1
  6
CONTINUOUS
 10
103.0006869999999992
 20
201.7852709999999945
 30
0.0
 11
95.0000270000000029
 21
193.7846110000000124
 31
0.0
  0
LINE
  5
159
100
AcDbEntity
100
AcDbLine
  8
HACHURE
 62
5
370
-1
  6
CONTINUOUS
 10
95.0005069999999989
 20
189.2967069999999978
 30
0.0
 11
103.0005749999999978
 21
197.2967749999999967
 31
0.0
  0
LINE
  5
15A
100
AcDbEntity
100
AcDbLine
  8
HACHURE
 62
5
370
-1
  6
CONTINUOUS
 10
103.0010539999999963
 20
192.8088710000000106
 30
0.0
 11
95.2306250000000034
 21
185.0384410000000059
 31
0.0
  0
LINE
  5
15B
100
AcDbEntity
100
AcDbLine
  8
HACHURE
 62
5
370
-1
  6
CONTINUOUS
 10
98.349574000000004
 20
183.6690069999999935
 30
0.0
 11
103.0015340000000066
 21
188.320966999999996
 31
0.0
  0
LINE
  5
15C
100
AcDbEntity
100
AcDbLine
  8
HACHURE
 62
5
370
-1
  6
CONTINUOUS
 10
103.0015240000000034
 20
183.8264499999999941
 30
0.0
 11
102.8423159999999967
 21
183.6672419999999875
 31
0.0
  0
ENDBLK
  5
15D
100
AcDbEntity
  8
0
100
AcDbBlockEnd
  0
BLOCK
  5
15E
100
AcDbEntity
  8
0
100
AcDbBlockBegin
  2
DESENS-G9
 70
0
 10
0.0
 20
0.0
 30
0.0
  3
DESENS-G9
  1

  0
LINE
  5
15F
100
AcDbEntity
100
AcDbLine
  8
HACHURE
 62
5
370
-1
  6
CONTINUOUS
 10
92.9999470000000059
 20
219.6122259999999926
 30
0.0
 11
89.9442880000000002
 21
222.6678850000000125
 31
0.0
  0
LINE
  5
160
100
AcDbEntity
100
AcDbLine
  8
HACHURE
 62
5
370
-1
  6
CONTINUOUS
 10
89.0000689999999963
 20
220.4691039999999873
 30
0.0
 11
92.9999179999999939
 21
216.469255000000004
 31
0.0
  0
LINE
  5
161
100
AcDbEntity
100
AcDbLine
  8
HACHURE
 62
5
370
-1
  6
CONTINUOUS
 10
90.6579660000000018
 20
215.6680220000000077
 30
0.0
 11
89.0000399999999985
 21
217.325948000000011
 31
0.0
  0
ENDBLK
  5
162
100
AcDbEntity
  8
0
100
AcDbBlockEnd
  0
BLOCK
  5
163
100
AcDbEntity
  8
0
100
AcDbBlockBegin
  2
DESENS-G10
 70
0
 10
0.0
 20
0.0
 30
0.0
  3
DESENS-G10
  1

  0
LINE
  5
164
100
AcDbEntity
100
AcDbLine
  8
HACHURE
 62
5
370
-1
  6
CONTINUOUS
 10
120.4973710000000011
 20
251.6674639999999954
 30
0.0
 11
119.0001380000000069
 21
249.0741800000000126
 31
0.0
  0
LINE
  5
165
100
AcDbEntity
100
AcDbLine
  8
HACHURE
 62
5
370
-1
  6
CONTINUOUS
 10
119.000118999999998
 20
243.575080000000014
 30
0.0
 11
123.6723190000000017
 21
251.6675689999999861
 31
0.0
  0
LINE
  5
166
100
AcDbEntity
100
AcDbLine
  8
HACHURE
 62
5
370
-1
  6
CONTINUOUS
 10
125.0000990000000058
 20
248.4682850000000087
 30
0.0
 11
123.3832369999999941
 21
245.6677980000000048
 31
0.0
  0
LINE
  5
167
100
AcDbEntity
100
AcDbLine
  8
HACHURE
 62
5
370
-1
  6
CONTINUOUS
 10
122.2284520000000043
 20
243.6676520000000039
 30
0.0
 11
119.0000990000000058
 21
238.0759799999999871
 31
0.0
  0
LINE
  5
168
100
AcDbEntity
100
AcDbLine
  8
HACHURE
 62
5
370
-1
  6
CONTINUOUS
 10
114.9999169999999964
 20
225.6483959999999911
 30
0.0
 11
117.3207179999999994
 21
229.6681409999999914
 31
0.0
  0
LINE
  5
169
100
AcDbEntity
100
AcDbLine
  8
HACHURE
 62
5
370
-1
  6
CONTINUOUS
 10
118.9999169999999964
 20
232.5765989999999874
 30
0.0
 11
123.0004050000000007
 21
239.5056480000000079
 31
0.0
  0
LINE
  5
16A
100
AcDbEntity
100
AcDbLine
  8
HACHURE
 62
5
370
-1
  6
CONTINUOUS
 10
123.000386000000006
 20
234.0065480000000093
 30
0.0
 11
116.4543239999999997
 21
222.668438000000009
 31
0.0
  0
LINE
  5
16B
100
AcDbEntity
100
AcDbLine
  8
HACHURE
 62
5
370
-1
  6
CONTINUOUS
 10
119.6291099999999972
 20
222.6682610000000011
 30
0.0
 11
123.0003659999999996
 21
228.5074480000000108
 31
0.0
  0
LINE
  5
16C
100
AcDbEntity
100
AcDbLine
  8
HACHURE
 62
5
370
-1
  6
CONTINUOUS
 10
125.0
 20
249.1498689999999954
 30
0.0
 11
119.0
 21
249.1498689999999954
 31
0.0
  0
LINE
  5
16D
100
AcDbEntity
100
AcDbLine
  8
HACHURE
 62
5
370
-1
  6
CONTINUOUS
 10
119.0
 20
246.40033600000001
 30
0.0
 11
125.0
 21
246.40033600000001
 31
0.0
  0
LINE
  5
16E
100
AcDbEntity
100
AcDbLine
  8
HACHURE
 62
5
370
-1
  6
CONTINUOUS
 10
123.0
 20
243.6508029999999962
 30
0.0
 11
119.0
 21
243.6508029999999962
 31
0.0
  0
LINE
  5
16F
100
AcDbEntity
100
AcDbLine
  8
HACHURE
 62
5
370
-1
  6
CONTINUOUS
 10
119.0
 20
240.9012700000000109
 30
0.0
 11
123.0
 21
240.9012700000000109
 31
0.0
  0
LINE
  5
170
100
AcDbEntity
100
AcDbLine
  8
HACHURE
 62
5
370
-1
  6
CONTINUOUS
 10
123.0
 20
238.1517369999999971
 30
0.0
 11
119.0
 21
238.1517369999999971
 31
0.0
  0
LINE
  5
171
100
AcDbEntity
100
AcDbLine
  8
HACHURE
 62
5
370
-1
  6
CONTINUOUS
 10
119.0
 20
235.4022040000000118
 30
0.0
 11
123.0
 21
235.4022040000000118
 31
0.0
  0
LINE
  5
172
100
AcDbEntity
100
AcDbLine
  8
HACHURE
 62
5
370
-1
  6
CONTINUOUS
 10
123.0
 20
232.652670999999998
 30
0.0
 11
119.0
 21
232.652670999999998
 31
0.0
  0
LINE
  5
173
100
AcDbEntity
100
AcDbLine
  8
HACHURE
 62
5
370
-1
  6
CONTINUOUS
 10
119.0
 20
229.9019069999999942
 30
0.0
 11
123.0
 21
229.9019069999999942
 31
0.0
  0
LINE
  5
174
100
AcDbEntity
100
AcDbLine
  8
HACHURE
 62
5
370
-1
  6
CONTINUOUS
 10
123.0
 20
227.1523740000000089
 30
0.0
 11
115.0
 21
227.1523740000000089
 31
0.0
  0
LINE
  5
175
100
AcDbEntity
100
AcDbLine
  8
HACHURE
 62
5
370
-1
  6
CONTINUOUS
 10
115.0
 20
224.4028409999999951
 30
0.0
 11
121.0
 21
224.4028409999999951
 31
0.0
  0
ENDBLK
  5
176
100
AcDbEntity
  8
0
100
AcDbBlockEnd
  0
BLOCK
  5
177
100
AcDbEntity
  8
0
100
AcDbBlockBegin
  2
DESENS-G11
 70
0
 10
0.0
 20
0.0
 30
0.0
  3
DESENS-G11
  1

  0
LINE
  5
178
100
AcDbEntity
100
AcDbLine
  8
HACHURE
 62
5
370
-1
  6
CONTINUOUS
 10
120.9999499999999983
 20
219.9000430000000108
 30
0.0
 11
118.2321060000000017
 21
222.6678880000000049
 31
0.0
  0
LINE
  5
179
100
AcDbEntity
100
AcDbLine
  8
HACHURE
 62
5
370
-1
  6
CONTINUOUS
 10
117.000072000000003
 20
220.7569210000000055
 30
0.0
 11
120.9999210000000005
 21
216.7570719999999937
 31
0.0
  0
LINE
  5
17A
100
AcDbEntity
100
AcDbLine
  8
HACHURE
 62
5
370
-1
  6
CONTINUOUS
 10
118.9457830000000058
 20
215.6680250000000001
 30
0.0
 11
117.0000419999999934
 21
217.6137650000000008
 31
0.0
  0
ENDBLK
  5
17B
100
AcDbEntity
  8
0
100
AcDbBlockEnd
  0
ENDSEC
  0
SECTION
  2
ENTITIES
  0
ARC
  5
17C
100
AcDbEntity
  8
FORT
 62
7
370
-1
  6
CONTINUOUS
100
AcDbCircle
 10
105.0
 20
143.6896220000000142
 30
0.0
 40
24.0
100
AcDbArc
 50
0.0
 51
180.0
  0
ARC
  5
17D
100
AcDbEntity
  8
FORT
 62
7
370
-1
  6
CONTINUOUS
100
AcDbCircle
 10
105.0
 20
143.6896220000000142
 30
0.0
 40
21.0
100
AcDbArc
 50
0.0
 51
180.0
  0
ARC
  5
17E
100
AcDbEntity
  8
FORT
 62
7
370
-1
  6
CONTINUOUS
100
AcDbCircle
 10
105.0
 20
143.6896220000000142
 30
0.0
 40
20.0
100
AcDbArc
 50
0.0
 51
180.0
  0
LINE
  5
17F
100
AcDbEntity
100
AcDbLine
  8
FORT
 62
7
370
-1
  6
CONTINUOUS
 10
77.287187000000003
 20
143.6896220000000142
 30
0.0
 11
91.1435939999999931
 21
167.6896220000000142
 31
0.0
  0
ARC
  5
180
100
AcDbEntity
  8
FORT
 62
7
370
-1
  6
CONTINUOUS
100
AcDbCircle
 10
97.0
 20
143.6896220000000142
 30
0.0
 40
6.0
100
AcDbArc
 50
0.0
 51
180.0
  0
LINE
  5
181
100
AcDbEntity
100
AcDbLine
  8
FORT
 62
7
370
-1
  6
CONTINUOUS
 10
91.0
 20
143.6896220000000142
 30
0.0
 11
91.0
 21
149.6896220000000142
 31
0.0
  0
LINE
  5
182
100
AcDbEntity
100
AcDbLine
  8
FORT
 62
7
370
-1
  6
CONTINUOUS
 10
96.0
 20
143.6896220000000142
 30
0.0
 11
96.0
 21
149.605702000000008
 31
0.0
  0
LINE
  5
183
100
AcDbEntity
100
AcDbLine
  8
FORT
 62
7
370
-1
  6
CONTINUOUS
 10
103.0
 20
143.6896220000000142
 30
0.0
 11
103.0
 21
149.6896220000000142
 31
0.0
  0
LINE
  5
184
100
AcDbEntity
100
AcDbLine
  8
FORT
 62
7
370
-1
  6
CONTINUOUS
 10
98.0
 20
143.6896220000000142
 30
0.0
 11
98.0
 21
149.605702000000008
 31
0.0
  0
LINE
  5
185
100
AcDbEntity
100
AcDbLine
  8
FORT
 62
7
370
-1
  6
CONTINUOUS
 10
118.8564060000000069
 20
167.6896220000000142
 30
0.0
 11
132.7128130000000112
 21
143.6896220000000142
 31
0.0
  0
ARC
  5
186
100
AcDbEntity
  8
FORT
 62
7
370
-1
  6
CONTINUOUS
100
AcDbCircle
 10
113.0
 20
143.6896220000000142
 30
0.0
 40
6.0
100
AcDbArc
 50
0.0
 51
180.0
  0
LINE
  5
187
100
AcDbEntity
100
AcDbLine
  8
FORT
 62
7
370
-1
  6
CONTINUOUS
 10
107.0
 20
149.6896220000000142
 30
0.0
 11
107.0
 21
143.6896220000000142
 31
0.0
  0
LINE
  5
188
100
AcDbEntity
100
AcDbLine
  8
FORT
 62
7
370
-1
  6
CONTINUOUS
 10
112.0
 20
143.6896220000000142
 30
0.0
 11
112.0
 21
149.605702000000008
 31
0.0
  0
LINE
  5
189
100
AcDbEntity
100
AcDbLine
  8
FORT
 62
7
370
-1
  6
CONTINUOUS
 10
114.0
 20
143.6896220000000142
 30
0.0
 11
114.0
 21
149.605702000000008
 31
0.0
  0
LINE
  5
18A
100
AcDbEntity
100
AcDbLine
  8
FORT
 62
7
370
-1
  6
CONTINUOUS
 10
119.0
 20
149.6896220000000142
 30
0.0
 11
119.0
 21
143.6896220000000142
 31
0.0
  0
LINE
  5
18B
100
AcDbEntity
100
AcDbLine
  8
FIN
 62
5
370
-1
  6
CONTINUOUS
 10
10.0
 20
59.0
 30
0.0
 11
200.0
 21
59.0
 31
0.0
  0
LINE
  5
18C
100
AcDbEntity
100
AcDbLine
  8
FIN
 62
5
370
-1
  6
CONTINUOUS
 10
10.0
 20
68.0
 30
0.0
 11
200.0
 21
68.0
 31
0.0
  0
LINE
  5
18D
100
AcDbEntity
100
AcDbLine
  8
FIN
 62
5
370
-1
  6
CONTINUOUS
 10
10.0
 20
77.0
 30
0.0
 11
200.0
 21
77.0
 31
0.0
  0
LINE
  5
18E
100
AcDbEntity
100
AcDbLine
  8
FORT
 62
7
370
-1
  6
CONTINUOUS
 10
10.0
 20
50.0
 30
0.0
 11
200.0
 21
50.0
 31
0.0
  0
LINE
  5
18F
100
AcDbEntity
100
AcDbLine
  8
FIN
 62
5
370
-1
  6
CONTINUOUS
 10
10.0
 20
86.0
 30
0.0
 11
200.0
 21
86.0
 31
0.0
  0
LINE
  5
190
100
AcDbEntity
100
AcDbLine
  8
FIN
 62
5
370
-1
  6
CONTINUOUS
 10
10.0
 20
95.0
 30
0.0
 11
200.0
 21
95.0
 31
0.0
  0
LINE
  5
191
100
AcDbEntity
100
AcDbLine
  8
FIN
 62
5
370
-1
  6
CONTINUOUS
 10
10.0
 20
104.0
 30
0.0
 11
200.0
 21
104.0
 31
0.0
  0
LINE
  5
192
100
AcDbEntity
100
AcDbLine
  8
FIN
 62
5
370
-1
  6
CONTINUOUS
 10
10.0
 20
113.0
 30
0.0
 11
200.0
 21
113.0
 31
0.0
  0
LINE
  5
193
100
AcDbEntity
100
AcDbLine
  8
FORT
 62
7
370
-1
  6
CONTINUOUS
 10
50.9629639999999995
 20
143.6896220000000142
 30
0.0
 11
60.9629639999999995
 21
143.6896220000000142
 31
0.0
  0
LINE
  5
194
100
AcDbEntity
100
AcDbLine
  8
FORT
 62
7
370
-1
  6
CONTINUOUS
 10
59.2962970000000027
 20
143.6896220000000142
 30
0.0
 11
50.9629639999999995
 21
143.6896220000000142
 31
0.0
  0
LINE
  5
195
100
AcDbEntity
100
AcDbLine
  8
FORT
 62
7
370
-1
  6
CONTINUOUS
 10
59.2962970000000027
 20
143.6896220000000142
 30
0.0
 11
50.9629639999999995
 21
143.6896220000000142
 31
0.0
  0
LINE
  5
196
100
AcDbEntity
100
AcDbLine
  8
FORT
 62
7
370
-1
  6
CONTINUOUS
 10
55.6296299999999988
 20
134.2710099999999898
 30
0.0
 11
55.6296299999999988
 21
143.6896220000000142
 31
0.0
  0
LINE
  5
197
100
AcDbEntity
100
AcDbLine
  8
FORT
 62
7
370
-1
  6
CONTINUOUS
 10
55.6296299999999988
 20
143.6896220000000142
 30
0.0
 11
54.6962970000000013
 21
140.8896220000000028
 31
0.0
  0
LINE
  5
198
100
AcDbEntity
100
AcDbLine
  8
FORT
 62
7
370
-1
  6
CONTINUOUS
 10
55.6296299999999988
 20
143.6896220000000142
 30
0.0
 11
56.5629640000000009
 21
140.8896220000000028
 31
0.0
  0
LINE
  5
199
100
AcDbEntity
100
AcDbLine
  8
FIN
 62
5
370
-1
  6
CONTINUOUS
 10
72.799357999999998
 20
141.1896220000000142
 30
0.0
 11
72.799357999999998
 21
146.1896220000000142
 31
0.0
  0
LINE
  5
19A
100
AcDbEntity
100
AcDbLine
  8
FIN
 62
5
370
-1
  6
CONTINUOUS
 10
74.299357999999998
 20
141.1896220000000142
 30
0.0
 11
74.299357999999998
 21
146.1896220000000142
 31
0.0
  0
LINE
  5
19B
100
AcDbEntity
100
AcDbLine
  8
FORT
 62
7
370
-1
  6
CONTINUOUS
 10
64.9629639999999995
 20
143.6896220000000142
 30
0.0
 11
69.9629639999999995
 21
143.6896220000000142
 31
0.0
  0
LINE
  5
19C
100
AcDbEntity
100
AcDbLine
  8
FORT
 62
7
370
-1
  6
CONTINUOUS
 10
61.9629639999999995
 20
143.6896220000000142
 30
0.0
 11
63.9629639999999995
 21
143.6896220000000142
 31
0.0
  0
LINE
  5
19D
100
AcDbEntity
100
AcDbLine
  8
FORT
 62
7
370
-1
  6
CONTINUOUS
 10
159.0370360000000005
 20
143.6896220000000142
 30
0.0
 11
149.0370360000000005
 21
143.6896220000000142
 31
0.0
  0
LINE
  5
19E
100
AcDbEntity
100
AcDbLine
  8
FORT
 62
7
370
-1
  6
CONTINUOUS
 10
150.7037029999999902
 20
143.6896220000000142
 30
0.0
 11
159.0370360000000005
 21
143.6896220000000142
 31
0.0
  0
LINE
  5
19F
100
AcDbEntity
100
AcDbLine
  8
FORT
 62
7
370
-1
  6
CONTINUOUS
 10
150.7037029999999902
 20
143.6896220000000142
 30
0.0
 11
159.0370360000000005
 21
143.6896220000000142
 31
0.0
  0
LINE
  5
1A0
100
AcDbEntity
100
AcDbLine
  8
FORT
 62
7
370
-1
  6
CONTINUOUS
 10
154.3703700000000083
 20
134.2710099999999898
 30
0.0
 11
154.3703700000000083
 21
143.6896220000000142
 31
0.0
  0
LINE
  5
1A1
100
AcDbEntity
100
AcDbLine
  8
FORT
 62
7
370
-1
  6
CONTINUOUS
 10
154.3703700000000083
 20
143.6896220000000142
 30
0.0
 11
155.3037030000000129
 21
140.8896220000000028
 31
0.0
  0
LINE
  5
1A2
100
AcDbEntity
100
AcDbLine
  8
FORT
 62
7
370
-1
  6
CONTINUOUS
 10
154.3703700000000083
 20
143.6896220000000142
 30
0.0
 11
153.4370360000000062
 21
140.8896220000000028
 31
0.0
  0
LINE
  5
1A3
100
AcDbEntity
100
AcDbLine
  8
FIN
 62
5
370
-1
  6
CONTINUOUS
 10
137.2006419999999878
 20
141.1896220000000142
 30
0.0
 11
137.2006419999999878
 21
146.1896220000000142
 31
0.0
  0
LINE
  5
1A4
100
AcDbEntity
100
AcDbLine
  8
FIN
 62
5
370
-1
  6
CONTINUOUS
 10
135.7006419999999878
 20
141.1896220000000142
 30
0.0
 11
135.7006419999999878
 21
146.1896220000000142
 31
0.0
  0
LINE
  5
1A5
100
AcDbEntity
100
AcDbLine
  8
FORT
 62
7
370
-1
  6
CONTINUOUS
 10
145.0370360000000005
 20
143.6896220000000142
 30
0.0
 11
140.0370360000000005
 21
143.6896220000000142
 31
0.0
  0
LINE
  5
1A6
100
AcDbEntity
100
AcDbLine
  8
FORT
 62
7
370
-1
  6
CONTINUOUS
 10
148.0370360000000005
 20
143.6896220000000142
 30
0.0
 11
146.0370360000000005
 21
143.6896220000000142
 31
0.0
  0
LINE
  5
1A7
100
AcDbEntity
100
AcDbLine
  8
FORT
 62
7
370
-1
  6
CONTINUOUS
 10
10.0
 20
287.0
 30
0.0
 11
200.0
 21
287.0
 31
0.0
  0
LINE
  5
1A8
100
AcDbEntity
100
AcDbLine
  8
FORT
 62
7
370
-1
  6
CONTINUOUS
 10
89.0
 20
211.6679139999999961
 30
0.0
 11
121.0
 21
211.6679139999999961
 31
0.0
  0
LINE
  5
1A9
100
AcDbEntity
100
AcDbLine
  8
FORT
 62
7
370
-1
  6
CONTINUOUS
 10
89.0
 20
215.6679139999999961
 30
0.0
 11
121.0
 21
215.6679139999999961
 31
0.0
  0
LINE
  5
1AA
100
AcDbEntity
100
AcDbLine
  8
FORT
 62
7
370
-1
  6
CONTINUOUS
 10
91.1435939999999931
 20
167.6896220000000142
 30
0.0
 11
118.8564060000000069
 21
167.6896220000000142
 31
0.0
  0
LINE
  5
1AB
100
AcDbEntity
100
AcDbLine
  8
FORT
 62
7
370
-1
  6
CONTINUOUS
 10
96.5999999999999943
 20
183.6679139999999961
 30
0.0
 11
113.4000000000000057
 21
183.6679139999999961
 31
0.0
  0
LWPOLYLINE
  5
1AC
  8
HACHURE
 62
5
370
-1
  6
CONTINUOUS
100
AcDbEntity
100
AcDbPolyline
 90
10
 70
1
 10
101.25
 20
219.6679139999999961
 10
95.0
 20
219.6679139999999961
 10
94.0
 20
218.6679139999999961
 10
94.0
 20
215.6679139999999961
 10
116.0
 20
215.6679139999999961
 10
116.0
 20
218.6679139999999961
 10
115.0
 20
219.6679139999999961
 10
108.75
 20
219.6679139999999961
 10
108.75
 20
217.6679139999999961
 10
101.25
 20
217.6679139999999961
  0
INSERT
  5
1AD
100
AcDbEntity
100
AcDbBlockReference
  8
HACHURE
 62
256
370
-1
  6
ByLayer
  2
DESENS-G1
 10
0.0
 20
0.0
 30
0.0
  0
LWPOLYLINE
  5
1AE
  8
HACHURE
 62
5
370
-1
  6
CONTINUOUS
100
AcDbEntity
100
AcDbPolyline
 90
4
 70
1
 10
121.0
 20
215.6679139999999961
 10
89.0
 20
215.6679139999999961
 10
89.0
 20
211.6679139999999961
 10
121.0
 20
211.6679139999999961
  0
INSERT
  5
1AF
100
AcDbEntity
100
AcDbBlockReference
  8
HACHURE
 62
256
370
-1
  6
ByLayer
  2
DESENS-G2
 10
0.0
 20
0.0
 30
0.0
  0
LWPOLYLINE
  5
1B0
  8
HACHURE
 62
5
370
-1
  6
CONTINUOUS
100
AcDbEntity
100
AcDbPolyline
 90
21
 70
1
 10
119.0
 20
261.6679139999999961
 10
116.0
 20
261.6679139999999961
 10
116.0
 20
248.4675729999999874
 10
115.2000000000000028
 20
247.6675730000000044
 10
115.2000000000000028
 20
238.8160530000000108
 10
113.0
 20
237.5458830000000034
 10
110.7999999999999972
 20
238.8160530000000108
 10
110.7999999999999972
 20
247.6675730000000044
 10
110.0
 20
248.4675729999999874
 10
110.0
 20
261.6679139999999961
 10
107.0
 20
261.6679139999999961
 10
107.0
 20
229.6679139999999961
 10
111.0
 20
229.6679139999999961
 10
111.0
 20
222.6679139999999961
 10
110.0
 20
222.6679139999999961
 10
110.0
 20
220.6679139999999961
 10
116.0
 20
220.6679139999999961
 10
116.0
 20
222.6679139999999961
 10
115.0
 20
222.6679139999999961
 10
115.0
 20
229.6679139999999961
 10
119.0
 20
229.6679139999999961
  0
INSERT
  5
1B1
100
AcDbEntity
100
AcDbBlockReference
  8
HACHURE
 62
256
370
-1
  6
ByLayer
  2
DESENS-G3
 10
0.0
 20
0.0
 30
0.0
  0
LINE
  5
1B2
100
AcDbEntity
100
AcDbLine
  8
FIN
 62
5
370
-1
  6
CONTINUOUS
 10
107.5
 20
225.8821979999999883
 30
0.0
 11
150.0
 21
220.0
 31
0.0
  0
LINE
  5
1B3
100
AcDbEntity
100
AcDbLine
  8
FORT
 62
7
370
-1
  6
CONTINUOUS
 10
107.0
 20
149.6896220000000142
 30
0.0
 11
119.0
 21
149.6896220000000142
 31
0.0
  0
LINE
  5
1B4
100
AcDbEntity
100
AcDbLine
  8
FORT
 62
7
370
-1
  6
CONTINUOUS
 10
110.0
 20
220.6679139999999961
 30
0.0
 11
116.0
 21
220.6679139999999961
 31
0.0
  0
LINE
  5
1B5
100
AcDbEntity
100
AcDbLine
  8
FORT
 62
7
370
-1
  6
CONTINUOUS
 10
105.3410329999999959
 20
219.6679139999999961
 30
0.0
 11
115.0
 21
219.6679139999999961
 31
0.0
  0
LINE
  5
1B6
100
AcDbEntity
100
AcDbLine
  8
FORT
 62
7
370
-1
  6
CONTINUOUS
 10
110.7999999999999972
 20
238.8160530000000108
 30
0.0
 11
113.0
 21
237.5458830000000034
 31
0.0
  0
LINE
  5
1B7
100
AcDbEntity
100
AcDbLine
  8
FORT
 62
7
370
-1
  6
CONTINUOUS
 10
115.2000000000000028
 20
238.8160530000000108
 30
0.0
 11
110.7999999999999972
 21
238.8160530000000108
 31
0.0
  0
LINE
  5
1B8
100
AcDbEntity
100
AcDbLine
  8
FORT
 62
7
370
-1
  6
CONTINUOUS
 10
116.0
 20
243.1021340000000066
 30
0.0
 11
110.0
 21
243.1021340000000066
 31
0.0
  0
LINE
  5
1B9
100
AcDbEntity
100
AcDbLine
  8
FORT
 62
7
370
-1
  6
CONTINUOUS
 10
115.2000000000000028
 20
247.6675730000000044
 30
0.0
 11
110.7999999999999972
 21
247.6675730000000044
 31
0.0
  0
LINE
  5
1BA
100
AcDbEntity
100
AcDbLine
  8
FORT
 62
7
370
-1
  6
CONTINUOUS
 10
116.0
 20
248.4675729999999874
 30
0.0
 11
110.0
 21
248.4675729999999874
 31
0.0
  0
LINE
  5
1BB
100
AcDbEntity
100
AcDbLine
  8
FORT
 62
7
370
-1
  6
CONTINUOUS
 10
119.0
 20
263.6675109999999904
 30
0.0
 11
107.0
 21
263.6675109999999904
 31
0.0
  0
LINE
  5
1BC
100
AcDbEntity
100
AcDbLine
  8
FORT
 62
7
370
-1
  6
CONTINUOUS
 10
114.0
 20
265.6675109999999904
 30
0.0
 11
112.0
 21
265.6675109999999904
 31
0.0
  0
LWPOLYLINE
  5
1BD
  8
HACHURE
 62
5
370
-1
  6
CONTINUOUS
100
AcDbEntity
100
AcDbPolyline
 90
19
 70
1
 10
132.7128130000000112
 20
250.6028300000000115
 10
129.0
 20
251.6679139999999961
 10
126.0
 20
251.6679139999999961
 10
126.0
 20
245.6679139999999961
 10
121.0
 20
245.6679139999999961
 10
121.0
 20
243.6679139999999961
 10
123.0
 20
243.6679139999999961
 10
123.0
 20
226.6679139999999961
 10
121.0
 20
224.6679139999999961
 10
121.0
 20
211.6679139999999961
 10
115.0
 20
211.6679139999999961
 10
115.0
 20
208.6679139999999961
 10
107.0
 20
208.6679139999999961
 10
107.0
 20
183.6679139999999961
 10
113.4000000000000057
 20
183.6679139999999961
 10
115.0
 20
185.2679139999999904
 10
115.0
 20
202.6679139999999961
 42
-0.4142139999543951
 10
118.0
 20
205.6679139999999961
 10
132.7128130000000112
 20
205.6679139999999961
  0
INSERT
  5
1BE
100
AcDbEntity
100
AcDbBlockReference
  8
HACHURE
 62
256
370
-1
  6
ByLayer
  2
DESENS-G4
 10
0.0
 20
0.0
 30
0.0
  0
LINE
  5
1BF
100
AcDbEntity
100
AcDbLine
  8
FORT
 62
7
370
-1
  6
CONTINUOUS
 10
95.0
 20
208.6679139999999961
 30
0.0
 11
115.0
 21
208.6679139999999961
 31
0.0
  0
LINE
  5
1C0
100
AcDbEntity
100
AcDbLine
  8
FORT
 62
7
370
-1
  6
CONTINUOUS
 10
102.624520000000004
 20
224.1122389999999882
 30
0.0
 11
107.624520000000004
 21
225.3979510000000062
 31
0.0
  0
LWPOLYLINE
  5
1C1
  8
HACHURE
 62
5
370
-1
  6
CONTINUOUS
100
AcDbEntity
100
AcDbPolyline
 90
12
 70
1
 10
107.0
 20
251.6679139999999961
 10
103.0
 20
251.6679139999999961
 10
103.0
 20
229.6679139999999961
 10
99.0
 20
229.6679139999999961
 10
99.0
 20
222.6679139999999961
 10
101.25
 20
222.6679139999999961
 10
101.25
 20
227.6679139999999961
 10
108.75
 20
227.6679139999999961
 10
108.75
 20
222.6679139999999961
 10
111.0
 20
222.6679139999999961
 10
111.0
 20
229.6679139999999961
 10
107.0
 20
229.6679139999999961
  0
INSERT
  5
1C2
100
AcDbEntity
100
AcDbBlockReference
  8
HACHURE
 62
256
370
-1
  6
ByLayer
  2
DESENS-G5
 10
0.0
 20
0.0
 30
0.0
  0
LINE
  5
1C3
100
AcDbEntity
100
AcDbLine
  8
FORT
 62
7
370
-1
  6
CONTINUOUS
 10
77.287187000000003
 20
250.6028300000000115
 30
0.0
 11
77.287187000000003
 21
205.6679139999999961
 31
0.0
  0
LINE
  5
1C4
100
AcDbEntity
100
AcDbLine
  8
FORT
 62
7
370
-1
  6
CONTINUOUS
 10
95.0
 20
222.6679139999999961
 30
0.0
 11
95.0
 21
229.6679139999999961
 31
0.0
  0
LINE
  5
1C5
100
AcDbEntity
100
AcDbLine
  8
FORT
 62
7
370
-1
  6
CONTINUOUS
 10
99.0
 20
222.6679139999999961
 30
0.0
 11
99.0
 21
229.6679139999999961
 31
0.0
  0
LINE
  5
1C6
100
AcDbEntity
100
AcDbLine
  8
FIN
 62
5
370
-1
  6
CONTINUOUS
 10
87.0
 20
221.6679139999999961
 30
0.0
 11
87.0
 21
226.6679139999999961
 31
0.0
  0
LINE
  5
1C7
100
AcDbEntity
100
AcDbLine
  8
FORT
 62
7
370
-1
  6
CONTINUOUS
 10
101.25
 20
222.6679139999999961
 30
0.0
 11
101.25
 21
227.6679139999999961
 31
0.0
  0
LWPOLYLINE
  5
1C8
  8
HACHURE
 62
5
370
-1
  6
CONTINUOUS
100
AcDbEntity
100
AcDbPolyline
 90
21
 70
1
 10
103.0
 20
261.6679139999999961
 10
100.0
 20
261.6679139999999961
 10
100.0
 20
248.4675729999999874
 10
99.2000000000000028
 20
247.6675730000000044
 10
99.2000000000000028
 20
238.8160530000000108
 10
97.0
 20
237.5458830000000034
 10
94.7999999999999972
 20
238.8160530000000108
 10
94.7999999999999972
 20
247.6675730000000044
 10
94.0
 20
248.4675729999999874
 10
94.0
 20
261.6679139999999961
 10
91.0
 20
261.6679139999999961
 10
91.0
 20
229.6679139999999961
 10
95.0
 20
229.6679139999999961
 10
95.0
 20
222.6679139999999961
 10
94.0
 20
222.6679139999999961
 10
94.0
 20
220.6679139999999961
 10
100.0
 20
220.6679139999999961
 10
100.0
 20
222.6679139999999961
 10
99.0
 20
222.6679139999999961
 10
99.0
 20
229.6679139999999961
 10
103.0
 20
229.6679139999999961
  0
INSERT
  5
1C9
100
AcDbEntity
100
AcDbBlockReference
  8
HACHURE
 62
256
370
-1
  6
ByLayer
  2
DESENS-G6
 10
0.0
 20
0.0
 30
0.0
  0
LWPOLYLINE
  5
1CA
  8
HACHURE
 62
5
370
-1
  6
CONTINUOUS
100
AcDbEntity
100
AcDbPolyline
 90
12
 70
1
 10
91.0
 20
251.6679139999999961
 10
85.0
 20
251.6679139999999961
 10
85.0
 20
245.6679139999999961
 10
89.0
 20
245.6679139999999961
 10
89.0
 20
243.6679139999999961
 10
87.0
 20
243.6679139999999961
 10
87.0
 20
226.6679139999999961
 10
89.0
 20
224.6679139999999961
 10
89.0
 20
222.6679139999999961
 10
95.0
 20
222.6679139999999961
 10
95.0
 20
229.6679139999999961
 10
91.0
 20
229.6679139999999961
  0
INSERT
  5
1CB
100
AcDbEntity
100
AcDbBlockReference
  8
HACHURE
 62
256
370
-1
  6
ByLayer
  2
DESENS-G7
 10
0.0
 20
0.0
 30
0.0
  0
LINE
  5
1CC
100
AcDbEntity
100
AcDbLine
  8
FIN
 62
5
370
-1
  6
CONTINUOUS
 10
89.0
 20
243.6679139999999961
 30
0.0
 11
89.0
 21
224.6679139999999961
 31
0.0
  0
LINE
  5
1CD
100
AcDbEntity
100
AcDbLine
  8
FORT
 62
7
370
-1
  6
CONTINUOUS
 10
87.0
 20
226.6679139999999961
 30
0.0
 11
89.0
 21
224.6679139999999961
 31
0.0
  0
CIRCLE
  5
1CE
100
AcDbEntity
100
AcDbCircle
  8
FORT
 62
7
370
-1
  6
CONTINUOUS
 10
102.5
 20
224.5964859999999987
 30
0.0
 40
0.5
  0
LINE
  5
1CF
100
AcDbEntity
100
AcDbLine
  8
FORT
 62
7
370
-1
  6
CONTINUOUS
 10
111.0
 20
222.6679139999999961
 30
0.0
 11
111.0
 21
229.6679139999999961
 31
0.0
  0
LINE
  5
1D0
100
AcDbEntity
100
AcDbLine
  8
FORT
 62
7
370
-1
  6
CONTINUOUS
 10
108.75
 20
222.6679139999999961
 30
0.0
 11
108.75
 21
227.6679139999999961
 31
0.0
  0
LWPOLYLINE
  5
1D1
  8
HACHURE
 62
5
370
-1
  6
CONTINUOUS
100
AcDbEntity
100
AcDbPolyline
 90
19
 70
1
 10
95.0
 20
211.6679139999999961
 10
89.0
 20
211.6679139999999961
 10
89.0
 20
224.6679139999999961
 10
87.0
 20
226.6679139999999961
 10
87.0
 20
243.6679139999999961
 10
89.0
 20
243.6679139999999961
 10
89.0
 20
245.6679139999999961
 10
84.0
 20
245.6679139999999961
 10
84.0
 20
251.6679139999999961
 10
81.0
 20
251.6679139999999961
 10
77.287187000000003
 20
250.6028300000000115
 10
77.287187000000003
 20
205.6679139999999961
 10
92.0
 20
205.6679139999999961
 42
-0.4142139999756782
 10
95.0
 20
202.6679140002491408
 10
95.0
 20
185.2679139999999904
 10
96.5999999999999943
 20
183.6679139999999961
 10
103.0
 20
183.6679139999999961
 10
103.0
 20
208.6679139999999961
 10
95.0
 20
208.6679139999999961
  0
INSERT
  5
1D2
100
AcDbEntity
100
AcDbBlockReference
  8
HACHURE
 62
256
370
-1
  6
ByLayer
  2
DESENS-G8
 10
0.0
 20
0.0
 30
0.0
  0
LINE
  5
1D3
100
AcDbEntity
100
AcDbLine
  8
FORT
 62
7
370
-1
  6
CONTINUOUS
 10
103.0
 20
183.6679139999999961
 30
0.0
 11
103.0
 21
208.6679139999999961
 31
0.0
  0
LINE
  5
1D4
100
AcDbEntity
100
AcDbLine
  8
FIN
 62
5
370
-1
  6
CONTINUOUS
 10
96.5999999999999943
 20
183.6679139999999961
 30
0.0
 11
96.5999999999999943
 21
198.6679139999999961
 31
0.0
  0
LINE
  5
1D5
100
AcDbEntity
100
AcDbLine
  8
FORT
 62
7
370
-1
  6
CONTINUOUS
 10
95.0
 20
185.2679139999999904
 30
0.0
 11
95.0
 21
202.6679139999999961
 31
0.0
  0
LINE
  5
1D6
100
AcDbEntity
100
AcDbLine
  8
FORT
 62
7
370
-1
  6
CONTINUOUS
 10
107.0
 20
183.6679139999999961
 30
0.0
 11
107.0
 21
208.6679139999999961
 31
0.0
  0
LINE
  5
1D7
100
AcDbEntity
100
AcDbLine
  8
FORT
 62
7
370
-1
  6
CONTINUOUS
 10
91.0
 20
149.6896220000000142
 30
0.0
 11
103.0
 21
149.6896220000000142
 31
0.0
  0
LINE
  5
1D8
100
AcDbEntity
100
AcDbLine
  8
FORT
 62
7
370
-1
  6
CONTINUOUS
 10
95.0
 20
185.2679139999999904
 30
0.0
 11
96.5999999999999943
 21
183.6679139999999961
 31
0.0
  0
LINE
  5
1D9
100
AcDbEntity
100
AcDbLine
  8
FORT
 62
7
370
-1
  6
CONTINUOUS
 10
102.375479999999996
 20
222.509303999999986
 30
0.0
 11
107.375479999999996
 21
223.7950160000000039
 31
0.0
  0
LINE
  5
1DA
100
AcDbEntity
100
AcDbLine
  8
FORT
 62
7
370
-1
  6
CONTINUOUS
 10
102.624520000000004
 20
221.5408109999999908
 30
0.0
 11
107.624520000000004
 21
222.8265230000000088
 31
0.0
  0
LINE
  5
1DB
100
AcDbEntity
100
AcDbLine
  8
FORT
 62
7
370
-1
  6
CONTINUOUS
 10
102.375479999999996
 20
219.9378759999999886
 30
0.0
 11
107.375479999999996
 21
221.2235880000000066
 31
0.0
  0
LINE
  5
1DC
100
AcDbEntity
100
AcDbLine
  8
FORT
 62
7
370
-1
  6
CONTINUOUS
 10
102.624520000000004
 20
218.9693829999999934
 30
0.0
 11
107.624520000000004
 21
220.2550950000000114
 31
0.0
  0
LINE
  5
1DD
100
AcDbEntity
100
AcDbLine
  8
FORT
 62
7
370
-1
  6
CONTINUOUS
 10
103.5478480000000019
 20
217.6679139999999961
 30
0.0
 11
107.375479999999996
 21
218.6521600000000092
 31
0.0
  0
LINE
  5
1DE
100
AcDbEntity
100
AcDbLine
  8
FORT
 62
7
370
-1
  6
CONTINUOUS
 10
101.25
 20
217.6679139999999961
 30
0.0
 11
108.75
 21
217.6679139999999961
 31
0.0
  0
LINE
  5
1DF
100
AcDbEntity
100
AcDbLine
  8
FORT
 62
7
370
-1
  6
CONTINUOUS
 10
89.0
 20
211.6679139999999961
 30
0.0
 11
89.0
 21
224.6679139999999961
 31
0.0
  0
LINE
  5
1E0
100
AcDbEntity
100
AcDbLine
  8
FORT
 62
7
370
-1
  6
CONTINUOUS
 10
92.0
 20
205.6679139999999961
 30
0.0
 11
77.287187000000003
 21
205.6679139999999961
 31
0.0
  0
LINE
  5
1E1
100
AcDbEntity
100
AcDbLine
  8
FIN
 62
5
370
-1
  6
CONTINUOUS
 10
96.3045489999999944
 20
217.4137519999999881
 30
0.0
 11
60.0
 21
220.0
 31
0.0
  0
LINE
  5
1E2
100
AcDbEntity
100
AcDbLine
  8
FIN
 62
5
370
-1
  6
CONTINUOUS
 10
91.9486150000000038
 20
213.8214269999999999
 30
0.0
 11
60.0
 21
205.0
 31
0.0
  0
LINE
  5
1E3
100
AcDbEntity
100
AcDbLine
  8
FORT
 62
7
370
-1
  6
CONTINUOUS
 10
94.0
 20
215.6679139999999961
 30
0.0
 11
94.0
 21
218.6679139999999961
 31
0.0
  0
LINE
  5
1E4
100
AcDbEntity
100
AcDbLine
  8
FORT
 62
7
370
-1
  6
CONTINUOUS
 10
93.0
 20
215.6679139999999961
 30
0.0
 11
93.0
 21
222.6679139999999961
 31
0.0
  0
ARC
  5
1E5
100
AcDbEntity
  8
FORT
 62
7
370
-1
  6
CONTINUOUS
100
AcDbCircle
 10
92.0
 20
202.6679139999999961
 30
0.0
 40
3.0
100
AcDbArc
 50
0.0
 51
90.0
  0
LINE
  5
1E6
100
AcDbEntity
100
AcDbLine
  8
FORT
 62
7
370
-1
  6
CONTINUOUS
 10
94.0
 20
218.6679139999999961
 30
0.0
 11
95.0
 21
219.6679139999999961
 31
0.0
  0
LINE
  5
1E7
100
AcDbEntity
100
AcDbLine
  8
FORT
 62
7
370
-1
  6
CONTINUOUS
 10
100.0
 20
220.6679139999999961
 30
0.0
 11
100.0
 21
222.6679139999999961
 31
0.0
  0
LINE
  5
1E8
100
AcDbEntity
100
AcDbLine
  8
FORT
 62
7
370
-1
  6
CONTINUOUS
 10
94.0
 20
220.6679139999999961
 30
0.0
 11
94.0
 21
222.6679139999999961
 31
0.0
  0
LINE
  5
1E9
100
AcDbEntity
100
AcDbLine
  8
FORT
 62
7
370
-1
  6
CONTINUOUS
 10
100.0
 20
220.6679139999999961
 30
0.0
 11
94.0
 21
220.6679139999999961
 31
0.0
  0
LINE
  5
1EA
100
AcDbEntity
100
AcDbLine
  8
FORT
 62
7
370
-1
  6
CONTINUOUS
 10
89.0
 20
222.6679139999999961
 30
0.0
 11
95.0
 21
222.6679139999999961
 31
0.0
  0
LINE
  5
1EB
100
AcDbEntity
100
AcDbLine
  8
FORT
 62
7
370
-1
  6
CONTINUOUS
 10
87.0
 20
221.6679139999999961
 30
0.0
 11
89.0
 21
221.6679139999999961
 31
0.0
  0
CIRCLE
  5
1EC
100
AcDbEntity
100
AcDbCircle
  8
FORT
 62
7
370
-1
  6
CONTINUOUS
 10
102.5
 20
222.0250580000000014
 30
0.0
 40
0.5
  0
CIRCLE
  5
1ED
100
AcDbEntity
100
AcDbCircle
  8
FORT
 62
7
370
-1
  6
CONTINUOUS
 10
102.5
 20
219.453630000000004
 30
0.0
 40
0.5
  0
LINE
  5
1EE
100
AcDbEntity
100
AcDbLine
  8
FORT
 62
7
370
-1
  6
CONTINUOUS
 10
99.0
 20
222.6679139999999961
 30
0.0
 11
102.9922949999999986
 21
222.6679139999999961
 31
0.0
  0
LINE
  5
1EF
100
AcDbEntity
100
AcDbLine
  8
FORT
 62
7
370
-1
  6
CONTINUOUS
 10
101.25
 20
217.6679139999999961
 30
0.0
 11
101.25
 21
219.6679139999999961
 31
0.0
  0
LINE
  5
1F0
100
AcDbEntity
100
AcDbLine
  8
FORT
 62
7
370
-1
  6
CONTINUOUS
 10
95.0
 20
219.6679139999999961
 30
0.0
 11
102.0482449999999943
 21
219.6679139999999961
 31
0.0
  0
LWPOLYLINE
  5
1F1
  8
HACHURE
 62
5
370
-1
  6
CONTINUOUS
100
AcDbEntity
100
AcDbPolyline
 90
4
 70
1
 10
93.0
 20
222.6679139999999961
 10
89.0
 20
222.6679139999999961
 10
89.0
 20
215.6679139999999961
 10
93.0
 20
215.6679139999999961
  0
INSERT
  5
1F2
100
AcDbEntity
100
AcDbBlockReference
  8
HACHURE
 62
256
370
-1
  6
ByLayer
  2
DESENS-G9
 10
0.0
 20
0.0
 30
0.0
  0
CIRCLE
  5
1F3
100
AcDbEntity
100
AcDbCircle
  8
FORT
 62
7
370
-1
  6
CONTINUOUS
 10
96.3045489999999944
 20
217.4137519999999881
 30
0.0
 40
0.25
  0
CIRCLE
  5
1F4
100
AcDbEntity
100
AcDbCircle
  8
FORT
 62
7
370
-1
  6
CONTINUOUS
 10
91.9486150000000038
 20
213.8214269999999999
 30
0.0
 40
0.25
  0
LINE
  5
1F5
100
AcDbEntity
100
AcDbLine
  8
FORT
 62
7
370
-1
  6
CONTINUOUS
 10
110.0
 20
220.6679139999999961
 30
0.0
 11
110.0
 21
222.6679139999999961
 31
0.0
  0
CIRCLE
  5
1F6
100
AcDbEntity
100
AcDbCircle
  8
FORT
 62
7
370
-1
  6
CONTINUOUS
 10
107.5
 20
220.7393419999999935
 30
0.0
 40
0.5
  0
CIRCLE
  5
1F7
100
AcDbEntity
100
AcDbCircle
  8
FORT
 62
7
370
-1
  6
CONTINUOUS
 10
107.5
 20
218.1679139999999961
 30
0.0
 40
0.5
  0
LINE
  5
1F8
100
AcDbEntity
100
AcDbLine
  8
FORT
 62
7
370
-1
  6
CONTINUOUS
 10
107.0077050000000014
 20
222.6679139999999961
 30
0.0
 11
111.0
 21
222.6679139999999961
 31
0.0
  0
LINE
  5
1F9
100
AcDbEntity
100
AcDbLine
  8
FORT
 62
7
370
-1
  6
CONTINUOUS
 10
108.75
 20
217.6679139999999961
 30
0.0
 11
108.75
 21
219.6679139999999961
 31
0.0
  0
CIRCLE
  5
1FA
100
AcDbEntity
100
AcDbCircle
  8
FORT
 62
7
370
-1
  6
CONTINUOUS
 10
107.5
 20
223.3107699999999909
 30
0.0
 40
0.5
  0
LINE
  5
1FB
100
AcDbEntity
100
AcDbLine
  8
FORT
 62
7
370
-1
  6
CONTINUOUS
 10
95.0
 20
208.6679139999999961
 30
0.0
 11
95.0
 21
211.6679139999999961
 31
0.0
  0
LINE
  5
1FC
100
AcDbEntity
100
AcDbLine
  8
FIN
 62
5
370
-1
  6
CONTINUOUS
 10
94.7999999999999972
 20
247.6675730000000044
 30
0.0
 11
94.7999999999999972
 21
263.6675109999999904
 31
0.0
  0
LINE
  5
1FD
100
AcDbEntity
100
AcDbLine
  8
FIN
 62
5
370
-1
  6
CONTINUOUS
 10
99.2000000000000028
 20
247.6675730000000044
 30
0.0
 11
99.2000000000000028
 21
263.6675109999999904
 31
0.0
  0
LINE
  5
1FE
100
AcDbEntity
100
AcDbLine
  8
FORT
 62
7
370
-1
  6
CONTINUOUS
 10
94.0
 20
248.4675729999999874
 30
0.0
 11
94.0
 21
263.6675109999999904
 31
0.0
  0
LINE
  5
1FF
100
AcDbEntity
100
AcDbLine
  8
FORT
 62
7
370
-1
  6
CONTINUOUS
 10
100.0
 20
248.4675729999999874
 30
0.0
 11
100.0
 21
263.6675109999999904
 31
0.0
  0
LINE
  5
200
100
AcDbEntity
100
AcDbLine
  8
FIN
 62
5
370
-1
  6
CONTINUOUS
 10
110.7999999999999972
 20
247.6675730000000044
 30
0.0
 11
110.7999999999999972
 21
263.6675109999999904
 31
0.0
  0
LINE
  5
201
100
AcDbEntity
100
AcDbLine
  8
FORT
 62
7
370
-1
  6
CONTINUOUS
 10
110.0
 20
248.4675729999999874
 30
0.0
 11
110.0
 21
263.6675109999999904
 31
0.0
  0
LINE
  5
202
100
AcDbEntity
100
AcDbLine
  8
FIN
 62
5
370
-1
  6
CONTINUOUS
 10
87.0
 20
267.6679139999999961
 30
0.0
 11
87.0
 21
261.6679139999999961
 31
0.0
  0
LINE
  5
203
100
AcDbEntity
100
AcDbLine
  8
FIN
 62
5
370
-1
  6
CONTINUOUS
 10
79.0
 20
267.6679139999999961
 30
0.0
 11
79.0
 21
261.6679139999999961
 31
0.0
  0
LINE
  5
204
100
AcDbEntity
100
AcDbLine
  8
FORT
 62
7
370
-1
  6
CONTINUOUS
 10
102.375479999999996
 20
225.0807320000000118
 30
0.0
 11
107.375479999999996
 21
226.3664440000000013
 31
0.0
  0
LINE
  5
205
100
AcDbEntity
100
AcDbLine
  8
FORT
 62
7
370
-1
  6
CONTINUOUS
 10
102.624520000000004
 20
226.683667000000014
 30
0.0
 11
106.4521519999999981
 21
227.6679139999999961
 31
0.0
  0
LINE
  5
206
100
AcDbEntity
100
AcDbLine
  8
FORT
 62
7
370
-1
  6
CONTINUOUS
 10
101.25
 20
227.6679139999999961
 30
0.0
 11
108.7636830000000003
 21
227.6679139999999961
 31
0.0
  0
LINE
  5
207
100
AcDbEntity
100
AcDbLine
  8
FORT
 62
7
370
-1
  6
CONTINUOUS
 10
103.0
 20
251.6679139999999961
 30
0.0
 11
107.0
 21
251.6679139999999961
 31
0.0
  0
LINE
  5
208
100
AcDbEntity
100
AcDbLine
  8
FORT
 62
7
370
-1
  6
CONTINUOUS
 10
77.287187000000003
 20
250.6028300000000115
 30
0.0
 11
81.0
 21
251.6679139999999961
 31
0.0
  0
LINE
  5
209
100
AcDbEntity
100
AcDbLine
  8
FIN
 62
5
370
-1
  6
CONTINUOUS
 10
92.5325579999999945
 20
258.4505819999999972
 30
0.0
 11
60.0
 21
250.0
 31
0.0
  0
LINE
  5
20A
100
AcDbEntity
100
AcDbLine
  8
FIN
 62
5
370
-1
  6
CONTINUOUS
 10
92.1011309999999952
 20
227.3143709999999942
 30
0.0
 11
60.0
 21
235.0
 31
0.0
  0
LINE
  5
20B
100
AcDbEntity
100
AcDbLine
  8
FORT
 62
7
370
-1
  6
CONTINUOUS
 10
103.0
 20
261.6679139999999961
 30
0.0
 11
103.0
 21
229.6679139999999961
 31
0.0
  0
LINE
  5
20C
100
AcDbEntity
100
AcDbLine
  8
FORT
 62
7
370
-1
  6
CONTINUOUS
 10
91.0
 20
261.6679139999999961
 30
0.0
 11
91.0
 21
229.6679139999999961
 31
0.0
  0
LINE
  5
20D
100
AcDbEntity
100
AcDbLine
  8
FORT
 62
7
370
-1
  6
CONTINUOUS
 10
87.0
 20
226.6679139999999961
 30
0.0
 11
87.0
 21
243.6679139999999961
 31
0.0
  0
CIRCLE
  5
20E
100
AcDbEntity
100
AcDbCircle
  8
FORT
 62
7
370
-1
  6
CONTINUOUS
 10
102.5
 20
227.1679139999999961
 30
0.0
 40
0.5
  0
LINE
  5
20F
100
AcDbEntity
100
AcDbLine
  8
FORT
 62
7
370
-1
  6
CONTINUOUS
 10
95.0
 20
229.6679139999999961
 30
0.0
 11
91.0
 21
229.6679139999999961
 31
0.0
  0
LINE
  5
210
100
AcDbEntity
100
AcDbLine
  8
FORT
 62
7
370
-1
  6
CONTINUOUS
 10
103.0
 20
229.6679139999999961
 30
0.0
 11
99.0
 21
229.6679139999999961
 31
0.0
  0
LINE
  5
211
100
AcDbEntity
100
AcDbLine
  8
FORT
 62
7
370
-1
  6
CONTINUOUS
 10
81.0
 20
251.6679139999999961
 30
0.0
 11
91.0
 21
251.6679139999999961
 31
0.0
  0
LINE
  5
212
100
AcDbEntity
100
AcDbLine
  8
FORT
 62
7
370
-1
  6
CONTINUOUS
 10
94.7999999999999972
 20
238.8160530000000108
 30
0.0
 11
94.7999999999999972
 21
247.6675730000000044
 31
0.0
  0
LINE
  5
213
100
AcDbEntity
100
AcDbLine
  8
FORT
 62
7
370
-1
  6
CONTINUOUS
 10
99.2000000000000028
 20
238.8160530000000108
 30
0.0
 11
99.2000000000000028
 21
247.6675730000000044
 31
0.0
  0
LINE
  5
214
100
AcDbEntity
100
AcDbLine
  8
FORT
 62
7
370
-1
  6
CONTINUOUS
 10
94.0
 20
248.4675729999999874
 30
0.0
 11
94.7999999999999972
 21
247.6675730000000044
 31
0.0
  0
LINE
  5
215
100
AcDbEntity
100
AcDbLine
  8
FORT
 62
7
370
-1
  6
CONTINUOUS
 10
100.0
 20
248.4675729999999874
 30
0.0
 11
99.2000000000000028
 21
247.6675730000000044
 31
0.0
  0
LINE
  5
216
100
AcDbEntity
100
AcDbLine
  8
FORT
 62
7
370
-1
  6
CONTINUOUS
 10
94.7999999999999972
 20
238.8160530000000108
 30
0.0
 11
97.0
 21
237.5458830000000034
 31
0.0
  0
LINE
  5
217
100
AcDbEntity
100
AcDbLine
  8
FORT
 62
7
370
-1
  6
CONTINUOUS
 10
99.2000000000000028
 20
238.8160530000000108
 30
0.0
 11
97.0
 21
237.5458830000000034
 31
0.0
  0
LINE
  5
218
100
AcDbEntity
100
AcDbLine
  8
FIN
 62
5
370
-1
  6
CONTINUOUS
 10
94.0
 20
243.1021340000000066
 30
0.0
 11
94.0
 21
248.4675729999999874
 31
0.0
  0
LINE
  5
219
100
AcDbEntity
100
AcDbLine
  8
FIN
 62
5
370
-1
  6
CONTINUOUS
 10
100.0
 20
248.4675729999999874
 30
0.0
 11
100.0
 21
243.1021340000000066
 31
0.0
  0
LINE
  5
21A
100
AcDbEntity
100
AcDbLine
  8
FORT
 62
7
370
-1
  6
CONTINUOUS
 10
85.0
 20
245.6679139999999961
 30
0.0
 11
85.0
 21
251.6679139999999961
 31
0.0
  0
LINE
  5
21B
100
AcDbEntity
100
AcDbLine
  8
FORT
 62
7
370
-1
  6
CONTINUOUS
 10
84.0
 20
245.6679139999999961
 30
0.0
 11
84.0
 21
251.6679139999999961
 31
0.0
  0
LINE
  5
21C
100
AcDbEntity
100
AcDbLine
  8
FIN
 62
5
370
-1
  6
CONTINUOUS
 10
87.0
 20
243.6679139999999961
 30
0.0
 11
87.0
 21
245.6679139999999961
 31
0.0
  0
LINE
  5
21D
100
AcDbEntity
100
AcDbLine
  8
FORT
 62
7
370
-1
  6
CONTINUOUS
 10
94.0
 20
248.4675729999999874
 30
0.0
 11
100.0
 21
248.4675729999999874
 31
0.0
  0
LINE
  5
21E
100
AcDbEntity
100
AcDbLine
  8
FORT
 62
7
370
-1
  6
CONTINUOUS
 10
94.7999999999999972
 20
247.6675730000000044
 30
0.0
 11
99.2000000000000028
 21
247.6675730000000044
 31
0.0
  0
LINE
  5
21F
100
AcDbEntity
100
AcDbLine
  8
FORT
 62
7
370
-1
  6
CONTINUOUS
 10
94.0
 20
243.1021340000000066
 30
0.0
 11
100.0
 21
243.1021340000000066
 31
0.0
  0
LINE
  5
220
100
AcDbEntity
100
AcDbLine
  8
FORT
 62
7
370
-1
  6
CONTINUOUS
 10
94.7999999999999972
 20
238.8160530000000108
 30
0.0
 11
99.2000000000000028
 21
238.8160530000000108
 31
0.0
  0
LINE
  5
221
100
AcDbEntity
100
AcDbLine
  8
FORT
 62
7
370
-1
  6
CONTINUOUS
 10
89.0
 20
243.6679139999999961
 30
0.0
 11
89.0
 21
245.6679139999999961
 31
0.0
  0
LINE
  5
222
100
AcDbEntity
100
AcDbLine
  8
FORT
 62
7
370
-1
  6
CONTINUOUS
 10
87.0
 20
243.6679139999999961
 30
0.0
 11
89.0
 21
243.6679139999999961
 31
0.0
  0
LINE
  5
223
100
AcDbEntity
100
AcDbLine
  8
FORT
 62
7
370
-1
  6
CONTINUOUS
 10
84.0
 20
245.6679139999999961
 30
0.0
 11
89.0
 21
245.6679139999999961
 31
0.0
  0
CIRCLE
  5
224
100
AcDbEntity
100
AcDbCircle
  8
FORT
 62
7
370
-1
  6
CONTINUOUS
 10
92.5325579999999945
 20
258.4505819999999972
 30
0.0
 40
0.25
  0
CIRCLE
  5
225
100
AcDbEntity
100
AcDbCircle
  8
FORT
 62
7
370
-1
  6
CONTINUOUS
 10
92.1011309999999952
 20
227.3143709999999942
 30
0.0
 40
0.25
  0
LINE
  5
226
100
AcDbEntity
100
AcDbLine
  8
FORT
 62
7
370
-1
  6
CONTINUOUS
 10
91.0
 20
261.6679139999999961
 30
0.0
 11
94.0
 21
261.6679139999999961
 31
0.0
  0
LINE
  5
227
100
AcDbEntity
100
AcDbLine
  8
FORT
 62
7
370
-1
  6
CONTINUOUS
 10
100.0
 20
261.6679139999999961
 30
0.0
 11
103.0
 21
261.6679139999999961
 31
0.0
  0
LINE
  5
228
100
AcDbEntity
100
AcDbLine
  8
FORT
 62
7
370
-1
  6
CONTINUOUS
 10
107.0
 20
229.6679139999999961
 30
0.0
 11
107.0
 21
261.6679139999999961
 31
0.0
  0
CIRCLE
  5
229
100
AcDbEntity
100
AcDbCircle
  8
FORT
 62
7
370
-1
  6
CONTINUOUS
 10
107.5
 20
225.8821979999999883
 30
0.0
 40
0.5
  0
LINE
  5
22A
100
AcDbEntity
100
AcDbLine
  8
FORT
 62
7
370
-1
  6
CONTINUOUS
 10
107.0
 20
229.6679139999999961
 30
0.0
 11
111.0
 21
229.6679139999999961
 31
0.0
  0
LINE
  5
22B
100
AcDbEntity
100
AcDbLine
  8
FIN
 62
5
370
-1
  6
CONTINUOUS
 10
110.0
 20
248.4675729999999874
 30
0.0
 11
110.0
 21
243.1021340000000066
 31
0.0
  0
LINE
  5
22C
100
AcDbEntity
100
AcDbLine
  8
FORT
 62
7
370
-1
  6
CONTINUOUS
 10
110.7999999999999972
 20
238.8160530000000108
 30
0.0
 11
110.7999999999999972
 21
247.6675730000000044
 31
0.0
  0
LINE
  5
22D
100
AcDbEntity
100
AcDbLine
  8
FORT
 62
7
370
-1
  6
CONTINUOUS
 10
110.0
 20
248.4675729999999874
 30
0.0
 11
110.7999999999999972
 21
247.6675730000000044
 31
0.0
  0
CIRCLE
  5
22E
100
AcDbEntity
100
AcDbCircle
  8
FORT
 62
7
370
-1
  6
CONTINUOUS
 10
107.5
 20
225.8821979999999883
 30
0.0
 40
0.25
  0
LINE
  5
22F
100
AcDbEntity
100
AcDbLine
  8
FORT
 62
7
370
-1
  6
CONTINUOUS
 10
107.0
 20
261.6679139999999961
 30
0.0
 11
110.0
 21
261.6679139999999961
 31
0.0
  0
LINE
  5
230
100
AcDbEntity
100
AcDbLine
  8
FIN
 62
5
370
-1
  6
CONTINUOUS
 10
79.0
 20
261.6679139999999961
 30
0.0
 11
91.0
 21
261.6679139999999961
 31
0.0
  0
LINE
  5
231
100
AcDbEntity
100
AcDbLine
  8
FORT
 62
7
370
-1
  6
CONTINUOUS
 10
91.0
 20
263.6675109999999904
 30
0.0
 11
91.0
 21
266.1675109999999904
 31
0.0
  0
LINE
  5
232
100
AcDbEntity
100
AcDbLine
  8
FORT
 62
7
370
-1
  6
CONTINUOUS
 10
103.0
 20
266.1675109999999904
 30
0.0
 11
103.0
 21
263.6675109999999904
 31
0.0
  0
LINE
  5
233
100
AcDbEntity
100
AcDbLine
  8
FORT
 62
7
370
-1
  6
CONTINUOUS
 10
91.0
 20
263.6675109999999904
 30
0.0
 11
103.0
 21
263.6675109999999904
 31
0.0
  0
LINE
  5
234
100
AcDbEntity
100
AcDbLine
  8
FORT
 62
7
370
-1
  6
CONTINUOUS
 10
96.0
 20
265.6675109999999904
 30
0.0
 11
96.0
 21
267.6675109999999904
 31
0.0
  0
LINE
  5
235
100
AcDbEntity
100
AcDbLine
  8
FORT
 62
7
370
-1
  6
CONTINUOUS
 10
98.0
 20
267.6675109999999904
 30
0.0
 11
98.0
 21
265.6675109999999904
 31
0.0
  0
ARC
  5
236
100
AcDbEntity
  8
FORT
 62
7
370
-1
  6
CONTINUOUS
100
AcDbCircle
 10
92.5
 20
266.1675109999999904
 30
0.0
 40
1.5
100
AcDbArc
 50
90.0
 51
180.0
  0
ARC
  5
237
100
AcDbEntity
  8
FORT
 62
7
370
-1
  6
CONTINUOUS
100
AcDbCircle
 10
101.5
 20
266.1675109999999904
 30
0.0
 40
1.5
100
AcDbArc
 50
0.0
 51
90.0
  0
LINE
  5
238
100
AcDbEntity
100
AcDbLine
  8
FORT
 62
7
370
-1
  6
CONTINUOUS
 10
96.0
 20
265.6675109999999904
 30
0.0
 11
98.0
 21
265.6675109999999904
 31
0.0
  0
LINE
  5
239
100
AcDbEntity
100
AcDbLine
  8
FORT
 62
7
370
-1
  6
CONTINUOUS
 10
92.5
 20
267.6675109999999904
 30
0.0
 11
96.0
 21
267.6675109999999904
 31
0.0
  0
LINE
  5
23A
100
AcDbEntity
100
AcDbLine
  8
FORT
 62
7
370
-1
  6
CONTINUOUS
 10
98.0
 20
267.6675109999999904
 30
0.0
 11
101.5
 21
267.6675109999999904
 31
0.0
  0
LINE
  5
23B
100
AcDbEntity
100
AcDbLine
  8
FORT
 62
7
370
-1
  6
CONTINUOUS
 10
107.0
 20
266.1675109999999904
 30
0.0
 11
107.0
 21
263.6675109999999904
 31
0.0
  0
LINE
  5
23C
100
AcDbEntity
100
AcDbLine
  8
FORT
 62
7
370
-1
  6
CONTINUOUS
 10
112.0
 20
267.6675109999999904
 30
0.0
 11
112.0
 21
265.6675109999999904
 31
0.0
  0
ARC
  5
23D
100
AcDbEntity
  8
FORT
 62
7
370
-1
  6
CONTINUOUS
100
AcDbCircle
 10
108.5
 20
266.1675109999999904
 30
0.0
 40
1.5
100
AcDbArc
 50
90.0
 51
180.0
  0
LINE
  5
23E
100
AcDbEntity
100
AcDbLine
  8
FORT
 62
7
370
-1
  6
CONTINUOUS
 10
112.0
 20
267.6675109999999904
 30
0.0
 11
108.5
 21
267.6675109999999904
 31
0.0
  0
LINE
  5
23F
100
AcDbEntity
100
AcDbLine
  8
FIN
 62
5
370
-1
  6
CONTINUOUS
 10
87.0
 20
263.6675109999999904
 30
0.0
 11
91.0
 21
263.6675109999999904
 31
0.0
  0
LINE
  5
240
100
AcDbEntity
100
AcDbLine
  8
FIN
 62
5
370
-1
  6
CONTINUOUS
 10
79.0
 20
267.6679139999999961
 30
0.0
 11
87.0
 21
267.6679139999999961
 31
0.0
  0
LINE
  5
241
100
AcDbEntity
100
AcDbLine
  8
FORT
 62
7
370
-1
  6
CONTINUOUS
 10
115.0
 20
222.6679139999999961
 30
0.0
 11
115.0
 21
229.6679139999999961
 31
0.0
  0
LINE
  5
242
100
AcDbEntity
100
AcDbLine
  8
FORT
 62
7
370
-1
  6
CONTINUOUS
 10
132.7128130000000112
 20
250.6028300000000115
 30
0.0
 11
132.7128130000000112
 21
205.6679139999999961
 31
0.0
  0
LINE
  5
243
100
AcDbEntity
100
AcDbLine
  8
FIN
 62
5
370
-1
  6
CONTINUOUS
 10
123.0
 20
221.6679139999999961
 30
0.0
 11
123.0
 21
226.6679139999999961
 31
0.0
  0
LWPOLYLINE
  5
244
  8
HACHURE
 62
5
370
-1
  6
CONTINUOUS
100
AcDbEntity
100
AcDbPolyline
 90
12
 70
1
 10
123.0
 20
243.6679139999999961
 10
121.0
 20
243.6679139999999961
 10
121.0
 20
245.6679139999999961
 10
125.0
 20
245.6679139999999961
 10
125.0
 20
251.6679139999999961
 10
119.0
 20
251.6679139999999961
 10
119.0
 20
229.6679139999999961
 10
115.0
 20
229.6679139999999961
 10
115.0
 20
222.6679139999999961
 10
121.0
 20
222.6679139999999961
 10
121.0
 20
224.6679139999999961
 10
123.0
 20
226.6679139999999961
  0
INSERT
  5
245
100
AcDbEntity
100
AcDbBlockReference
  8
HACHURE
 62
256
370
-1
  6
ByLayer
  2
DESENS-G10
 10
0.0
 20
0.0
 30
0.0
  0
LINE
  5
246
100
AcDbEntity
100
AcDbLine
  8
FIN
 62
5
370
-1
  6
CONTINUOUS
 10
121.0
 20
243.6679139999999961
 30
0.0
 11
121.0
 21
224.6679139999999961
 31
0.0
  0
LINE
  5
247
100
AcDbEntity
100
AcDbLine
  8
FORT
 62
7
370
-1
  6
CONTINUOUS
 10
123.0
 20
226.6679139999999961
 30
0.0
 11
121.0
 21
224.6679139999999961
 31
0.0
  0
LINE
  5
248
100
AcDbEntity
100
AcDbLine
  8
FIN
 62
5
370
-1
  6
CONTINUOUS
 10
113.4000000000000057
 20
183.6679139999999961
 30
0.0
 11
113.4000000000000057
 21
198.6679139999999961
 31
0.0
  0
LINE
  5
249
100
AcDbEntity
100
AcDbLine
  8
FORT
 62
7
370
-1
  6
CONTINUOUS
 10
115.0
 20
185.2679139999999904
 30
0.0
 11
115.0
 21
202.6679139999999961
 31
0.0
  0
LINE
  5
24A
100
AcDbEntity
100
AcDbLine
  8
FORT
 62
7
370
-1
  6
CONTINUOUS
 10
113.4000000000000057
 20
183.6679139999999961
 30
0.0
 11
115.0
 21
185.2679139999999904
 31
0.0
  0
LINE
  5
24B
100
AcDbEntity
100
AcDbLine
  8
FORT
 62
7
370
-1
  6
CONTINUOUS
 10
121.0
 20
211.6679139999999961
 30
0.0
 11
121.0
 21
224.6679139999999961
 31
0.0
  0
LINE
  5
24C
100
AcDbEntity
100
AcDbLine
  8
FORT
 62
7
370
-1
  6
CONTINUOUS
 10
118.0
 20
205.6679139999999961
 30
0.0
 11
132.7128130000000112
 21
205.6679139999999961
 31
0.0
  0
LINE
  5
24D
100
AcDbEntity
100
AcDbLine
  8
FIN
 62
5
370
-1
  6
CONTINUOUS
 10
119.0808210000000003
 20
218.7803289999999947
 30
0.0
 11
150.0
 21
205.0
 31
0.0
  0
LINE
  5
24E
100
AcDbEntity
100
AcDbLine
  8
FORT
 62
7
370
-1
  6
CONTINUOUS
 10
121.0
 20
222.6679139999999961
 30
0.0
 11
115.0
 21
222.6679139999999961
 31
0.0
  0
LINE
  5
24F
100
AcDbEntity
100
AcDbLine
  8
FORT
 62
7
370
-1
  6
CONTINUOUS
 10
116.0
 20
215.6679139999999961
 30
0.0
 11
116.0
 21
218.6679139999999961
 31
0.0
  0
LINE
  5
250
100
AcDbEntity
100
AcDbLine
  8
FORT
 62
7
370
-1
  6
CONTINUOUS
 10
117.0
 20
215.6679139999999961
 30
0.0
 11
117.0
 21
222.6679139999999961
 31
0.0
  0
ARC
  5
251
100
AcDbEntity
  8
FORT
 62
7
370
-1
  6
CONTINUOUS
100
AcDbCircle
 10
118.0
 20
202.6679139999999961
 30
0.0
 40
3.0
100
AcDbArc
 50
90.0
 51
180.0
  0
LINE
  5
252
100
AcDbEntity
100
AcDbLine
  8
FORT
 62
7
370
-1
  6
CONTINUOUS
 10
115.0
 20
219.6679139999999961
 30
0.0
 11
116.0
 21
218.6679139999999961
 31
0.0
  0
LINE
  5
253
100
AcDbEntity
100
AcDbLine
  8
FORT
 62
7
370
-1
  6
CONTINUOUS
 10
116.0
 20
220.6679139999999961
 30
0.0
 11
116.0
 21
222.6679139999999961
 31
0.0
  0
LINE
  5
254
100
AcDbEntity
100
AcDbLine
  8
FORT
 62
7
370
-1
  6
CONTINUOUS
 10
123.0
 20
221.6679139999999961
 30
0.0
 11
121.0
 21
221.6679139999999961
 31
0.0
  0
LWPOLYLINE
  5
255
  8
HACHURE
 62
5
370
-1
  6
CONTINUOUS
100
AcDbEntity
100
AcDbPolyline
 90
4
 70
1
 10
121.0
 20
222.6679139999999961
 10
117.0
 20
222.6679139999999961
 10
117.0
 20
215.6679139999999961
 10
121.0
 20
215.6679139999999961
  0
INSERT
  5
256
100
AcDbEntity
100
AcDbBlockReference
  8
HACHURE
 62
256
370
-1
  6
ByLayer
  2
DESENS-G11
 10
0.0
 20
0.0
 30
0.0
  0
CIRCLE
  5
257
100
AcDbEntity
100
AcDbCircle
  8
FORT
 62
7
370
-1
  6
CONTINUOUS
 10
119.0808210000000003
 20
218.7803289999999947
 30
0.0
 40
0.25
  0
LINE
  5
258
100
AcDbEntity
100
AcDbLine
  8
FORT
 62
7
370
-1
  6
CONTINUOUS
 10
115.0
 20
211.6679139999999961
 30
0.0
 11
115.0
 21
208.6679139999999961
 31
0.0
  0
LINE
  5
259
100
AcDbEntity
100
AcDbLine
  8
FIN
 62
5
370
-1
  6
CONTINUOUS
 10
115.2000000000000028
 20
247.6675730000000044
 30
0.0
 11
115.2000000000000028
 21
263.6675109999999904
 31
0.0
  0
LINE
  5
25A
100
AcDbEntity
100
AcDbLine
  8
FORT
 62
7
370
-1
  6
CONTINUOUS
 10
116.0
 20
248.4675729999999874
 30
0.0
 11
116.0
 21
263.6675109999999904
 31
0.0
  0
LINE
  5
25B
100
AcDbEntity
100
AcDbLine
  8
FIN
 62
5
370
-1
  6
CONTINUOUS
 10
123.0
 20
267.6679139999999961
 30
0.0
 11
123.0
 21
261.6679139999999961
 31
0.0
  0
LINE
  5
25C
100
AcDbEntity
100
AcDbLine
  8
FIN
 62
5
370
-1
  6
CONTINUOUS
 10
131.0
 20
267.6679139999999961
 30
0.0
 11
131.0
 21
261.6679139999999961
 31
0.0
  0
LINE
  5
25D
100
AcDbEntity
100
AcDbLine
  8
FORT
 62
7
370
-1
  6
CONTINUOUS
 10
129.0
 20
251.6679139999999961
 30
0.0
 11
132.7128130000000112
 21
250.6028300000000115
 31
0.0
  0
LINE
  5
25E
100
AcDbEntity
100
AcDbLine
  8
FIN
 62
5
370
-1
  6
CONTINUOUS
 10
114.0263199999999983
 20
258.1759809999999788
 30
0.0
 11
150.0
 21
250.0
 31
0.0
  0
LINE
  5
25F
100
AcDbEntity
100
AcDbLine
  8
FIN
 62
5
370
-1
  6
CONTINUOUS
 10
150.0
 20
235.0
 30
0.0
 11
127.8955339999999978
 21
237.229108999999994
 31
0.0
  0
LINE
  5
260
100
AcDbEntity
100
AcDbLine
  8
FORT
 62
7
370
-1
  6
CONTINUOUS
 10
119.0
 20
261.6679139999999961
 30
0.0
 11
119.0
 21
229.6679139999999961
 31
0.0
  0
LINE
  5
261
100
AcDbEntity
100
AcDbLine
  8
FORT
 62
7
370
-1
  6
CONTINUOUS
 10
119.0
 20
251.6679139999999961
 30
0.0
 11
129.0
 21
251.6679139999999961
 31
0.0
  0
LINE
  5
262
100
AcDbEntity
100
AcDbLine
  8
FORT
 62
7
370
-1
  6
CONTINUOUS
 10
115.0
 20
229.6679139999999961
 30
0.0
 11
119.0
 21
229.6679139999999961
 31
0.0
  0
LINE
  5
263
100
AcDbEntity
100
AcDbLine
  8
FORT
 62
7
370
-1
  6
CONTINUOUS
 10
115.2000000000000028
 20
238.8160530000000108
 30
0.0
 11
115.2000000000000028
 21
247.6675730000000044
 31
0.0
  0
LINE
  5
264
100
AcDbEntity
100
AcDbLine
  8
FORT
 62
7
370
-1
  6
CONTINUOUS
 10
116.0
 20
248.4675729999999874
 30
0.0
 11
115.2000000000000028
 21
247.6675730000000044
 31
0.0
  0
LINE
  5
265
100
AcDbEntity
100
AcDbLine
  8
FORT
 62
7
370
-1
  6
CONTINUOUS
 10
115.2000000000000028
 20
238.8160530000000108
 30
0.0
 11
113.0
 21
237.5458830000000034
 31
0.0
  0
LINE
  5
266
100
AcDbEntity
100
AcDbLine
  8
FIN
 62
5
370
-1
  6
CONTINUOUS
 10
116.0
 20
243.1021340000000066
 30
0.0
 11
116.0
 21
248.4675729999999874
 31
0.0
  0
LINE
  5
267
100
AcDbEntity
100
AcDbLine
  8
FORT
 62
7
370
-1
  6
CONTINUOUS
 10
123.0
 20
226.6679139999999961
 30
0.0
 11
123.0
 21
243.6679139999999961
 31
0.0
  0
LINE
  5
268
100
AcDbEntity
100
AcDbLine
  8
FORT
 62
7
370
-1
  6
CONTINUOUS
 10
125.0
 20
245.6679139999999961
 30
0.0
 11
125.0
 21
251.6679139999999961
 31
0.0
  0
LINE
  5
269
100
AcDbEntity
100
AcDbLine
  8
FORT
 62
7
370
-1
  6
CONTINUOUS
 10
126.0
 20
245.6679139999999961
 30
0.0
 11
126.0
 21
251.6679139999999961
 31
0.0
  0
LINE
  5
26A
100
AcDbEntity
100
AcDbLine
  8
FIN
 62
5
370
-1
  6
CONTINUOUS
 10
123.0
 20
243.6679139999999961
 30
0.0
 11
123.0
 21
245.6679139999999961
 31
0.0
  0
LINE
  5
26B
100
AcDbEntity
100
AcDbLine
  8
FORT
 62
7
370
-1
  6
CONTINUOUS
 10
121.0
 20
245.6679139999999961
 30
0.0
 11
126.0
 21
245.6679139999999961
 31
0.0
  0
LINE
  5
26C
100
AcDbEntity
100
AcDbLine
  8
FORT
 62
7
370
-1
  6
CONTINUOUS
 10
121.0
 20
243.6679139999999961
 30
0.0
 11
123.0
 21
243.6679139999999961
 31
0.0
  0
LINE
  5
26D
100
AcDbEntity
100
AcDbLine
  8
FORT
 62
7
370
-1
  6
CONTINUOUS
 10
121.0
 20
243.6679139999999961
 30
0.0
 11
121.0
 21
245.6679139999999961
 31
0.0
  0
CIRCLE
  5
26E
100
AcDbEntity
100
AcDbCircle
  8
FORT
 62
7
370
-1
  6
CONTINUOUS
 10
114.0263199999999983
 20
258.1759809999999788
 30
0.0
 40
0.25
  0
CIRCLE
  5
26F
100
AcDbEntity
100
AcDbCircle
  8
FORT
 62
7
370
-1
  6
CONTINUOUS
 10
127.8955339999999978
 20
237.229108999999994
 30
0.0
 40
0.25
  0
LINE
  5
270
100
AcDbEntity
100
AcDbLine
  8
FORT
 62
7
370
-1
  6
CONTINUOUS
 10
116.0
 20
261.6679139999999961
 30
0.0
 11
119.0
 21
261.6679139999999961
 31
0.0
  0
LINE
  5
271
100
AcDbEntity
100
AcDbLine
  8
FIN
 62
5
370
-1
  6
CONTINUOUS
 10
131.0
 20
261.6679139999999961
 30
0.0
 11
119.0
 21
261.6679139999999961
 31
0.0
  0
LINE
  5
272
100
AcDbEntity
100
AcDbLine
  8
FORT
 62
7
370
-1
  6
CONTINUOUS
 10
119.0
 20
263.6675109999999904
 30
0.0
 11
119.0
 21
266.1675109999999904
 31
0.0
  0
LINE
  5
273
100
AcDbEntity
100
AcDbLine
  8
FORT
 62
7
370
-1
  6
CONTINUOUS
 10
114.0
 20
265.6675109999999904
 30
0.0
 11
114.0
 21
267.6675109999999904
 31
0.0
  0
ARC
  5
274
100
AcDbEntity
  8
FORT
 62
7
370
-1
  6
CONTINUOUS
100
AcDbCircle
 10
117.5
 20
266.1675109999999904
 30
0.0
 40
1.5
100
AcDbArc
 50
0.0
 51
90.0
  0
LINE
  5
275
100
AcDbEntity
100
AcDbLine
  8
FORT
 62
7
370
-1
  6
CONTINUOUS
 10
117.5
 20
267.6675109999999904
 30
0.0
 11
114.0
 21
267.6675109999999904
 31
0.0
  0
LINE
  5
276
100
AcDbEntity
100
AcDbLine
  8
FIN
 62
5
370
-1
  6
CONTINUOUS
 10
123.0
 20
263.6675109999999904
 30
0.0
 11
119.0
 21
263.6675109999999904
 31
0.0
  0
LINE
  5
277
100
AcDbEntity
100
AcDbLine
  8
FIN
 62
5
370
-1
  6
CONTINUOUS
 10
131.0
 20
267.6679139999999961
 30
0.0
 11
123.0
 21
267.6679139999999961
 31
0.0
  0
LINE
  5
278
100
AcDbEntity
100
AcDbLine
  8
FORT
 62
7
370
-1
  6
CONTINUOUS
 10
10.0
 20
41.0
 30
0.0
 11
10.0
 21
287.0
 31
0.0
  0
LINE
  5
279
100
AcDbEntity
100
AcDbLine
  8
FORT
 62
256
370
70
  6
ByLayer
 10
10.0
 20
41.0
 30
0.0
 11
10.0
 21
10.0
 31
0.0
  0
LINE
  5
27A
100
AcDbEntity
100
AcDbLine
  8
FIN
 62
5
370
-1
  6
CONTINUOUS
 10
10.5
 20
20.5
 30
0.0
 11
200.0
 21
20.5
 31
0.0
  0
LINE
  5
27B
100
AcDbEntity
100
AcDbLine
  8
FORT
 62
256
370
70
  6
CONTINUOUS
 10
10.0
 20
41.0
 30
0.0
 11
200.0
 21
41.0
 31
0.0
  0
LINE
  5
27C
100
AcDbEntity
100
AcDbLine
  8
FORT
 62
256
370
70
  6
CONTINUOUS
 10
10.0
 20
10.0
 30
0.0
 11
200.0
 21
10.0
 31
0.0
  0
LINE
  5
27D
100
AcDbEntity
100
AcDbLine
  8
FORT
 62
7
370
-1
  6
CONTINUOUS
 10
200.0
 20
41.0
 30
0.0
 11
200.0
 21
287.0
 31
0.0
  0
LINE
  5
27E
100
AcDbEntity
100
AcDbLine
  8
FORT
 62
256
370
70
  6
ByLayer
 10
200.0
 20
41.0
 30
0.0
 11
200.0
 21
10.0
 31
0.0
  0
LINE
  5
27F
100
AcDbEntity
100
AcDbLine
  8
FIN
 62
256
370
-1
  6
ByLayer
 10
110.0
 20
41.0
 30
0.0
 11
110.0
 21
122.0
 31
0.0
  0
LINE
  5
280
100
AcDbEntity
100
AcDbLine
  8
FIN
 62
256
370
-1
  6
ByLayer
 10
153.0
 20
41.0
 30
0.0
 11
153.0
 21
122.0
 31
0.0
  0
LINE
  5
281
100
AcDbEntity
100
AcDbLine
  8
FIN
 62
256
370
-1
  6
ByLayer
 10
60.0
 20
205.0
 30
0.0
 11
50.0
 21
205.0
 31
0.0
  0
LINE
  5
282
100
AcDbEntity
100
AcDbLine
  8
FIN
 62
256
370
-1
  6
ByLayer
 10
60.0
 20
220.0
 30
0.0
 11
50.0
 21
220.0
 31
0.0
  0
LINE
  5
283
100
AcDbEntity
100
AcDbLine
  8
FIN
 62
256
370
-1
  6
ByLayer
 10
60.0
 20
250.0
 30
0.0
 11
50.0
 21
250.0
 31
0.0
  0
LINE
  5
284
100
AcDbEntity
100
AcDbLine
  8
FIN
 62
256
370
-1
  6
ByLayer
 10
60.0
 20
235.0
 30
0.0
 11
50.0
 21
235.0
 31
0.0
  0
LINE
  5
285
100
AcDbEntity
100
AcDbLine
  8
FIN
 62
256
370
-1
  6
ByLayer
 10
160.0
 20
205.0
 30
0.0
 11
150.0
 21
205.0
 31
0.0
  0
LINE
  5
286
100
AcDbEntity
100
AcDbLine
  8
FIN
 62
256
370
-1
  6
ByLayer
 10
160.0
 20
220.0
 30
0.0
 11
150.0
 21
220.0
 31
0.0
  0
LINE
  5
287
100
AcDbEntity
100
AcDbLine
  8
FIN
 62
256
370
-1
  6
ByLayer
 10
160.0
 20
250.0
 30
0.0
 11
150.0
 21
250.0
 31
0.0
  0
LINE
  5
288
100
AcDbEntity
100
AcDbLine
  8
FIN
 62
256
370
-1
  6
ByLayer
 10
160.0
 20
235.0
 30
0.0
 11
150.0
 21
235.0
 31
0.0
  0
MTEXT
  5
289
100
AcDbEntity
100
AcDbMText
  8
TEXTE
 62
7
370
70
  6
CONTINUOUS
 10
64.9806652669307567
 20
27.0
 30
0.0
 40
7.0
 41
100.0
 71
7
 72
2
  1
CAPTEUR\~HYDRAULIQUE
  7
ISO9
 50
0.0
 73
1
 44
1.0
  0
MTEXT
  5
28A
100
AcDbEntity
100
AcDbMText
  8
TEXTE
 62
7
370
70
  6
CONTINUOUS
 10
21.0037869999999991
 20
11.9279770000000003
 30
0.0
 40
7.0
 41
100.0
 71
7
 72
2
  1
A4
  7
ISO9
 50
0.0
 73
1
 44
1.0
  0
MTEXT
  5
28B
100
AcDbEntity
100
AcDbMText
  8
TEXTE
 62
7
370
50
  6
CONTINUOUS
 10
59.7503335932831448
 20
12.6947080000000003
 30
0.0
 40
5.0
 41
100.0
 71
7
 72
2
  1
Dessin\~d'ensemble\~et\~nomenclature
  7
ISO9
 50
0.0
 73
1
 44
1.0
  0
MTEXT
  5
28C
100
AcDbEntity
100
AcDbMText
  8
TEXTE
 62
7
370
50
  6
CONTINUOUS
 10
16.0
 20
70.0
 30
0.0
 40
5.0
 41
100.0
 71
7
 72
2
  1
3
  7
ISO9
 50
0.0
 73
1
 44
1.0
  0
MTEXT
  5
28D
100
AcDbEntity
100
AcDbMText
  8
TEXTE
 62
7
370
50
  6
CONTINUOUS
 10
12.0
 20
43.0
 30
0.0
 40
5.0
 41
100.0
 71
7
 72
2
  1
REP.
  7
ISO9
 50
0.0
 73
1
 44
1.0
  0
MTEXT
  5
28E
100
AcDbEntity
100
AcDbMText
  8
TEXTE
 62
7
370
50
  6
CONTINUOUS
 10
16.0
 20
52.0
 30
0.0
 40
5.0
 41
100.0
 71
7
 72
2
  1
1
  7
ISO9
 50
0.0
 73
1
 44
1.0
  0
MTEXT
  5
28F
100
AcDbEntity
100
AcDbMText
  8
TEXTE
 62
7
370
50
  6
CONTINUOUS
 10
16.0
 20
61.0
 30
0.0
 40
5.0
 41
100.0
 71
7
 72
2
  1
2
  7
ISO9
 50
0.0
 73
1
 44
1.0
  0
MTEXT
  5
290
100
AcDbEntity
100
AcDbMText
  8
TEXTE
 62
7
370
50
  6
CONTINUOUS
 10
57.4193939999999969
 20
43.1000000000000014
 30
0.0
 40
5.0
 41
100.0
 71
7
 72
2
  1
DESIGNATION
  7
ISO9
 50
0.0
 73
1
 44
1.0
  0
MTEXT
  5
291
100
AcDbEntity
100
AcDbMText
  8
TEXTE
 62
7
370
50
  6
CONTINUOUS
 10
16.0
 20
106.0
 30
0.0
 40
5.0
 41
100.0
 71
7
 72
2
  1
7
  7
ISO9
 50
0.0
 73
1
 44
1.0
  0
MTEXT
  5
292
100
AcDbEntity
100
AcDbMText
  8
TEXTE
 62
7
370
50
  6
CONTINUOUS
 10
16.0
 20
79.0
 30
0.0
 40
5.0
 41
100.0
 71
7
 72
2
  1
4
  7
ISO9
 50
0.0
 73
1
 44
1.0
  0
MTEXT
  5
293
100
AcDbEntity
100
AcDbMText
  8
TEXTE
 62
7
370
50
  6
CONTINUOUS
 10
16.0
 20
88.0
 30
0.0
 40
5.0
 41
100.0
 71
7
 72
2
  1
5
  7
ISO9
 50
0.0
 73
1
 44
1.0
  0
MTEXT
  5
294
100
AcDbEntity
100
AcDbMText
  8
TEXTE
 62
7
370
50
  6
CONTINUOUS
 10
16.0
 20
97.0
 30
0.0
 40
5.0
 41
100.0
 71
7
 72
2
  1
6
  7
ISO9
 50
0.0
 73
1
 44
1.0
  0
MTEXT
  5
295
100
AcDbEntity
100
AcDbMText
  8
TEXTE
 62
7
370
50
  6
CONTINUOUS
 10
16.0
 20
115.0
 30
0.0
 40
5.0
 41
100.0
 71
7
 72
2
  1
8
  7
ISO9
 50
0.0
 73
1
 44
1.0
  0
MTEXT
  5
296
100
AcDbEntity
100
AcDbMText
  8
TEXTE
 62
7
370
50
  6
CONTINUOUS
 10
113.0
 20
70.0
 30
0.0
 40
5.0
 41
100.0
 71
7
 72
2
  1
Cu\~Pb\~1
  7
ISO9
 50
0.0
 73
1
 44
1.0
  0
MTEXT
  5
297
100
AcDbEntity
100
AcDbMText
  8
TEXTE
 62
7
370
50
  6
CONTINUOUS
 10
167.0
 20
43.0
 30
0.0
 40
5.0
 41
100.0
 71
7
 72
2
  1
OBS.
  7
ISO9
 50
0.0
 73
1
 44
1.0
  0
MTEXT
  5
298
100
AcDbEntity
100
AcDbMText
  8
TEXTE
 62
7
370
50
  6
CONTINUOUS
 10
118.0
 20
43.0
 30
0.0
 40
5.0
 41
100.0
 71
7
 72
2
  1
MATIERE
  7
ISO9
 50
0.0
 73
1
 44
1.0
  0
MTEXT
  5
299
100
AcDbEntity
100
AcDbMText
  8
TEXTE
 62
7
370
50
  6
CONTINUOUS
 10
113.0
 20
52.0
 30
0.0
 40
5.0
 41
100.0
 71
7
 72
2
  1
Cu\~Pb\~1
  7
ISO9
 50
0.0
 73
1
 44
1.0
  0
MTEXT
  5
29A
100
AcDbEntity
100
AcDbMText
  8
TEXTE
 62
7
370
50
  6
CONTINUOUS
 10
113.0
 20
61.0
 30
0.0
 40
5.0
 41
100.0
 71
7
 72
2
  1
PVC
  7
ISO9
 50
0.0
 73
1
 44
1.0
  0
MTEXT
  5
29B
100
AcDbEntity
100
AcDbMText
  8
TEXTE
 62
7
370
50
  6
CONTINUOUS
 10
113.0
 20
106.0
 30
0.0
 40
5.0
 41
100.0
 71
7
 72
2
  1
C\~35
  7
ISO9
 50
0.0
 73
1
 44
1.0
  0
MTEXT
  5
29C
100
AcDbEntity
100
AcDbMText
  8
TEXTE
 62
7
370
50
  6
CONTINUOUS
 10
113.0
 20
97.0
 30
0.0
 40
5.0
 41
100.0
 71
7
 72
2
  1
51\~Si\~7
  7
ISO9
 50
0.0
 73
1
 44
1.0
  0
MTEXT
  5
29D
100
AcDbEntity
100
AcDbMText
  8
TEXTE
 62
7
370
50
  6
CONTINUOUS
 10
113.0
 20
79.0
 30
0.0
 40
5.0
 41
100.0
 71
7
 72
2
  1
PVC
  7
ISO9
 50
0.0
 73
1
 44
1.0
  0
MTEXT
  5
29E
100
AcDbEntity
100
AcDbMText
  8
TEXTE
 62
7
370
50
  6
CONTINUOUS
 10
113.0
 20
88.0
 30
0.0
 40
5.0
 41
100.0
 71
7
 72
2
  1
C\~35
  7
ISO9
 50
0.0
 73
1
 44
1.0
  0
LINE
  5
29F
100
AcDbEntity
100
AcDbLine
  8
FIN
 62
256
370
-1
  6
ByLayer
 10
41.051250533893068
 20
41.0
 30
0.0
 11
41.051250533893068
 21
122.0
 31
0.0
  0
LINE
  5
2A0
100
AcDbEntity
100
AcDbLine
  8
FIN
 62
256
370
-1
  6
ByLayer
 10
26.051250533893068
 20
41.0
 30
0.0
 11
26.051250533893068
 21
122.0
 31
0.0
  0
MTEXT
  5
2A1
100
AcDbEntity
100
AcDbMText
  8
TEXTE
 62
7
370
50
  6
CONTINUOUS
 10
44.051250533893068
 20
70.0
 30
0.0
 40
5.0
 41
100.0
 71
7
 72
2
  1
Contact
  7
ISO9
 50
0.0
 73
1
 44
1.0
  0
MTEXT
  5
2A2
100
AcDbEntity
100
AcDbMText
  8
TEXTE
 62
7
370
50
  6
CONTINUOUS
 10
32.051250533893068
 20
70.0
 30
0.0
 40
5.0
 41
100.0
 71
7
 72
2
  1
1
  7
ISO9
 50
0.0
 73
1
 44
1.0
  0
MTEXT
  5
2A3
100
AcDbEntity
100
AcDbMText
  8
TEXTE
 62
7
370
50
  6
CONTINUOUS
 10
44.051250533893068
 20
61.0
 30
0.0
 40
5.0
 41
100.0
 71
7
 72
2
  1
Support\~de\~plots
  7
ISO9
 50
0.0
 73
1
 44
1.0
  0
MTEXT
  5
2A4
100
AcDbEntity
100
AcDbMText
  8
TEXTE
 62
7
370
50
  6
CONTINUOUS
 10
44.051250533893068
 20
52.0
 30
0.0
 40
5.0
 41
100.0
 71
7
 72
2
  1
Plot
  7
ISO9
 50
0.0
 73
1
 44
1.0
  0
MTEXT
  5
2A5
100
AcDbEntity
100
AcDbMText
  8
TEXTE
 62
7
370
50
  6
CONTINUOUS
 10
30.051250533893068
 20
43.0
 30
0.0
 40
5.0
 41
100.0
 71
7
 72
2
  1
NB.
  7
ISO9
 50
0.0
 73
1
 44
1.0
  0
MTEXT
  5
2A6
100
AcDbEntity
100
AcDbMText
  8
TEXTE
 62
7
370
50
  6
CONTINUOUS
 10
32.051250533893068
 20
61.0
 30
0.0
 40
5.0
 41
100.0
 71
7
 72
2
  1
1
  7
ISO9
 50
0.0
 73
1
 44
1.0
  0
MTEXT
  5
2A7
100
AcDbEntity
100
AcDbMText
  8
TEXTE
 62
7
370
50
  6
CONTINUOUS
 10
32.051250533893068
 20
52.0
 30
0.0
 40
5.0
 41
100.0
 71
7
 72
2
  1
2
  7
ISO9
 50
0.0
 73
1
 44
1.0
  0
MTEXT
  5
2A8
100
AcDbEntity
100
AcDbMText
  8
TEXTE
 62
7
370
50
  6
CONTINUOUS
 10
44.051250533893068
 20
79.0
 30
0.0
 40
5.0
 41
100.0
 71
7
 72
2
  1
Membrane
  7
ISO9
 50
0.0
 73
1
 44
1.0
  0
MTEXT
  5
2A9
100
AcDbEntity
100
AcDbMText
  8
TEXTE
 62
7
370
50
  6
CONTINUOUS
 10
44.051250533893068
 20
88.0
 30
0.0
 40
5.0
 41
100.0
 71
7
 72
2
  1
Entretoise
  7
ISO9
 50
0.0
 73
1
 44
1.0
  0
MTEXT
  5
2AA
100
AcDbEntity
100
AcDbMText
  8
TEXTE
 62
7
370
50
  6
CONTINUOUS
 10
44.051250533893068
 20
97.0
 30
0.0
 40
5.0
 41
100.0
 71
7
 72
2
  1
Ressort
  7
ISO9
 50
0.0
 73
1
 44
1.0
  0
MTEXT
  5
2AB
100
AcDbEntity
100
AcDbMText
  8
TEXTE
 62
7
370
50
  6
CONTINUOUS
 10
44.051250533893068
 20
106.0
 30
0.0
 40
5.0
 41
100.0
 71
7
 72
2
  1
Corps
  7
ISO9
 50
0.0
 73
1
 44
1.0
  0
MTEXT
  5
2AC
100
AcDbEntity
100
AcDbMText
  8
TEXTE
 62
7
370
50
  6
CONTINUOUS
 10
32.051250533893068
 20
106.0
 30
0.0
 40
5.0
 41
100.0
 71
7
 72
2
  1
1
  7
ISO9
 50
0.0
 73
1
 44
1.0
  0
MTEXT
  5
2AD
100
AcDbEntity
100
AcDbMText
  8
TEXTE
 62
7
370
50
  6
CONTINUOUS
 10
32.051250533893068
 20
79.0
 30
0.0
 40
5.0
 41
100.0
 71
7
 72
2
  1
1
  7
ISO9
 50
0.0
 73
1
 44
1.0
  0
MTEXT
  5
2AE
100
AcDbEntity
100
AcDbMText
  8
TEXTE
 62
7
370
50
  6
CONTINUOUS
 10
32.051250533893068
 20
88.0
 30
0.0
 40
5.0
 41
100.0
 71
7
 72
2
  1
1
  7
ISO9
 50
0.0
 73
1
 44
1.0
  0
MTEXT
  5
2AF
100
AcDbEntity
100
AcDbMText
  8
TEXTE
 62
7
370
50
  6
CONTINUOUS
 10
32.051250533893068
 20
97.0
 30
0.0
 40
5.0
 41
100.0
 71
7
 72
2
  1
1
  7
ISO9
 50
0.0
 73
1
 44
1.0
  0
MTEXT
  5
2B0
100
AcDbEntity
100
AcDbMText
  8
TEXTE
 62
7
370
50
  6
CONTINUOUS
 10
32.051250533893068
 20
115.0
 30
0.0
 40
5.0
 41
100.0
 71
7
 72
2
  1
2
  7
ISO9
 50
0.0
 73
1
 44
1.0
  0
MTEXT
  5
2B1
100
AcDbEntity
100
AcDbMText
  8
TEXTE
 62
7
370
50
  6
CONTINUOUS
 10
44.051250533893068
 20
115.0
 30
0.0
 40
5.0
 41
100.0
 71
7
 72
2
  1
Vis\~CL,\~M4-10
  7
ISO9
 50
0.0
 73
1
 44
1.0
  0
CIRCLE
  5
2B2
100
AcDbEntity
100
AcDbCircle
  8
FORT
 62
256
370
-1
  6
ByLayer
 10
34.7714568696583228
 20
24.9062991537425589
 30
0.0
 40
3.0
  0
CIRCLE
  5
2B3
100
AcDbEntity
100
AcDbCircle
  8
FORT
 62
256
370
-1
  6
ByLayer
 10
34.7714568696583228
 20
24.9062991537425589
 30
0.0
 40
1.4142135623730951
  0
LINE
  5
2B4
100
AcDbEntity
100
AcDbLine
  8
FORT
 62
256
370
-1
  6
ByLayer
 10
15.9236441104240072
 20
26.3205127161156511
 30
0.0
 11
15.9236441104240072
 21
23.4920855913694666
 31
0.0
  0
LINE
  5
2B5
100
AcDbEntity
100
AcDbLine
  8
FORT
 62
256
370
-1
  6
ByLayer
 10
27.9236441104240072
 20
27.9062991537425589
 30
0.0
 11
27.9236441104240072
 21
21.9062991537425589
 31
0.0
  0
LINE
  5
2B6
100
AcDbEntity
100
AcDbLine
  8
FORT
 62
256
370
-1
  6
ByLayer
 10
27.9236441104240072
 20
27.9062991537425589
 30
0.0
 11
15.9236441104240072
 21
26.3205127161156511
 31
0.0
  0
LINE
  5
2B7
100
AcDbEntity
100
AcDbLine
  8
FORT
 62
256
370
-1
  6
ByLayer
 10
27.9236441104240072
 20
21.9062991537425589
 30
0.0
 11
15.9236441104240072
 21
23.4920855913694666
 31
0.0
  0
LINE
  5
2B8
100
AcDbEntity
100
AcDbLine
  8
FIN
 62
5
370
-1
  6
CONTINUOUS
 10
43.6468381616242951
 20
10.5
 30
0.0
 11
43.6468381616242951
 21
41.0
 31
0.0
  0
LINE
  5
2B9
100
AcDbEntity
100
AcDbLine
  8
FIN
 62
256
370
-1
  6
ByLayer
 10
10.0
 20
29.5
 30
0.0
 11
43.6468381616242951
 21
29.5
 31
0.0
  0
MTEXT
  5
2BA
100
AcDbEntity
100
AcDbMText
  8
TEXTE
 62
7
370
50
  6
CONTINUOUS
 10
14.6657380435597666
 20
32.3186510000000027
 30
0.0
 40
5.0
 41
100.0
 71
7
 72
2
  1
Ech.\~2:1
  7
ISO9
 50
0.0
 73
1
 44
1.0
  0
MTEXT
  5
2BB
100
AcDbEntity
100
AcDbMText
  8
TEXTE
 62
7
370
50
  6
CONTINUOUS
 10
54.0
 20
222.0
 30
0.0
 40
5.0
 41
100.0
 71
7
 72
2
  1
3
  7
ISO9
 50
0.0
 73
1
 44
1.0
  0
MTEXT
  5
2BC
100
AcDbEntity
100
AcDbMText
  8
TEXTE
 62
7
370
50
  6
CONTINUOUS
 10
54.0
 20
207.0
 30
0.0
 40
5.0
 41
100.0
 71
7
 72
2
  1
4
  7
ISO9
 50
0.0
 73
1
 44
1.0
  0
MTEXT
  5
2BD
100
AcDbEntity
100
AcDbMText
  8
TEXTE
 62
7
370
50
  6
CONTINUOUS
 10
54.0
 20
252.0
 30
0.0
 40
5.0
 41
100.0
 71
7
 72
2
  1
1
  7
ISO9
 50
0.0
 73
1
 44
1.0
  0
MTEXT
  5
2BE
100
AcDbEntity
100
AcDbMText
  8
TEXTE
 62
7
370
50
  6
CONTINUOUS
 10
54.0
 20
237.0
 30
0.0
 40
5.0
 41
100.0
 71
7
 72
2
  1
2
  7
ISO9
 50
0.0
 73
1
 44
1.0
  0
MTEXT
  5
2BF
100
AcDbEntity
100
AcDbMText
  8
TEXTE
 62
7
370
50
  6
CONTINUOUS
 10
99.9398790000000048
 20
275.3409110000000055
 30
0.0
 40
5.0
 41
100.0
 71
7
 72
2
  1
A-A
  7
ISO9
 50
0.0
 73
1
 44
1.0
  0
MTEXT
  5
2C0
100
AcDbEntity
100
AcDbMText
  8
TEXTE
 62
7
370
50
  6
CONTINUOUS
 10
154.0
 20
222.0
 30
0.0
 40
5.0
 41
100.0
 71
7
 72
2
  1
6
  7
ISO9
 50
0.0
 73
1
 44
1.0
  0
MTEXT
  5
2C1
100
AcDbEntity
100
AcDbMText
  8
TEXTE
 62
7
370
50
  6
CONTINUOUS
 10
154.0
 20
207.0
 30
0.0
 40
5.0
 41
100.0
 71
7
 72
2
  1
5
  7
ISO9
 50
0.0
 73
1
 44
1.0
  0
MTEXT
  5
2C2
100
AcDbEntity
100
AcDbMText
  8
TEXTE
 62
7
370
50
  6
CONTINUOUS
 10
154.0
 20
252.0
 30
0.0
 40
5.0
 41
100.0
 71
7
 72
2
  1
8
  7
ISO9
 50
0.0
 73
1
 44
1.0
  0
MTEXT
  5
2C3
100
AcDbEntity
100
AcDbMText
  8
TEXTE
 62
7
370
50
  6
CONTINUOUS
 10
154.0
 20
237.0
 30
0.0
 40
5.0
 41
100.0
 71
7
 72
2
  1
7
  7
ISO9
 50
0.0
 73
1
 44
1.0
  0
MTEXT
  5
2C4
100
AcDbEntity
100
AcDbMText
  8
TEXTE
 62
7
370
50
  6
CONTINUOUS
 10
47.8944580000000002
 20
141.1058639999999968
 30
0.0
 40
5.0
 41
100.0
 71
9
 72
2
  1
A
  7
ISO9
 50
0.0
 73
1
 44
1.0
  0
MTEXT
  5
2C5
100
AcDbEntity
100
AcDbMText
  8
TEXTE
 62
7
370
50
  6
CONTINUOUS
 10
162.105542000000014
 20
141.1058639999999968
 30
0.0
 40
5.0
 41
100.0
 71
7
 72
2
  1
A
  7
ISO9
 50
0.0
 73
1
 44
1.0
  0
LINE
  5
2C6
100
AcDbEntity
100
AcDbLine
  8
FIN
 62
256
370
-1
  6
ByLayer
 10
29.0
 20
266.1679139999999961
 30
0.0
 11
34.0
 21
266.1679139999999961
 31
0.0
  0
LINE
  5
2C7
100
AcDbEntity
100
AcDbLine
  8
FIN
 62
256
370
-1
  6
ByLayer
 10
35.0
 20
266.1679139999999961
 30
0.0
 11
37.0
 21
266.1679139999999961
 31
0.0
  0
LINE
  5
2C8
100
AcDbEntity
100
AcDbLine
  8
FIN
 62
256
370
-1
  6
ByLayer
 10
38.0
 20
266.1679139999999961
 30
0.0
 11
40.0
 21
266.1679139999999961
 31
0.0
  0
LINE
  5
2C9
100
AcDbEntity
100
AcDbLine
  8
FIN
 62
256
370
-1
  6
ByLayer
 10
41.0
 20
266.1679139999999961
 30
0.0
 11
57.0
 21
266.1679139999999961
 31
0.0
  0
LINE
  5
2CA
100
AcDbEntity
100
AcDbLine
  8
FIN
 62
256
370
-1
  6
ByLayer
 10
58.0
 20
266.1679139999999961
 30
0.0
 11
60.0
 21
266.1679139999999961
 31
0.0
  0
LINE
  5
2CB
100
AcDbEntity
100
AcDbLine
  8
FIN
 62
256
370
-1
  6
ByLayer
 10
61.0
 20
266.1679139999999961
 30
0.0
 11
63.0
 21
266.1679139999999961
 31
0.0
  0
LINE
  5
2CC
100
AcDbEntity
100
AcDbLine
  8
FIN
 62
256
370
-1
  6
ByLayer
 10
64.0
 20
266.1679139999999961
 30
0.0
 11
79.0
 21
266.1679139999999961
 31
0.0
  0
LINE
  5
2CD
100
AcDbEntity
100
AcDbLine
  8
FIN
 62
256
370
-1
  6
ByLayer
 10
29.0
 20
263.1679139999999961
 30
0.0
 11
34.0
 21
263.1679139999999961
 31
0.0
  0
LINE
  5
2CE
100
AcDbEntity
100
AcDbLine
  8
FIN
 62
256
370
-1
  6
ByLayer
 10
35.0
 20
263.1679139999999961
 30
0.0
 11
37.0
 21
263.1679139999999961
 31
0.0
  0
LINE
  5
2CF
100
AcDbEntity
100
AcDbLine
  8
FIN
 62
256
370
-1
  6
ByLayer
 10
38.0
 20
263.1679139999999961
 30
0.0
 11
40.0
 21
263.1679139999999961
 31
0.0
  0
LINE
  5
2D0
100
AcDbEntity
100
AcDbLine
  8
FIN
 62
256
370
-1
  6
ByLayer
 10
41.0
 20
263.1679139999999961
 30
0.0
 11
57.0
 21
263.1679139999999961
 31
0.0
  0
LINE
  5
2D1
100
AcDbEntity
100
AcDbLine
  8
FIN
 62
256
370
-1
  6
ByLayer
 10
58.0
 20
263.1679139999999961
 30
0.0
 11
60.0
 21
263.1679139999999961
 31
0.0
  0
LINE
  5
2D2
100
AcDbEntity
100
AcDbLine
  8
FIN
 62
256
370
-1
  6
ByLayer
 10
61.0
 20
263.1679139999999961
 30
0.0
 11
63.0
 21
263.1679139999999961
 31
0.0
  0
LINE
  5
2D3
100
AcDbEntity
100
AcDbLine
  8
FIN
 62
256
370
-1
  6
ByLayer
 10
64.0
 20
263.1679139999999961
 30
0.0
 11
79.0
 21
263.1679139999999961
 31
0.0
  0
LWPOLYLINE
  5
2D4
  8
FIN
 62
5
370
-1
  6
CONTINUOUS
100
AcDbEntity
100
AcDbPolyline
 90
4
 70
0
 10
29.0
 20
266.1679139999999961
 10
28.7360940000000014
 20
265.2323880000000145
 10
28.9677900000000008
 20
264.1665869999999927
 10
28.8402699999999967
 20
263.1679139999999961
  0
LINE
  5
2D5
100
AcDbEntity
100
AcDbLine
  8
FIN
 62
256
370
-1
  6
ByLayer
 10
131.0
 20
266.1679139999999961
 30
0.0
 11
136.0
 21
266.1679139999999961
 31
0.0
  0
LINE
  5
2D6
100
AcDbEntity
100
AcDbLine
  8
FIN
 62
256
370
-1
  6
ByLayer
 10
137.0
 20
266.1679139999999961
 30
0.0
 11
139.0
 21
266.1679139999999961
 31
0.0
  0
LINE
  5
2D7
100
AcDbEntity
100
AcDbLine
  8
FIN
 62
256
370
-1
  6
ByLayer
 10
140.0
 20
266.1679139999999961
 30
0.0
 11
142.0
 21
266.1679139999999961
 31
0.0
  0
LINE
  5
2D8
100
AcDbEntity
100
AcDbLine
  8
FIN
 62
256
370
-1
  6
ByLayer
 10
143.0
 20
266.1679139999999961
 30
0.0
 11
159.0
 21
266.1679139999999961
 31
0.0
  0
LINE
  5
2D9
100
AcDbEntity
100
AcDbLine
  8
FIN
 62
256
370
-1
  6
ByLayer
 10
160.0
 20
266.1679139999999961
 30
0.0
 11
162.0
 21
266.1679139999999961
 31
0.0
  0
LINE
  5
2DA
100
AcDbEntity
100
AcDbLine
  8
FIN
 62
256
370
-1
  6
ByLayer
 10
163.0
 20
266.1679139999999961
 30
0.0
 11
165.0
 21
266.1679139999999961
 31
0.0
  0
LINE
  5
2DB
100
AcDbEntity
100
AcDbLine
  8
FIN
 62
256
370
-1
  6
ByLayer
 10
166.0
 20
266.1679139999999961
 30
0.0
 11
181.0
 21
266.1679139999999961
 31
0.0
  0
LINE
  5
2DC
100
AcDbEntity
100
AcDbLine
  8
FIN
 62
256
370
-1
  6
ByLayer
 10
131.0
 20
263.1679139999999961
 30
0.0
 11
136.0
 21
263.1679139999999961
 31
0.0
  0
LINE
  5
2DD
100
AcDbEntity
100
AcDbLine
  8
FIN
 62
256
370
-1
  6
ByLayer
 10
137.0
 20
263.1679139999999961
 30
0.0
 11
139.0
 21
263.1679139999999961
 31
0.0
  0
LINE
  5
2DE
100
AcDbEntity
100
AcDbLine
  8
FIN
 62
256
370
-1
  6
ByLayer
 10
140.0
 20
263.1679139999999961
 30
0.0
 11
142.0
 21
263.1679139999999961
 31
0.0
  0
LINE
  5
2DF
100
AcDbEntity
100
AcDbLine
  8
FIN
 62
256
370
-1
  6
ByLayer
 10
143.0
 20
263.1679139999999961
 30
0.0
 11
159.0
 21
263.1679139999999961
 31
0.0
  0
LINE
  5
2E0
100
AcDbEntity
100
AcDbLine
  8
FIN
 62
256
370
-1
  6
ByLayer
 10
160.0
 20
263.1679139999999961
 30
0.0
 11
162.0
 21
263.1679139999999961
 31
0.0
  0
LINE
  5
2E1
100
AcDbEntity
100
AcDbLine
  8
FIN
 62
256
370
-1
  6
ByLayer
 10
163.0
 20
263.1679139999999961
 30
0.0
 11
165.0
 21
263.1679139999999961
 31
0.0
  0
LINE
  5
2E2
100
AcDbEntity
100
AcDbLine
  8
FIN
 62
256
370
-1
  6
ByLayer
 10
166.0
 20
263.1679139999999961
 30
0.0
 11
181.0
 21
263.1679139999999961
 31
0.0
  0
LWPOLYLINE
  5
2E3
  8
FIN
 62
5
370
-1
  6
CONTINUOUS
100
AcDbEntity
100
AcDbPolyline
 90
4
 70
0
 10
181.0
 20
266.1679139999999961
 10
181.2639059999999915
 20
265.2323880000000145
 10
181.0322099999999921
 20
264.1665869999999927
 10
181.1597299999999962
 20
263.1679139999999961
  0
LINE
  5
2E4
100
AcDbEntity
100
AcDbLine
  8
AXE
 62
256
370
-1
  6
ByLayer
 10
97.0
 20
143.6896220000000142
 30
0.0
 11
97.0
 21
154.4823489999999993
 31
0.0
  0
LINE
  5
2E5
100
AcDbEntity
100
AcDbLine
  8
AXE
 62
256
370
-1
  6
ByLayer
 10
113.0
 20
154.4823489999999993
 30
0.0
 11
113.0
 21
143.6896220000000142
 31
0.0
  0
LINE
  5
2E6
100
AcDbEntity
100
AcDbLine
  8
AXE
 62
256
370
-1
  6
ByLayer
 10
105.0
 20
172.485336999999987
 30
0.0
 11
105.0
 21
143.6896220000000142
 31
0.0
  0
LINE
  5
2E7
100
AcDbEntity
100
AcDbLine
  8
AXE
 62
256
370
-1
  6
ByLayer
 10
69.9629639999999995
 20
143.6896220000000142
 30
0.0
 11
140.0370360000000005
 21
143.6896220000000142
 31
0.0
  0
LINE
  5
2E8
100
AcDbEntity
100
AcDbLine
  8
AXE
 62
256
370
-1
  6
ByLayer
 10
105.0
 20
255.9048099999999977
 30
0.0
 11
105.0
 21
179.2294799999999952
 31
0.0
  0
LINE
  5
2E9
100
AcDbEntity
100
AcDbLine
  8
AXE
 62
256
370
-1
  6
ByLayer
 10
97.0
 20
269.7194920000000025
 30
0.0
 11
97.0
 21
220.1679139999999961
 31
0.0
  0
LINE
  5
2EA
100
AcDbEntity
100
AcDbLine
  8
AXE
 62
256
370
-1
  6
ByLayer
 10
113.0
 20
269.7194920000000025
 30
0.0
 11
113.0
 21
220.1679139999999961
 31
0.0
  0
LINE
  5
2EB
100
AcDbEntity
100
AcDbLine
  8
AXE
 62
256
370
-1
  6
ByLayer
 10
12.2124804351156833
 20
24.9062991537425589
 30
0.0
 11
41.7952976192211665
 21
24.9062991537425589
 31
0.0
  0
LINE
  5
2EC
100
AcDbEntity
100
AcDbLine
  8
AXE
 62
256
370
-1
  6
ByLayer
 10
34.7714568696583228
 20
28.9062991537425589
 30
0.0
 11
34.7714568696583228
 21
20.9062991537425589
 31
0.0
  0
LINE
  5
2ED
100
AcDbEntity
100
AcDbLine
  8
INTERROMPU
 62
256
370
-1
  6
ByLayer
 10
95.0
 20
198.6679139999999961
 30
0.0
 11
115.0
 21
198.6679139999999961
 31
0.0
  0
ENDSEC
  0
SECTION
  2
OBJECTS
  0
DICTIONARY
  5
C
100
AcDbDictionary
280
0
281
1
  3
ACAD_GROUP
350
D
  3
ACAD_LAYOUT
350
1A
  3
ACAD_MLINESTYLE
350
17
  3
ACAD_PLOTSETTINGS
350
19
  3
ACAD_PLOTSTYLENAME
350
E
  3
AcDbVariableDictionary
350
2EE
  0
DICTIONARY
  5
D
100
AcDbDictionary
280
0
281
1
  0
ACDBDICTIONARYWDFLT
  5
E
100
AcDbDictionary
281
1
  3
Normal
350
F
100
AcDbDictionaryWithDefault
340
F
  0
ACDBPLACEHOLDER
  5
F
  0
DICTIONARY
  5
17
100
AcDbDictionary
280
0
281
1
  3
Standard
350
18
  0
MLINESTYLE
  5
18
100
AcDbMlineStyle
  2
STANDARD
 70
0
  3

 62
256
 51
90.0
 52
90.0
 71
2
 49
0.5
 62
256
  6
BYLAYER
 49
-0.5
 62
256
  6
BYLAYER
  0
DICTIONARY
  5
19
100
AcDbDictionary
280
0
281
1
  0
DICTIONARY
  5
1A
100
AcDbDictionary
281
1
  3
Layout1
350
1E
  3
Layout2
350
26
  3
Model
350
22
  0
LAYOUT
  5
1E
100
AcDbPlotSettings
  1

  2
C:\Program Files\AutoCAD 2002\plotters\DWF ePlot (optimized for plotting).pc3
  4

  6

 40
0.0
 41
0.0
 42
0.0
 43
0.0
 44
0.0
 45
0.0
 46
0.0
 47
0.0
 48
0.0
 49
0.0
140
0.0
141
0.0
142
1.0
143
1.0
 70
688
 72
0
 73
0
 74
5
  7

 75
16
147
1.0
148
0.0
149
0.0
100
AcDbLayout
  1
Layout1
 70
1
 71
1
 10
0.0
 20
0.0
 11
420.0
 21
297.0
 12
0.0
 22
0.0
 32
0.0
 14
100000000000000000000.0
 24
100000000000000000000.0
 34
100000000000000000000.0
 15
-100000000000000000000.0
 25
-100000000000000000000.0
 35
-100000000000000000000.0
146
0.0
 13
0.0
 23
0.0
 33
0.0
 16
1.0
 26
0.0
 36
0.0
 17
0.0
 27
1.0
 37
0.0
 76
0
330
1B
  0
LAYOUT
  5
22
100
AcDbPlotSettings
  1

  2
C:\Program Files\AutoCAD 2002\plotters\DWF ePlot (optimized for plotting).pc3
  4

  6

 40
0.0
 41
0.0
 42
0.0
 43
0.0
 44
0.0
 45
0.0
 46
0.0
 47
0.0
 48
0.0
 49
0.0
140
0.0
141
0.0
142
1.0
143
1.0
 70
1712
 72
0
 73
0
 74
0
  7

 75
0
147
1.0
148
0.0
149
0.0
100
AcDbLayout
  1
Model
 70
1
 71
0
 10
0.0
 20
0.0
 11
12.0
 21
9.0
 12
0.0
 22
0.0
 32
0.0
 14
0.0
 24
0.0
 34
0.0
 15
0.0
 25
0.0
 35
0.0
146
0.0
 13
0.0
 23
0.0
 33
0.0
 16
1.0
 26
0.0
 36
0.0
 17
0.0
 27
1.0
 37
0.0
 76
0
330
1F
  0
LAYOUT
  5
26
100
AcDbPlotSettings
  1

  2
C:\Program Files\AutoCAD 2002\plotters\DWF ePlot (optimized for plotting).pc3
  4

  6

 40
0.0
 41
0.0
 42
0.0
 43
0.0
 44
0.0
 45
0.0
 46
0.0
 47
0.0
 48
0.0
 49
0.0
140
0.0
141
0.0
142
1.0
143
1.0
 70
688
 72
0
 73
0
 74
5
  7

 75
16
147
1.0
148
0.0
149
0.0
100
AcDbLayout
  1
Layout2
 70
1
 71
2
 10
0.0
 20
0.0
 11
12.0
 21
9.0
 12
0.0
 22
0.0
 32
0.0
 14
0.0
 24
0.0
 34
0.0
 15
0.0
 25
0.0
 35
0.0
146
0.0
 13
0.0
 23
0.0
 33
0.0
 16
1.0
 26
0.0
 36
0.0
 17
0.0
 27
1.0
 37
0.0
 76
0
330
23
  0
DICTIONARY
  5
2EE
100
AcDbDictionary
281
1
  3
DIMASSOC
350
2F0
  3
HIDETEXT
350
2EF
  0
DICTIONARYVAR
  5
2EF
100
DictionaryVariables
280
0
  1
2
  0
DICTIONARYVAR
  5
2F0
100
DictionaryVariables
280
0
  1
1
  0
ENDSEC
  0
EOF
