999
dxflib 2.0.4.8
  0
SECTION
  2
HEADER
  9
$ACADVER
  1
AC1015
  9
$HANDSEED
  5
FFFF
  9
$DIMTAD
 70
1
  9
$DIMTDEC
 70
2
  9
$USERR4
 40
0.0
  9
$CLAYER
  8
0
  9
$DIMALTZ
 70
0
  9
$MENU
  1
.
  9
$CHAMFERA
 40
10.0
  9
$UCSYDIR
 10
0.0
 20
1.0
 30
0.0
  9
$USERR5
 40
0.0
  9
$SHADEDIF
 70
70
  9
$TILEMODE
 70
1
  9
$VISRETAIN
 70
1
  9
$CMLSTYLE
  2
Standard
  9
$EXTMIN
 10
0.0
 20
0.0
 30
0.0
  9
$ORTHOMODE
 70
0
  9
$REGENMODE
 70
1
  9
$TRACEWID
 40
1.0
  9
$DIMUPT
 70
0
  9
$CHAMFERB
 40
10.0
  9
$UCSXDIR
 10
1.0
 20
0.0
 30
0.0
  9
$OLESTARTUP
290
0
  9
$DIMADEC
 70
0
  9
$GRIDUNIT
 10
0.0
 20
0.0
  9
$DIMASZ
 40
3.302
  9
$DIMSHO
 70
1
  9
$DIMALT
 70
0
  9
$DIMSAH
 70
0
  9
$DIMTFAC
 40
1.0
  9
$SKETCHINC
 40
1.0
  9
$CHAMFERC
 40
20.0
  9
$USRTIMER
 70
1
  9
$ANGBASE
 50
0.0
  9
$PUCSYDIR
 10
0.0
 20
1.0
 30
0.0
  9
$CMLJUST
 70
0
  9
$MEASUREMENT
 70
1
  9
$ENDCAPS
280
0
  9
$DIMGAP
 40
1.524
  9
$LIMMIN
 10
0.0
 20
0.0
  9
$DIMTSZ
 40
0.0
  9
$DIMALTTD
 70
3
  9
$DIMALTRND
 40
0.0
  9
$CHAMFERD
 40
0.0
  9
$SPLFRAME
 70
0
  9
$SURFTYPE
 70
6
  9
$PUCSXDIR
 10
1.0
 20
0.0
 30
0.0
  9
$LWDISPLAY
290
1
  9
$VERSIONGUID
  2
{FAEB1C32-E019-11D5-929B-00C0DF256EC4}
  9
$DWGCODEPAGE
  3
ANSI_1252
  9
$SURFTAB1
 70
6
  9
$CELWEIGHT
370
-1
  9
$LUNITS
 70
2
  9
$AUPREC
 70
0
  9
$SPLINESEGS
 70
8
  9
$INSBASE
 10
0.0
 20
0.0
 30
0.0
  9
$DIMRND
 40
0.0
  9
$DIMCEN
 40
2.5
  9
$DIMDSEP
 70
44
  9
$ELEVATION
 40
0.0
  9
$SKPOLY
 70
0
  9
$TDUCREATE
 40
2455890.4868104280903935
  9
$TDUUPDATE
 40
2455890.486810440197587
  9
$SURFTAB2
 70
6
  9
$UCSORTHOVIEW
 70
0
  9
$USERI1
 70
0
  9
$UNITMODE
 70
0
  9
$PSTYLEMODE
290
1
  9
$EXTMAX
 10
297.0
 20
210.0
 30
0.0
  9
$FILLMODE
 70
1
  9
$TEXTSIZE
 40
3.5
  9
$PELEVATION
 40
0.0
  9
$UCSORG
 10
0.0
 20
0.0
 30
0.0
  9
$UCSORGRIGHT
 10
0.0
 20
0.0
 30
0.0
  9
$USERI2
 70
0
  9
$INSUNITS
 70
4
  9
$DIMEXO
 40
1.0
  9
$DIMSCALE
 40
1.0
  9
$DIMDLE
 40
0.0
  9
$DIMZIN
 70
0
  9
$DIMTOLJ
 70
0
  9
$DIMTZIN
 70
0
  9
$DIMLWD
 70
-2
  9
$TDUSRTIMER
 40
0.0000000116
  9
$ANGDIR
 70
0
  9
$SURFU
 70
6
  9
$PUCSORGBOTTOM
 10
0.0
 20
0.0
 30
0.0
  9
$USERI3
 70
0
  9
$JOINSTYLE
280
0
  9
$ACADMAINTVER
 70
6
  9
$LIMMAX
 10
0.0
 20
0.0
  9
$QTEXTMODE
 70
0
  9
$DIMJUST
 70
0
  9
$DIMALTTZ
 70
0
  9
$DIMATFIT
 70
3
  9
$DIMLWE
 70
-2
  9
$SURFV
 70
6
  9
$USERI4
 70
0
  9
$WORLDVIEW
 70
1
  9
$DIMLUNIT
 70
2
  9
$ATTMODE
 70
1
  9
$DIMLIM
 70
0
  9
$DIMSE1
 70
0
  9
$DIMAZIN
 70
0
  9
$THICKNESS
 40
0.0
  9
$LIMCHECK
 70
0
  9
$PDMODE
 70
0
  9
$UCSORGTOP
 10
0.0
 20
0.0
 30
0.0
  9
$USERI5
 70
0
  9
$PROXYGRAPHICS
 70
1
  9
$EXTNAMES
290
1
  9
$GRIDMODE
 70
1
  9
$DIMTXT
 40
3.5
  9
$CELTYPE
  6
ByLayer
  9
$DIMTOH
 70
1
  9
$DIMSE2
 70
0
  9
$DIMLFAC
 40
1.0
  9
$DIMSOXD
 70
0
  9
$TDINDWG
 40
0.0000000116
  9
$SPLINETYPE
 70
6
  9
$PUCSORG
 10
0.0
 20
0.0
 30
0.0
  9
$PEXTMIN
 10
100000000000000000000.0
 20
100000000000000000000.0
 30
100000000000000000000.0
  9
$PEXTMAX
 10
-100000000000000000000.0
 20
-100000000000000000000.0
 30
-100000000000000000000.0
  9
$XEDIT
290
1
  9
$LUPREC
 70
2
  9
$CECOLOR
 62
256
  9
$DISPSILH
 70
0
  9
$DIMDLI
 40
3.75
  9
$DIMTM
 40
0.0
  9
$DIMASO
 70
1
  9
$DIMTVP
 40
0.0
  9
$DIMSTYLE
  2
ISO-25
  9
$DIMFRAC
 70
0
  9
$PLINEWID
 40
0.0
  9
$PUCSORGRIGHT
 10
0.0
 20
0.0
 30
0.0
  9
$PLIMCHECK
 70
0
  9
$FINGERPRINTGUID
  2
{2241A361-6F30-4BC0-A27A-696CD0226A83}
  9
$PSVPSCALE
 40
0.0
  9
$LTSCALE
 40
1.0
  9
$DIMTIH
 70
1
  9
$DIMALTD
 70
3
  9
$DIMCLRT
 70
0
  9
$DIMDEC
 70
2
  9
$DIMALTU
 70
2
  9
$FILLETRAD
 40
10.0
  9
$TDUPDATE
 40
2455890.5284771071746945
  9
$UCSORGLEFT
 10
0.0
 20
0.0
 30
0.0
  9
$UCSORGBACK
 10
0.0
 20
0.0
 30
0.0
  9
$MAXACTVP
 70
64
  9
$TREEDEPTH
 70
3020
  9
$PLIMMIN
 10
0.0
 20
0.0
  9
$PLIMMAX
 10
297.0
 20
210.0
  9
$CELTSCALE
 40
1.0
  9
$DIMCLRD
 70
0
  9
$DIMTXSTY
  7
Standard
  9
$PDSIZE
 40
-1.0
  9
$PUCSORTHOVIEW
 70
0
  9
$USERR1
 40
0.0
  9
$CMLSCALE
 40
20.0
  9
$CEPSNTYPE
380
0
  9
$DIMEXE
 40
1.0
  9
$PINSBASE
 10
13.5
 20
5.0
 30
0.0
  9
$TEXTSTYLE
  7
Standard
  9
$DIMTP
 40
0.0
  9
$DIMTOL
 70
0
  9
$DIMALTF
 40
0.0393700787
  9
$DIMTOFL
 70
1
  9
$DIMCLRE
 70
0
  9
$DIMSD1
 70
0
  9
$DIMTMOVE
 70
0
  9
$TDCREATE
 40
2455890.5284770950675011
  9
$UCSORGFRONT
 10
0.0
 20
0.0
 30
0.0
  9
$PUCSORGTOP
 10
0.0
 20
0.0
 30
0.0
  9
$USERR2
 40
0.0
  9
$SHADEDGE
 70
3
  9
$PLINEGEN
 70
0
  9
$PSLTSCALE
 70
1
  9
$DIMAUNIT
 70
0
  9
$MIRRTEXT
 70
1
  9
$DIMTIX
 70
0
  9
$DIMSD2
 70
0
  9
$UCSORGBOTTOM
 10
0.0
 20
0.0
 30
0.0
  9
$PUCSORGLEFT
 10
0.0
 20
0.0
 30
0.0
  9
$PUCSORGFRONT
 10
0.0
 20
0.0
 30
0.0
  9
$PUCSORGBACK
 10
0.0
 20
0.0
 30
0.0
  9
$USERR3
 40
0.0
  9
$AUNITS
 70
0
  0
ENDSEC
  0
SECTION
  2
TABLES
  0
TABLE
  2
VPORT
  5
8
100
AcDbSymbolTable
 70
1
  0
VPORT
  5
30
100
AcDbSymbolTableRecord
100
AcDbViewportTableRecord
  2
*Active
 70
0
 10
0.0
 20
0.0
 11
1.0
 21
1.0
 12
286.3055555555554861
 22
148.5
 13
0.0
 23
0.0
 14
10.0
 24
10.0
 15
10.0
 25
10.0
 16
0.0
 26
0.0
 36
1.0
 17
0.0
 27
0.0
 37
0.0
 40
297.0
 41
1.92798353909465
 42
50.0
 43
0.0
 44
0.0
 50
0.0
 51
0.0
 71
0
 72
100
 73
1
 74
3
 75
1
 76
1
 77
0
 78
0
281
0
 65
1
110
0.0
120
0.0
130
0.0
111
1.0
121
0.0
131
0.0
112
0.0
122
1.0
132
0.0
 79
0
146
0.0
  0
ENDTAB
  0
TABLE
  2
LTYPE
  5
5
100
AcDbSymbolTable
 70
21
  0
LTYPE
  5
14
100
AcDbSymbolTableRecord
100
AcDbLinetypeTableRecord
  2
ByBlock
 70
0
  3

 72
65
 73
0
 40
0.0
  0
LTYPE
  5
15
100
AcDbSymbolTableRecord
100
AcDbLinetypeTableRecord
  2
ByLayer
 70
0
  3

 72
65
 73
0
 40
0.0
  0
LTYPE
  5
16
100
AcDbSymbolTableRecord
100
AcDbLinetypeTableRecord
  2
CONTINUOUS
 70
0
  3
Solid line
 72
65
 73
0
 40
0.0
  0
LTYPE
  5
31
100
AcDbSymbolTableRecord
100
AcDbLinetypeTableRecord
  2
DOT
 70
0
  3
Dot . . . . . . . . . . . . . . . . . . . . . .
 72
65
 73
2
 40
6.3499999999999996
 49
0.0
 74
0
 49
-6.3499999999999996
 74
0
  0
LTYPE
  5
32
100
AcDbSymbolTableRecord
100
AcDbLinetypeTableRecord
  2
DOT2
 70
0
  3
Dot (.5x) .....................................
 72
65
 73
2
 40
3.1749999999999998
 49
0.0
 74
0
 49
-3.1749999999999998
 74
0
  0
LTYPE
  5
33
100
AcDbSymbolTableRecord
100
AcDbLinetypeTableRecord
  2
DOTX2
 70
0
  3
Dot (2x) .  .  .  .  .  .  .  .  .  .  .  .  .
 72
65
 73
2
 40
12.6999999999999993
 49
0.0
 74
0
 49
-12.6999999999999993
 74
0
  0
LTYPE
  5
34
100
AcDbSymbolTableRecord
100
AcDbLinetypeTableRecord
  2
DASHED
 70
0
  3
Dashed __ __ __ __ __ __ __ __ __ __ __ __ __ _
 72
65
 73
2
 40
19.0500000000000007
 49
12.6999999999999993
 74
0
 49
-6.3499999999999996
 74
0
  0
LTYPE
  5
35
100
AcDbSymbolTableRecord
100
AcDbLinetypeTableRecord
  2
DASHED2
 70
0
  3
Dashed (.5x) _ _ _ _ _ _ _ _ _ _ _ _ _ _ _ _ _
 72
65
 73
2
 40
9.5250000000000004
 49
6.3499999999999996
 74
0
 49
-3.1749999999999998
 74
0
  0
LTYPE
  5
36
100
AcDbSymbolTableRecord
100
AcDbLinetypeTableRecord
  2
DASHEDX2
 70
0
  3
Dashed (2x) ____  ____  ____  ____  ____  ___
 72
65
 73
2
 40
38.1000000000000014
 49
25.3999999999999986
 74
0
 49
-12.6999999999999993
 74
0
  0
LTYPE
  5
37
100
AcDbSymbolTableRecord
100
AcDbLinetypeTableRecord
  2
DASHDOT
 70
0
  3
Dash dot __ . __ . __ . __ . __ . __ . __ . __
 72
65
 73
4
 40
25.3999999999999986
 49
12.6999999999999993
 74
0
 49
-6.3499999999999996
 74
0
 49
0.0
 74
0
 49
-6.3499999999999996
 74
0
  0
LTYPE
  5
38
100
AcDbSymbolTableRecord
100
AcDbLinetypeTableRecord
  2
DASHDOT2
 70
0
  3
Dash dot (.5x) _._._._._._._._._._._._._._._.
 72
65
 73
4
 40
12.6999999999999993
 49
6.3499999999999996
 74
0
 49
-3.1749999999999998
 74
0
 49
0.0
 74
0
 49
-3.1749999999999998
 74
0
  0
LTYPE
  5
39
100
AcDbSymbolTableRecord
100
AcDbLinetypeTableRecord
  2
DASHDOTX2
 70
0
  3
Dash dot (2x) ____  .  ____  .  ____  .  ___
 72
65
 73
4
 40
50.7999999999999972
 49
25.3999999999999986
 74
0
 49
-12.6999999999999993
 74
0
 49
0.0
 74
0
 49
-12.6999999999999993
 74
0
  0
LTYPE
  5
3A
100
AcDbSymbolTableRecord
100
AcDbLinetypeTableRecord
  2
DIVIDE
 70
0
  3
Divide ____ . . ____ . . ____ . . ____ . . ____
 72
65
 73
6
 40
31.75
 49
12.6999999999999993
 74
0
 49
-6.3499999999999996
 74
0
 49
0.0
 74
0
 49
-6.3499999999999996
 74
0
 49
0.0
 74
0
 49
-6.3499999999999996
 74
0
  0
LTYPE
  5
3B
100
AcDbSymbolTableRecord
100
AcDbLinetypeTableRecord
  2
DIVIDE2
 70
0
  3
Divide (.5x) __..__..__..__..__..__..__..__.._
 72
65
 73
6
 40
15.875
 49
6.3499999999999996
 74
0
 49
-3.1749999999999998
 74
0
 49
0.0
 74
0
 49
-3.1749999999999998
 74
0
 49
0.0
 74
0
 49
-3.1749999999999998
 74
0
  0
LTYPE
  5
3C
100
AcDbSymbolTableRecord
100
AcDbLinetypeTableRecord
  2
DIVIDEX2
 70
0
  3
Divide (2x) ________  .  .  ________  .  .  _
 72
65
 73
6
 40
63.5
 49
25.3999999999999986
 74
0
 49
-12.6999999999999993
 74
0
 49
0.0
 74
0
 49
-12.6999999999999993
 74
0
 49
0.0
 74
0
 49
-12.6999999999999993
 74
0
  0
LTYPE
  5
3D
100
AcDbSymbolTableRecord
100
AcDbLinetypeTableRecord
  2
CENTER
 70
0
  3
Center ____ _ ____ _ ____ _ ____ _ ____ _ ____
 72
65
 73
4
 40
50.7999999999999972
 49
31.75
 74
0
 49
-6.3499999999999996
 74
0
 49
6.3499999999999996
 74
0
 49
-6.3499999999999996
 74
0
  0
LTYPE
  5
3E
100
AcDbSymbolTableRecord
100
AcDbLinetypeTableRecord
  2
CENTER2
 70
0
  3
Center (.5x) ___ _ ___ _ ___ _ ___ _ ___ _ ___
 72
65
 73
4
 40
28.5749999999999993
 49
19.0500000000000007
 74
0
 49
-3.1749999999999998
 74
0
 49
3.1749999999999998
 74
0
 49
-3.1749999999999998
 74
0
  0
LTYPE
  5
3F
100
AcDbSymbolTableRecord
100
AcDbLinetypeTableRecord
  2
CENTERX2
 70
0
  3
Center (2x) ________  __  ________  __  _____
 72
65
 73
4
 40
101.5999999999999943
 49
63.5
 74
0
 49
-12.6999999999999993
 74
0
 49
12.6999999999999993
 74
0
 49
-12.6999999999999993
 74
0
  0
LTYPE
  5
40
100
AcDbSymbolTableRecord
100
AcDbLinetypeTableRecord
  2
BORDER
 70
0
  3
Border __ __ . __ __ . __ __ . __ __ . __ __ .
 72
65
 73
6
 40
44.4500000000000028
 49
12.6999999999999993
 74
0
 49
-6.3499999999999996
 74
0
 49
12.6999999999999993
 74
0
 49
-6.3499999999999996
 74
0
 49
0.0
 74
0
 49
-6.3499999999999996
 74
0
  0
LTYPE
  5
41
100
AcDbSymbolTableRecord
100
AcDbLinetypeTableRecord
  2
BORDER2
 70
0
  3
Border (.5x) __.__.__.__.__.__.__.__.__.__.__.
 72
65
 73
6
 40
22.2250000000000014
 49
6.3499999999999996
 74
0
 49
-3.1749999999999998
 74
0
 49
6.3499999999999996
 74
0
 49
-3.1749999999999998
 74
0
 49
0.0
 74
0
 49
-3.1749999999999998
 74
0
  0
LTYPE
  5
42
100
AcDbSymbolTableRecord
100
AcDbLinetypeTableRecord
  2
BORDERX2
 70
0
  3
Border (2x) ____  ____  .  ____  ____  .  ___
 72
65
 73
6
 40
88.9000000000000057
 49
25.3999999999999986
 74
0
 49
-12.6999999999999993
 74
0
 49
25.3999999999999986
 74
0
 49
-12.6999999999999993
 74
0
 49
0.0
 74
0
 49
-12.6999999999999993
 74
0
  0
ENDTAB
  0
TABLE
  2
LAYER
  5
2
100
AcDbSymbolTable
 70
1
  0
LAYER
  5
10
100
AcDbSymbolTableRecord
100
AcDbLayerTableRecord
  2
0
 70
0
 62
7
  6
CONTINUOUS
370
-3
390
F
  0
ENDTAB
  0
TABLE
  2
STYLE
  5
3
100
AcDbSymbolTable
 70
1
  0
STYLE
  5
11
100
AcDbSymbolTableRecord
100
AcDbTextStyleTableRecord
  2
Standard
 70
0
 40
0.0
 41
0.75
 50
0.0
 71
0
 42
2.5
  3
txt
  4

  0
ENDTAB
  0
TABLE
  2
VIEW
  5
6
100
AcDbSymbolTable
 70
0
  0
ENDTAB
  0
TABLE
  2
UCS
  5
7
100
AcDbSymbolTable
 70
0
  0
ENDTAB
  0
TABLE
  2
APPID
  5
9
100
AcDbSymbolTable
 70
1
  0
APPID
  5
12
100
AcDbSymbolTableRecord
100
AcDbRegAppTableRecord
  2
ACAD
 70
0
  0
ENDTAB
  0
TABLE
  2
DIMSTYLE
  5
A
100
AcDbSymbolTable
 70
1
100
AcDbDimStyleTable
 71
0
  0
DIMSTYLE
105
27
100
AcDbSymbolTableRecord
100
AcDbDimStyleTableRecord
  2
Standard
 41
3.302
 42
1.0
 43
3.75
 44
1.0
 70
0
 73
0
 74
0
 77
1
 78
8
140
3.5
141
2.5
143
0.03937007874016
147
1.524
171
3
172
1
271
2
272
2
274
3
278
44
283
0
284
8
340
11
  0
ENDTAB
  0
TABLE
  2
BLOCK_RECORD
  5
1
100
AcDbSymbolTable
 70
1
  0
BLOCK_RECORD
  5
1F
100
AcDbSymbolTableRecord
100
AcDbBlockTableRecord
  2
*Model_Space
340
22
  0
BLOCK_RECORD
  5
1B
100
AcDbSymbolTableRecord
100
AcDbBlockTableRecord
  2
*Paper_Space
340
1E
  0
BLOCK_RECORD
  5
23
100
AcDbSymbolTableRecord
100
AcDbBlockTableRecord
  2
*Paper_Space0
340
26
  0
BLOCK_RECORD
  5
43
100
AcDbSymbolTableRecord
100
AcDbBlockTableRecord
  2
_Closed
340
0
  0
BLOCK_RECORD
  5
44
100
AcDbSymbolTableRecord
100
AcDbBlockTableRecord
  2
SW_CENTERMARKSYMBOL_0
340
0
  0
ENDTAB
  0
ENDSEC
  0
SECTION
  2
BLOCKS
  0
BLOCK
  5
20
100
AcDbEntity
  8
0
100
AcDbBlockBegin
  2
*Model_Space
 70
0
 10
0.0
 20
0.0
 30
0.0
  3
*Model_Space
  1

  0
ENDBLK
  5
21
100
AcDbEntity
  8
0
100
AcDbBlockEnd
  0
BLOCK
  5
1C
100
AcDbEntity
 67
1
  8
0
100
AcDbBlockBegin
  2
*Paper_Space
 70
0
 10
0.0
 20
0.0
 30
0.0
  3
*Paper_Space
  1

  0
ENDBLK
  5
1D
100
AcDbEntity
 67
1
  8
0
100
AcDbBlockEnd
  0
BLOCK
  5
24
100
AcDbEntity
  8
0
100
AcDbBlockBegin
  2
*Paper_Space0
 70
0
 10
0.0
 20
0.0
 30
0.0
  3
*Paper_Space0
  1

  0
ENDBLK
  5
25
100
AcDbEntity
  8
0
100
AcDbBlockEnd
  0
BLOCK
  5
45
100
AcDbEntity
  8
0
100
AcDbBlockBegin
  2
_Closed
 70
0
 10
0.0
 20
0.0
 30
0.0
  3
_Closed
  1

  0
LINE
  5
46
100
AcDbEntity
100
AcDbLine
  8
0
 62
0
370
-2
  6
ByBlock
 10
-1.0
 20
0.166667
 30
0.0
 11
0.0
 21
0.0
 31
0.0
  0
LINE
  5
47
100
AcDbEntity
100
AcDbLine
  8
0
 62
0
370
-2
  6
ByBlock
 10
0.0
 20
0.0
 30
0.0
 11
-1.0
 21
-0.166667
 31
0.0
  0
LINE
  5
48
100
AcDbEntity
100
AcDbLine
  8
0
 62
0
370
-2
  6
ByBlock
 10
-1.0
 20
0.166667
 30
0.0
 11
-1.0
 21
-0.166667
 31
0.0
  0
LINE
  5
49
100
AcDbEntity
100
AcDbLine
  8
0
 62
0
370
-2
  6
ByBlock
 10
0.0
 20
0.0
 30
0.0
 11
-1.0
 21
0.0
 31
0.0
  0
ENDBLK
  5
4A
100
AcDbEntity
  8
0
100
AcDbBlockEnd
  0
BLOCK
  5
4B
100
AcDbEntity
  8
0
100
AcDbBlockBegin
  2
SW_CENTERMARKSYMBOL_0
 70
0
 10
0.0
 20
0.0
 30
0.0
  3
SW_CENTERMARKSYMBOL_0
  1

  0
LINE
  5
4C
100
AcDbEntity
100
AcDbLine
  8
0
 62
0
370
0
  6
CONTINUOUS
 10
0.0
 20
0.0
 30
0.0
 11
0.0
 21
2.5
 31
0.0
  0
LINE
  5
4D
100
AcDbEntity
100
AcDbLine
  8
0
 62
0
370
0
  6
CONTINUOUS
 10
0.0
 20
0.0
 30
0.0
 11
-2.5
 21
0.0
 31
0.0
  0
LINE
  5
4E
100
AcDbEntity
100
AcDbLine
  8
0
 62
0
370
0
  6
CONTINUOUS
 10
0.0
 20
0.0
 30
0.0
 11
0.0
 21
-2.5
 31
0.0
  0
LINE
  5
4F
100
AcDbEntity
100
AcDbLine
  8
0
 62
0
370
0
  6
CONTINUOUS
 10
0.0
 20
0.0
 30
0.0
 11
2.5
 21
0.0
 31
0.0
  0
LINE
  5
50
100
AcDbEntity
100
AcDbLine
  8
0
 62
0
370
0
  6
CONTINUOUS
 10
0.0
 20
5.0
 30
0.0
 11
0.0
 21
20.0
 31
0.0
  0
LINE
  5
51
100
AcDbEntity
100
AcDbLine
  8
0
 62
0
370
0
  6
CONTINUOUS
 10
-5.0
 20
0.0
 30
0.0
 11
-20.0
 21
0.0
 31
0.0
  0
LINE
  5
52
100
AcDbEntity
100
AcDbLine
  8
0
 62
0
370
0
  6
CONTINUOUS
 10
0.0
 20
-5.0
 30
0.0
 11
0.0
 21
-22.9894909373000011
 31
0.0
  0
LINE
  5
53
100
AcDbEntity
100
AcDbLine
  8
0
 62
0
370
0
  6
CONTINUOUS
 10
5.0
 20
0.0
 30
0.0
 11
20.0
 21
0.0
 31
0.0
  0
ENDBLK
  5
54
100
AcDbEntity
  8
0
100
AcDbBlockEnd
  0
ENDSEC
  0
SECTION
  2
ENTITIES
  0
HATCH
  5
55
  8
0
 62
7
370
0
  6
CONTINUOUS
100
AcDbEntity
100
AcDbHatch
 10
0.0
 20
0.0
 30
0.0
210
0.0
220
0.0
230
1.0
  2
ANSI31
 70
0
 71
0
 91
2
 92
1
 93
4
 72
2
 10
63.3463629425792689
 20
87.7612215298519658
 40
15.0
 50
11.53695903281527
 51
348.4630409671851226
 73
1
 72
1
 10
78.0433013992783344
 20
84.7612215298519089
 11
74.346362942579276
 21
84.7612215298519232
 72
1
 10
74.346362942579276
 20
84.7612215298519232
 11
74.3463629425793044
 21
90.7612215298519232
 72
1
 10
74.3463629425793044
 20
90.7612215298519232
 11
78.0433013992783486
 21
90.7612215298519089
 97
0
 92
1
 93
1
 72
2
 10
63.3463629425792689
 20
87.7612215298519658
 40
2.9999999999999969
 50
90.0000000000002984
 51
90.0000000000010658
 73
0
 97
0
 75
0
 76
1
 52
0.0
 41
1.0
 77
0
 78
1
 53
45.0
 43
0.0
 44
0.0
 45
-0.0883883476483184
 46
0.0883883476483185
 79
0
 98
0
  0
HATCH
  5
56
  8
0
 62
7
370
0
  6
CONTINUOUS
100
AcDbEntity
100
AcDbHatch
 10
0.0
 20
0.0
 30
0.0
210
0.0
220
0.0
230
1.0
  2
ANSI31
 70
0
 71
0
 91
1
 92
1
 93
4
 72
2
 10
187.2336012809859085
 20
91.981224782255353
 40
14.9999999999999893
 50
11.5369590328153109
 51
348.4630409671851226
 73
1
 72
1
 10
201.9305397376849101
 20
88.9812247822553104
 11
198.2336012809859085
 21
88.9812247822553246
 72
1
 10
198.2336012809859085
 20
88.9812247822553246
 11
198.2336012809859085
 21
94.9812247822553388
 72
1
 10
198.2336012809859085
 20
94.9812247822553388
 11
201.9305397376849953
 21
94.9812247822553104
 97
0
 75
0
 76
1
 52
0.0
 41
1.0
 77
0
 78
1
 53
45.0
 43
0.0
 44
0.0
 45
-0.0883883476483184
 46
0.0883883476483185
 79
0
 98
0
  0
HATCH
  5
57
  8
0
 62
7
370
0
  6
CONTINUOUS
100
AcDbEntity
100
AcDbHatch
 10
0.0
 20
0.0
 30
0.0
210
0.0
220
0.0
230
1.0
  2
ANSI31
 70
0
 71
0
 91
1
 92
1
 93
7
 72
2
 10
230.3311318451941929
 20
112.9960365182063953
 40
10.0000000000000107
 50
90.0
 51
135.5729959991940916
 73
0
 72
1
 10
223.1897034166514118
 20
105.9960365182063953
 11
212.553620795405493
 21
105.9960365182063953
 72
1
 10
212.553620795405493
 20
105.9960365182063953
 11
212.553620795405493
 21
75.9960365182064095
 72
1
 10
212.553620795405493
 20
75.9960365182064095
 11
241.8311318451941929
 21
75.9960365182064095
 72
1
 10
241.8311318451941929
 20
75.9960365182064095
 11
243.3311318451941929
 21
77.4960365182064095
 72
1
 10
243.3311318451941929
 20
77.4960365182064095
 11
243.3311318451941929
 21
102.9960365182063953
 72
1
 10
243.3311318451941929
 20
102.9960365182063953
 11
230.3311318451941929
 21
102.9960365182063953
 97
0
 75
0
 76
1
 52
0.0
 41
1.0
 77
0
 78
1
 53
45.0
 43
0.0
 44
0.0
 45
-0.0883883476483184
 46
0.0883883476483185
 79
0
 98
0
  0
LINE
  5
58
100
AcDbEntity
100
AcDbLine
  8
0
 62
7
370
15
  6
CONTINUOUS
 10
108.8311318452000052
 20
56.1283265197000034
 30
0.0
 11
96.3311318452000052
 21
56.1283265197000034
 31
0.0
  0
LINE
  5
59
100
AcDbEntity
100
AcDbLine
  8
0
 62
7
370
15
  6
CONTINUOUS
 10
96.3311318452000052
 20
21.1283265196999999
 30
0.0
 11
108.8311318452000052
 21
21.1283265196999999
 31
0.0
  0
LINE
  5
5A
100
AcDbEntity
100
AcDbLine
  8
0
 62
7
370
15
  6
CONTINUOUS
 10
126.8311318452000052
 20
55.6283265197000034
 30
0.0
 11
108.8311318452000052
 21
55.6283265197000034
 31
0.0
  0
LINE
  5
5B
100
AcDbEntity
100
AcDbLine
  8
0
 62
7
370
15
  6
CONTINUOUS
 10
108.8311318452000052
 20
21.6283265196999999
 30
0.0
 11
126.8311318452000052
 21
21.6283265196999999
 31
0.0
  0
LINE
  5
5C
100
AcDbEntity
100
AcDbLine
  8
0
 62
7
370
15
  6
CONTINUOUS
 10
241.8311318451999909
 20
53.6283265197000034
 30
0.0
 11
126.8311318452000052
 21
53.6283265197000034
 31
0.0
  0
LINE
  5
5D
100
AcDbEntity
100
AcDbLine
  8
0
 62
7
370
15
  6
CONTINUOUS
 10
126.8311318452000052
 20
23.6283265196999999
 30
0.0
 11
241.8311318451999909
 21
23.6283265196999999
 31
0.0
  0
LINE
  5
5E
100
AcDbEntity
100
AcDbLine
  8
0
 62
7
370
15
  6
CONTINUOUS
 10
96.3311318452000052
 20
53.6283265197000034
 30
0.0
 11
50.8311318451999981
 21
53.6283265197000034
 31
0.0
  0
LINE
  5
5F
100
AcDbEntity
100
AcDbLine
  8
0
 62
7
370
15
  6
CONTINUOUS
 10
50.8311318451999981
 20
23.6283265196999999
 30
0.0
 11
96.3311318452000052
 21
23.6283265196999999
 31
0.0
  0
LINE
  5
60
100
AcDbEntity
100
AcDbLine
  8
0
 62
7
370
15
  6
CONTINUOUS
 10
241.8311318451999909
 20
23.6283265196999999
 30
0.0
 11
243.3311318451999909
 21
25.1283265196999999
 31
0.0
  0
LINE
  5
61
100
AcDbEntity
100
AcDbLine
  8
0
 62
7
370
15
  6
CONTINUOUS
 10
243.3311318451999909
 20
52.1283265197000034
 30
0.0
 11
241.8311318451999909
 21
53.6283265197000034
 31
0.0
  0
LINE
  5
62
100
AcDbEntity
100
AcDbLine
  8
0
 62
7
370
15
  6
CONTINUOUS
 10
50.8311318451999981
 20
53.6283265197000034
 30
0.0
 11
49.3311318451999981
 21
52.1283265197000034
 31
0.0
  0
LINE
  5
63
100
AcDbEntity
100
AcDbLine
  8
0
 62
7
370
15
  6
CONTINUOUS
 10
49.3311318451999981
 20
25.1283265196999999
 30
0.0
 11
50.8311318451999981
 21
23.6283265196999999
 31
0.0
  0
LINE
  5
64
100
AcDbEntity
100
AcDbLine
  8
0
 62
7
370
15
  6
CONTINUOUS
 10
108.8311318452000052
 20
38.6283265197000034
 30
0.0
 11
108.8311318452000052
 21
21.1283265196999999
 31
0.0
  0
LINE
  5
65
100
AcDbEntity
100
AcDbLine
  8
0
 62
7
370
15
  6
CONTINUOUS
 10
108.8311318452000052
 20
56.1283265197000034
 30
0.0
 11
108.8311318452000052
 21
38.6283265197000034
 31
0.0
  0
LINE
  5
66
100
AcDbEntity
100
AcDbLine
  8
0
 62
7
370
15
  6
CONTINUOUS
 10
96.3311318452000052
 20
38.6283265197000034
 30
0.0
 11
96.3311318452000052
 21
21.1283265196999999
 31
0.0
  0
LINE
  5
67
100
AcDbEntity
100
AcDbLine
  8
0
 62
7
370
15
  6
CONTINUOUS
 10
96.3311318452000052
 20
56.1283265197000034
 30
0.0
 11
96.3311318452000052
 21
38.6283265197000034
 31
0.0
  0
LINE
  5
68
100
AcDbEntity
100
AcDbLine
  8
0
 62
7
370
15
  6
CONTINUOUS
 10
126.8311318452000052
 20
38.6283265197000034
 30
0.0
 11
126.8311318452000052
 21
21.6283265196999999
 31
0.0
  0
LINE
  5
69
100
AcDbEntity
100
AcDbLine
  8
0
 62
7
370
15
  6
CONTINUOUS
 10
126.8311318452000052
 20
55.6283265197000034
 30
0.0
 11
126.8311318452000052
 21
38.6283265197000034
 31
0.0
  0
LINE
  5
6A
100
AcDbEntity
100
AcDbLine
  8
0
 62
7
370
15
  6
CONTINUOUS
 10
223.2641870674999893
 20
37.1283265197000034
 30
0.0
 11
241.8311318451999909
 21
37.1283265197000034
 31
0.0
  0
LINE
  5
6B
100
AcDbEntity
100
AcDbLine
  8
0
 62
7
370
15
  6
CONTINUOUS
 10
241.8311318451999909
 20
37.1283265197000034
 30
0.0
 11
241.8311318451999909
 21
23.6283265196999999
 31
0.0
  0
LINE
  5
6C
100
AcDbEntity
100
AcDbLine
  8
0
 62
7
370
15
  6
CONTINUOUS
 10
241.8311318451999909
 20
53.6283265197000034
 30
0.0
 11
241.8311318451999909
 21
40.1283265197000034
 31
0.0
  0
LINE
  5
6D
100
AcDbEntity
100
AcDbLine
  8
0
 62
7
370
15
  6
CONTINUOUS
 10
223.2641870674999893
 20
40.1283265197000034
 30
0.0
 11
241.8311318451999909
 21
40.1283265197000034
 31
0.0
  0
SPLINE
  5
6E
  8
0
 62
7
370
15
  6
CONTINUOUS
100
AcDbEntity
100
AcDbSpline
 70
8
 71
3
 72
9
 73
5
 74
0
 40
0.0
 40
0.0
 40
0.0
 40
0.0
 40
0.5
 40
1.0
 40
1.0
 40
1.0
 40
1.0
 10
223.2641870675431903
 20
40.128326519729292
 30
0.0
 10
223.2138765574188142
 20
39.628326519729292
 30
0.0
 10
223.1655302758840094
 20
38.628326519729292
 30
0.0
 10
223.2138765574187005
 20
37.6283265197292991
 30
0.0
 10
223.2641870675431903
 20
37.1283265197292991
 30
0.0
  0
LINE
  5
6F
100
AcDbEntity
100
AcDbLine
  8
0
 62
7
370
15
  6
CONTINUOUS
 10
143.8311318451999909
 20
35.6283265197000034
 30
0.0
 11
197.8311318451999909
 21
35.6283265197000034
 31
0.0
  0
SPLINE
  5
70
  8
0
 62
7
370
15
  6
CONTINUOUS
100
AcDbEntity
100
AcDbSpline
 70
8
 71
3
 72
38
 73
34
 74
0
 40
0.0
 40
0.0
 40
0.0
 40
0.0
 40
0.032258064516129
 40
0.0645161290322581
 40
0.0967741935483871
 40
0.1290322580645161
 40
0.1612903225806452
 40
0.1935483870967742
 40
0.2258064516129032
 40
0.2580645161290323
 40
0.2903225806451613
 40
0.3225806451612903
 40
0.3548387096774194
 40
0.3870967741935484
 40
0.4193548387096774
 40
0.4516129032258064
 40
0.4838709677419355
 40
0.5161290322580645
 40
0.5483870967741935
 40
0.5806451612903226
 40
0.6129032258064516
 40
0.6451612903225806
 40
0.6774193548387096
 40
0.7096774193548387
 40
0.7419354838709677
 40
0.7741935483870968
 40
0.8064516129032258
 40
0.8387096774193549
 40
0.8709677419354839
 40
0.9032258064516129
 40
0.9354838709677419
 40
0.967741935483871
 40
1.0
 40
1.0
 40
1.0
 40
1.0
 10
197.8311318451941929
 20
35.6283265197293133
 30
0.0
 10
198.0273430867065088
 20
35.6283265197293133
 30
0.0
 10
198.2266948945558909
 20
35.6480439140429226
 30
0.0
 10
198.6117813230279125
 20
35.7250282352716226
 30
0.0
 10
198.7990019216885003
 20
35.7819243512524494
 30
0.0
 10
199.16277129333929
 20
35.9328647467066205
 30
0.0
 10
199.3375772340463072
 20
36.0266539910702477
 30
0.0
 10
199.6619094666600063
 20
36.2437236268532033
 30
0.0
 10
199.8139590837319872
 20
36.3684013599211085
 30
0.0
 10
200.0926501128377879
 20
36.6473164968026666
 30
0.0
 10
200.2163259473977917
 20
36.7983102136978175
 30
0.0
 10
200.4333762922416042
 20
37.1228583455923271
 30
0.0
 10
200.5274755444575874
 20
37.298568154724407
 30
0.0
 10
200.6777527141950941
 20
37.6612296879558386
 30
0.0
 10
200.7346067302514996
 20
37.8482689074794791
 30
0.0
 10
200.8115802407733952
 20
38.2338855889465634
 30
0.0
 10
200.8311790939712864
 20
38.4330052446925876
 30
0.0
 10
200.8310844215154134
 20
38.8250965255770666
 30
0.0
 10
200.8120080790741895
 20
39.0203051165510075
 30
0.0
 10
200.7345477920177075
 20
39.4089968610438106
 30
0.0
 10
200.677013628050787
 20
39.597440052049123
 30
0.0
 10
200.527162154286998
 20
39.9586064650691313
 30
0.0
 10
200.433477761055002
 20
40.1337776205349002
 30
0.0
 10
200.2149493825953925
 20
40.4602657193460402
 30
0.0
 10
200.0911253792988873
 20
40.6109194743801609
 30
0.0
 10
199.8146090838457098
 20
40.8875440041202367
 30
0.0
 10
199.6606119170259035
 20
41.0139434129308569
 30
0.0
 10
199.3357715014176108
 20
41.2310606204929897
 30
0.0
 10
199.1637018019416985
 20
41.3233438458384228
 30
0.0
 10
198.7995832192802084
 20
41.4745455931116211
 30
0.0
 10
198.6097723782154958
 20
41.5321175268276477
 30
0.0
 10
198.2260078323768084
 20
41.6086547310703878
 30
0.0
 10
198.0292171335242983
 20
41.628326519729292
 30
0.0
 10
197.8311318451941929
 20
41.628326519729292
 30
0.0
  0
LINE
  5
71
100
AcDbEntity
100
AcDbLine
  8
0
 62
7
370
15
  6
CONTINUOUS
 10
197.8311318451999909
 20
41.6283265197000034
 30
0.0
 11
143.8311318451999909
 21
41.6283265197000034
 31
0.0
  0
SPLINE
  5
72
  8
0
 62
7
370
15
  6
CONTINUOUS
100
AcDbEntity
100
AcDbSpline
 70
8
 71
3
 72
38
 73
34
 74
0
 40
0.0
 40
0.0
 40
0.0
 40
0.0
 40
0.032258064516129
 40
0.0645161290322581
 40
0.0967741935483871
 40
0.1290322580645161
 40
0.1612903225806452
 40
0.1935483870967742
 40
0.2258064516129032
 40
0.2580645161290323
 40
0.2903225806451613
 40
0.3225806451612903
 40
0.3548387096774194
 40
0.3870967741935484
 40
0.4193548387096774
 40
0.4516129032258064
 40
0.4838709677419355
 40
0.5161290322580645
 40
0.5483870967741935
 40
0.5806451612903226
 40
0.6129032258064516
 40
0.6451612903225806
 40
0.6774193548387096
 40
0.7096774193548387
 40
0.7419354838709677
 40
0.7741935483870968
 40
0.8064516129032258
 40
0.8387096774193549
 40
0.8709677419354839
 40
0.9032258064516129
 40
0.9354838709677419
 40
0.967741935483871
 40
1.0
 40
1.0
 40
1.0
 40
1.0
 10
143.8311318451941929
 20
41.6283265197292991
 30
0.0
 10
143.6324269967323062
 20
41.6283265197292991
 30
0.0
 10
143.4371450916655135
 20
41.6087806546934971
 30
0.0
 10
143.0531147516232124
 20
41.5322930854274404
 30
0.0
 10
142.8623423039340992
 20
41.4743882093091827
 30
0.0
 10
142.4993414069961943
 20
41.323684482018102
 30
0.0
 10
142.3272530039095898
 20
41.2315372129228876
 30
0.0
 10
142.0015662579110085
 20
41.0139181118192582
 30
0.0
 10
141.8477566846410127
 20
40.8875943942879871
 30
0.0
 10
141.5718302140319054
 20
40.6116632273863374
 30
0.0
 10
141.4478246322887003
 20
40.4610068229464019
 30
0.0
 10
141.2284764236594015
 20
40.1333365268862607
 30
0.0
 10
141.1355773530482054
 20
39.9595374260143501
 30
0.0
 10
140.9857455202239862
 20
39.5988486260272978
 30
0.0
 10
140.9278409483578969
 20
39.4093001976924313
 30
0.0
 10
140.8505060559758135
 20
39.0218844214038185
 30
0.0
 10
140.8312920322092054
 20
38.8269330507308226
 30
0.0
 10
140.8309736339143114
 20
38.4345891588101125
 30
0.0
 10
140.8505200206060977
 20
38.2352609091461204
 30
0.0
 10
140.9271722682358927
 20
37.8501451793656969
 30
0.0
 10
140.9839017737047016
 20
37.6629032647450188
 30
0.0
 10
141.1344921267113932
 20
37.2990803536789812
 30
0.0
 10
141.2281386862638897
 20
37.1241666981077074
 30
0.0
 10
141.4449000374856098
 20
36.7996745806500414
 30
0.0
 10
141.5693757254840932
 20
36.6475880720331801
 30
0.0
 10
141.8480330985989895
 20
36.368639615647119
 30
0.0
 10
141.9988916893838109
 20
36.2448447557456035
 30
0.0
 10
142.3231425554903069
 20
36.0275463271822574
 30
0.0
 10
142.4986896889400043
 20
35.9333102301921627
 30
0.0
 10
142.8611445834044105
 20
35.7826913335890708
 30
0.0
 10
143.0480794246998926
 20
35.7256623437745517
 30
0.0
 10
143.4334857225013025
 20
35.6483084035561006
 30
0.0
 10
143.6324257024901954
 20
35.628326519729292
 30
0.0
 10
143.8311318451941929
 20
35.628326519729292
 30
0.0
  0
SPLINE
  5
73
  8
0
 62
7
370
15
  6
CONTINUOUS
100
AcDbEntity
100
AcDbSpline
 70
8
 71
3
 72
38
 73
34
 74
0
 40
0.0
 40
0.0
 40
0.0
 40
0.0
 40
0.032258064516129
 40
0.0645161290322581
 40
0.0967741935483871
 40
0.1290322580645161
 40
0.1612903225806452
 40
0.1935483870967742
 40
0.2258064516129032
 40
0.2580645161290323
 40
0.2903225806451613
 40
0.3225806451612903
 40
0.3548387096774194
 40
0.3870967741935484
 40
0.4193548387096774
 40
0.4516129032258064
 40
0.4838709677419355
 40
0.5161290322580645
 40
0.5483870967741935
 40
0.5806451612903226
 40
0.6129032258064516
 40
0.6451612903225806
 40
0.6774193548387096
 40
0.7096774193548387
 40
0.7419354838709677
 40
0.7741935483870968
 40
0.8064516129032258
 40
0.8387096774193549
 40
0.8709677419354839
 40
0.9032258064516129
 40
0.9354838709677419
 40
0.967741935483871
 40
1.0
 40
1.0
 40
1.0
 40
1.0
 10
73.3311318451942071
 20
35.6283265197292991
 30
0.0
 10
73.5273430867065372
 20
35.6283265197292991
 30
0.0
 10
73.726694894555834
 20
35.6480439140429013
 30
0.0
 10
74.1117813230279836
 20
35.7250282352716013
 30
0.0
 10
74.2990019216884718
 20
35.7819243512524281
 30
0.0
 10
74.6627712933393184
 20
35.9328647467065991
 30
0.0
 10
74.8375772340462646
 20
36.0266539910702477
 30
0.0
 10
75.1619094666599352
 20
36.243723626853189
 30
0.0
 10
75.3139590837319872
 20
36.3684013599210871
 30
0.0
 10
75.5926501128378021
 20
36.6473164968026595
 30
0.0
 10
75.7163259473978769
 20
36.7983102136978104
 30
0.0
 10
75.9333762922416042
 20
37.1228583455923129
 30
0.0
 10
76.0274755444575447
 20
37.298568154724407
 30
0.0
 10
76.1777527141950941
 20
37.6612296879558315
 30
0.0
 10
76.234606730251457
 20
37.848268907479472
 30
0.0
 10
76.3115802407733668
 20
38.2338855889465492
 30
0.0
 10
76.3311790939713433
 20
38.4330052446925876
 30
0.0
 10
76.3310844215153566
 20
38.8250965255770666
 30
0.0
 10
76.3120080790742179
 20
39.0203051165510075
 30
0.0
 10
76.2345477920176933
 20
39.4089968610438106
 30
0.0
 10
76.1770136280508723
 20
39.597440052049123
 30
0.0
 10
76.0271621542870975
 20
39.9586064650691384
 30
0.0
 10
75.9334777610550447
 20
40.1337776205349073
 30
0.0
 10
75.714949382595492
 20
40.4602657193460473
 30
0.0
 10
75.5911253792989015
 20
40.610919474380168
 30
0.0
 10
75.3146090838456956
 20
40.8875440041202509
 30
0.0
 10
75.1606119170259461
 20
41.0139434129308569
 30
0.0
 10
74.835771501417554
 20
41.2310606204929826
 30
0.0
 10
74.6637018019417127
 20
41.323343845838437
 30
0.0
 10
74.2995832192802084
 20
41.4745455931116425
 30
0.0
 10
74.1097723782155242
 20
41.5321175268276619
 30
0.0
 10
73.7260078323767942
 20
41.6086547310703878
 30
0.0
 10
73.529217133524341
 20
41.628326519729292
 30
0.0
 10
73.3311318451942213
 20
41.628326519729292
 30
0.0
  0
LINE
  5
74
100
AcDbEntity
100
AcDbLine
  8
0
 62
7
370
15
  6
CONTINUOUS
 10
73.3311318452000052
 20
41.6283265197000034
 30
0.0
 11
50.8311318451999981
 21
41.6283265197000034
 31
0.0
  0
LINE
  5
75
100
AcDbEntity
100
AcDbLine
  8
0
 62
7
370
15
  6
CONTINUOUS
 10
50.8311318451999981
 20
35.6283265197000034
 30
0.0
 11
50.8311318451999981
 21
23.6283265196999999
 31
0.0
  0
LINE
  5
76
100
AcDbEntity
100
AcDbLine
  8
0
 62
7
370
15
  6
CONTINUOUS
 10
50.8311318451999981
 20
53.6283265197000034
 30
0.0
 11
50.8311318451999981
 21
41.6283265197000034
 31
0.0
  0
LINE
  5
77
100
AcDbEntity
100
AcDbLine
  8
0
 62
7
370
15
  6
CONTINUOUS
 10
50.8311318451999981
 20
35.6283265197000034
 30
0.0
 11
73.3311318452000052
 21
35.6283265197000034
 31
0.0
  0
SPLINE
  5
78
  8
0
 62
7
370
15
  6
CONTINUOUS
100
AcDbEntity
100
AcDbSpline
 70
8
 71
3
 72
8
 73
4
 74
0
 40
0.0
 40
0.0
 40
0.0
 40
0.0
 40
1.0
 40
1.0
 40
1.0
 40
1.0
 10
241.8311318451941929
 20
37.1283265197292991
 30
0.0
 10
242.3312729736915117
 20
37.1283265197292991
 30
0.0
 10
242.8312887694625886
 20
37.1283265197292991
 30
0.0
 10
243.3311318451941929
 20
37.1283265197292991
 30
0.0
  0
LINE
  5
79
100
AcDbEntity
100
AcDbLine
  8
0
 62
7
370
15
  6
CONTINUOUS
 10
243.3311318451999909
 20
37.1283265197000034
 30
0.0
 11
243.3311318451999909
 21
25.1283265196999999
 31
0.0
  0
LINE
  5
7A
100
AcDbEntity
100
AcDbLine
  8
0
 62
7
370
15
  6
CONTINUOUS
 10
243.3311318451999909
 20
52.1283265197000034
 30
0.0
 11
243.3311318451999909
 21
40.1283265197000034
 31
0.0
  0
SPLINE
  5
7B
  8
0
 62
7
370
15
  6
CONTINUOUS
100
AcDbEntity
100
AcDbSpline
 70
8
 71
3
 72
8
 73
4
 74
0
 40
0.0
 40
0.0
 40
0.0
 40
0.0
 40
1.0
 40
1.0
 40
1.0
 40
1.0
 10
241.8311318451941929
 20
40.128326519729292
 30
0.0
 10
242.3312729736915117
 20
40.1283265197292991
 30
0.0
 10
242.8312887694625886
 20
40.1283265197292991
 30
0.0
 10
243.3311318451941929
 20
40.1283265197292991
 30
0.0
  0
SPLINE
  5
7C
  8
0
 62
7
370
15
  6
CONTINUOUS
100
AcDbEntity
100
AcDbSpline
 70
8
 71
3
 72
8
 73
4
 74
0
 40
0.0
 40
0.0
 40
0.0
 40
0.0
 40
1.0
 40
1.0
 40
1.0
 40
1.0
 10
50.8311318451942213
 20
41.628326519729292
 30
0.0
 10
50.3305386383249314
 20
41.6283265197292991
 30
0.0
 10
49.8304673458168921
 20
41.6283265197292991
 30
0.0
 10
49.3311318451942213
 20
41.6283265197292991
 30
0.0
  0
LINE
  5
7D
100
AcDbEntity
100
AcDbLine
  8
0
 62
7
370
15
  6
CONTINUOUS
 10
49.3311318451999981
 20
35.6283265197000034
 30
0.0
 11
49.3311318451999981
 21
25.1283265196999999
 31
0.0
  0
LINE
  5
7E
100
AcDbEntity
100
AcDbLine
  8
0
 62
7
370
15
  6
CONTINUOUS
 10
49.3311318451999981
 20
52.1283265197000034
 30
0.0
 11
49.3311318451999981
 21
41.6283265197000034
 31
0.0
  0
SPLINE
  5
7F
  8
0
 62
7
370
15
  6
CONTINUOUS
100
AcDbEntity
100
AcDbSpline
 70
8
 71
3
 72
8
 73
4
 74
0
 40
0.0
 40
0.0
 40
0.0
 40
0.0
 40
1.0
 40
1.0
 40
1.0
 40
1.0
 10
49.3311318451942213
 20
35.6283265197293133
 30
0.0
 10
49.8304673458168921
 20
35.6283265197292991
 30
0.0
 10
50.3305386383249314
 20
35.6283265197292991
 30
0.0
 10
50.8311318451942213
 20
35.6283265197292991
 30
0.0
  0
LINE
  5
80
100
AcDbEntity
100
AcDbLine
  8
0
 62
7
370
15
  6
CONTINUOUS
 10
243.3311318451999909
 20
37.1283265197000034
 30
0.0
 11
243.3311318451999909
 21
40.1283265197000034
 31
0.0
  0
LINE
  5
81
100
AcDbEntity
100
AcDbLine
  8
0
 62
7
370
15
  6
CONTINUOUS
 10
49.3311318451999981
 20
35.6283265197000034
 30
0.0
 11
49.3311318451999981
 21
41.6283265197000034
 31
0.0
  0
LINE
  5
82
100
AcDbEntity
100
AcDbLine
  8
0
 62
7
370
0
  6
CONTINUOUS
 10
50.6463629425999997
 20
59.1545849476000001
 30
0.0
 11
63.3463629426000026
 21
59.1545849476000001
 31
0.0
  0
INSERT
  5
83
100
AcDbEntity
100
AcDbBlockReference
  8
0
 62
7
370
0
  6
CONTINUOUS
  2
_Closed
 10
63.3463629426000026
 20
59.1545849476000001
 30
0.0
 41
6.3499999999999996
 42
6.3499999999999996
 43
1.0
 50
360.0
  0
LINE
  5
84
100
AcDbEntity
100
AcDbLine
  8
0
 62
7
370
0
  6
CENTER
 10
187.5350300846999971
 20
12.0216899374999997
 30
0.0
 11
187.5350300846999971
 21
64.1688729850999948
 31
0.0
  0
LINE
  5
85
100
AcDbEntity
100
AcDbLine
  8
0
 62
7
370
0
  6
CONTINUOUS
 10
174.8350300847000085
 20
14.0216899374999997
 30
0.0
 11
187.5350300846999971
 21
14.0216899374999997
 31
0.0
  0
INSERT
  5
86
100
AcDbEntity
100
AcDbBlockReference
  8
0
 62
7
370
0
  6
CONTINUOUS
  2
_Closed
 10
187.5350300846999971
 20
14.0216899374999997
 30
0.0
 41
6.3499999999999996
 42
6.3499999999999996
 43
1.0
 50
360.0
  0
LINE
  5
87
100
AcDbEntity
100
AcDbLine
  8
0
 62
7
370
0
  6
CONTINUOUS
 10
174.8350300847000085
 20
62.1688729851000019
 30
0.0
 11
187.5350300846999971
 21
62.1688729851000019
 31
0.0
  0
INSERT
  5
88
100
AcDbEntity
100
AcDbBlockReference
  8
0
 62
7
370
0
  6
CONTINUOUS
  2
_Closed
 10
187.5350300846999971
 20
62.1688729851000019
 30
0.0
 41
6.3499999999999996
 42
6.3499999999999996
 43
1.0
 50
360.0
  0
LINE
  5
89
100
AcDbEntity
100
AcDbLine
  8
0
 62
7
370
0
  6
CENTER
 10
251.4379364783000028
 20
38.6283265197000034
 30
0.0
 11
212.5536207954000076
 21
38.6283265197000034
 31
0.0
  0
LINE
  5
8A
100
AcDbEntity
100
AcDbLine
  8
0
 62
7
370
0
  6
CONTINUOUS
 10
249.4379364783000028
 20
25.9283265197000006
 30
0.0
 11
249.4379364783000028
 21
38.6283265197000034
 31
0.0
  0
INSERT
  5
8B
100
AcDbEntity
100
AcDbBlockReference
  8
0
 62
7
370
0
  6
CONTINUOUS
  2
_Closed
 10
249.4379364783000028
 20
38.6283265197000034
 30
0.0
 41
6.3499999999999996
 42
6.3499999999999996
 43
1.0
 50
90.0
  0
LINE
  5
8C
100
AcDbEntity
100
AcDbLine
  8
0
 62
7
370
0
  6
CONTINUOUS
 10
214.5536207954000076
 20
25.9283265197000006
 30
0.0
 11
214.5536207954000076
 21
38.6283265197000034
 31
0.0
  0
INSERT
  5
8D
100
AcDbEntity
100
AcDbBlockReference
  8
0
 62
7
370
0
  6
CONTINUOUS
  2
_Closed
 10
214.5536207954000076
 20
38.6283265197000034
 30
0.0
 41
6.3499999999999996
 42
6.3499999999999996
 43
1.0
 50
90.0
  0
LINE
  5
8E
100
AcDbEntity
100
AcDbLine
  8
0
 62
7
370
15
  6
CONTINUOUS
 10
87.2259744522000062
 20
111.9356966737999954
 30
0.0
 11
87.2259744522000062
 21
110.7110845060999935
 31
0.0
  0
LINE
  5
8F
100
AcDbEntity
100
AcDbLine
  8
0
 62
7
370
15
  6
CONTINUOUS
 10
96.7703645141999971
 20
94.1779245889999999
 30
0.0
 11
97.8308522988999982
 21
93.5655189881999974
 31
0.0
  0
LINE
  5
90
100
AcDbEntity
100
AcDbLine
  8
0
 62
7
370
15
  6
CONTINUOUS
 10
122.5065442191999949
 20
137.3766533147999951
 30
0.0
 11
90.3331856751999993
 21
118.8033687708000059
 31
0.0
  0
LINE
  5
91
100
AcDbEntity
100
AcDbLine
  8
0
 62
7
370
15
  6
CONTINUOUS
 10
105.3319666647000048
 20
92.8219028994000013
 30
0.0
 11
137.5053252086999862
 21
111.3951874434000047
 31
0.0
  0
LINE
  5
92
100
AcDbEntity
100
AcDbLine
  8
0
 62
7
370
15
  6
CONTINUOUS
 10
130.0954805682000028
 20
144.6443261697000082
 30
0.0
 11
121.256645803400005
 21
139.5417754707999904
 31
0.0
  0
LINE
  5
93
100
AcDbEntity
100
AcDbLine
  8
0
 62
7
370
15
  6
CONTINUOUS
 10
138.7552236244999904
 20
109.2300652873999951
 30
0.0
 11
147.5940583892999882
 21
114.3326159862999987
 31
0.0
  0
LINE
  5
94
100
AcDbEntity
100
AcDbLine
  8
0
 62
7
370
15
  6
CONTINUOUS
 10
143.0733823127000051
 20
151.5589747449000129
 30
0.0
 11
132.4222849676999942
 21
145.4102271273999918
 31
0.0
  0
LINE
  5
95
100
AcDbEntity
100
AcDbLine
  8
0
 62
7
370
15
  6
CONTINUOUS
 10
149.4209034225999915
 20
115.9645658064000031
 30
0.0
 11
160.0720007674999863
 21
122.1133134238999958
 31
0.0
  0
LINE
  5
96
100
AcDbEntity
100
AcDbLine
  8
0
 62
7
370
15
  6
CONTINUOUS
 10
225.3905808817999912
 20
196.7703434498999968
 30
0.0
 11
148.0736260884000046
 21
152.1362155118000032
 31
0.0
  0
LINE
  5
97
100
AcDbEntity
100
AcDbLine
  8
0
 62
7
370
15
  6
CONTINUOUS
 10
163.0724070779000101
 20
126.1547496403999986
 30
0.0
 11
240.3893618714000127
 21
170.7888775785000064
 31
0.0
  0
LINE
  5
98
100
AcDbEntity
100
AcDbLine
  8
0
 62
7
370
15
  6
CONTINUOUS
 10
243.4965730943999915
 20
177.6565496755000026
 30
0.0
 11
243.4965730943999915
 21
178.8811618432999921
 31
0.0
  0
LWPOLYLINE
  5
99
  8
0
 62
7
370
15
  6
CONTINUOUS
100
AcDbEntity
100
AcDbPolyline
 90
32
 70
0
 10
99.9538965134999984
 20
116.5886737271000015
 10
100.9443262839999989
 20
115.7254110596999936
 10
101.9058603901000026
 20
114.7700985116999988
 10
102.8295700406000037
 20
113.7316071009999945
 10
103.7068776816000053
 20
112.6195802430000015
 10
104.5296366479000056
 20
111.4443442024000035
 10
105.2902068119000063
 20
110.2168122031000053
 10
105.9815255306999973
 20
108.9483830888
 10
106.5971732291999956
 20
107.6508354730000008
 10
107.1314330122000058
 20
106.336218363200004
 10
107.5793437513000015
 20
105.0167392740000025
 10
107.9367461542999962
 20
103.7046508681000034
 10
108.2003213879000043
 20
102.4121371787999948
 10
108.367621896299994
 20
101.1512004684999937
 10
108.437094129800002
 20
99.9335497763999996
 10
108.4080929699999984
 20
98.7704921883999987
 10
108.2808877214000063
 20
97.6728278396000036
 10
108.056659609999997
 20
96.650749624599996
 10
107.7374908145999939
 20
95.7137485461999944
 10
107.3263451317999966
 20
94.8705255823000044
 10
106.8270404542000023
 20
94.1289108884000001
 10
106.2442133174999981
 20
93.4957910873999936
 10
105.5832758455999993
 20
92.9770453202000056
 10
104.8503654940000018
 20
92.5774906520999963
 10
104.0522880568999966
 20
92.3008373418000048
 10
103.1964544694999972
 20
92.1496543875999947
 10
102.2908119893999981
 20
92.1253456722999999
 10
101.3437703989999932
 20
92.2281369261000066
 10
100.3641239122000002
 20
92.4570736310000001
 10
99.3609695114000004
 20
92.8100298842999933
 10
98.3436224731999999
 20
93.2837281394999991
 10
97.8308522988999982
 20
93.5655189881999974
  0
LWPOLYLINE
  5
9A
  8
0
 62
7
370
15
  6
CONTINUOUS
100
AcDbEntity
100
AcDbPolyline
 90
16
 70
0
 10
87.2259744522000062
 20
111.9356966737999954
 10
87.2280582102000039
 20
112.1772655979000035
 10
87.2975304435999959
 20
113.3147053567000029
 10
87.4648309519999998
 20
114.3824810115000048
 10
87.7284061855999937
 20
115.3706772137000058
 10
88.0858085886000026
 20
116.2701175884999998
 10
88.5337193276999983
 20
117.0724499460999937
 10
89.0679791106999943
 20
117.770223840400007
 10
89.6836268092000068
 20
118.3569597535999947
 10
90.3749455279999978
 20
118.8272092649000058
 10
91.1355156921000003
 20
119.1766056443999986
 10
91.9582746582999988
 20
119.401904402599996
 10
92.8355822993000004
 20
119.5010134186999977
 10
93.7592919498000015
 20
119.4730123678999973
 10
94.7208260559000053
 20
119.3181612676000043
 10
95.7112558264000057
 20
119.0378980625000054
  0
SPLINE
  5
9B
  8
0
 62
7
370
15
  6
CONTINUOUS
100
AcDbEntity
100
AcDbSpline
 70
8
 71
3
 72
8
 73
4
 74
0
 40
0.0
 40
0.0
 40
0.0
 40
0.0
 40
1.0
 40
1.0
 40
1.0
 40
1.0
 10
95.7112558263957425
 20
119.0378980625365983
 30
0.0
 10
95.3572829752025513
 20
118.4163702811110994
 30
0.0
 10
95.0036791731934045
 20
117.7946315849491015
 30
0.0
 10
94.6505956546159268
 20
117.1726167367261979
 30
0.0
  0
LWPOLYLINE
  5
9C
  8
0
 62
7
370
15
  6
CONTINUOUS
100
AcDbEntity
100
AcDbPolyline
 90
58
 70
0
 10
98.8932363417000033
 20
114.7233924013000035
 10
99.8332367728999941
 20
113.8741506589999943
 10
100.7411847396000013
 20
112.9340927768
 10
101.6075738975000036
 20
111.9130612945999985
 10
102.4233330285999983
 20
110.8217465574000045
 10
103.1799210189000036
 20
109.6715747859000061
 10
103.8694162841999997
 20
108.4745884423000035
 10
104.4845997108999995
 20
107.243320143899993
 10
105.0190302410999976
 20
105.990661445300006
 10
105.4671123109000064
 20
104.729727861300006
 10
105.8241544372999954
 20
103.4737215460999948
 10
106.0864183383999944
 20
102.2357930647000046
 10
106.2511580737999992
 20
101.028903704399994
 10
106.3166487950000061
 20
99.8656897687999958
 10
106.2822048049000045
 20
98.7583302734000057
 10
106.1481867369000014
 20
97.7184194297000062
 10
105.9159977792999996
 20
96.7568452522999962
 10
105.5880689834999941
 20
95.8836755597999968
 10
105.167833810700003
 20
95.1080525631000029
 10
104.6596921830000042
 20
94.4380971455999969
 10
104.0689644156000071
 20
93.8808238358000011
 10
103.4018355123999982
 20
93.4420673645000051
 10
102.6652904078000006
 20
93.1264215746000019
 10
101.8670408340999955
 20
92.9371913223999968
 10
101.0154445778999985
 20
92.8763578755000054
 10
100.1194179733000027
 20
92.9445581689000022
 10
99.1883425463999941
 20
93.1410781356999991
 10
98.2319667895000066
 20
93.4638601838999961
 10
97.2603040929000002
 20
93.9095247393999983
 10
96.2835279033999996
 20
94.4734056310999932
 10
95.311865206899995
 20
95.1495989455000029
 10
94.3554894499999932
 20
95.9310248425999958
 10
93.4244140230999989
 20
96.8095016816999987
 10
92.528387418500003
 20
97.7758316854999947
 10
91.676791162300006
 20
98.8198972410000067
 10
90.8785415884999992
 20
99.9307668333999999
 10
90.1419964840000034
 20
101.0968094999000044
 10
89.4748675807000069
 20
102.3058166075999935
 10
88.8841398132999956
 20
103.5451296800000023
 10
88.3759981855999968
 20
104.8017729328999934
 10
87.9557630128000056
 20
106.0625891324000065
 10
87.627834217100002
 20
107.3143773534000047
 10
87.3956452593999984
 20
108.5440311950000023
 10
87.2616271913999952
 20
109.7386760063999986
 10
87.2271832012999937
 20
110.8858036863999956
 10
87.2926739225000006
 20
111.9734036446999994
 10
87.457413657999993
 20
112.9900885551000016
 10
87.7196775591000062
 20
113.9252135817000067
 10
88.0767196854999952
 20
114.7689878322999988
 10
88.5248017553000039
 20
115.5125768704999984
 10
89.0592322854000003
 20
116.1481952130999957
 10
89.6744157122000018
 20
116.6691878455000051
 10
90.363910977499998
 20
117.0700999008000025
 10
91.1204989677000015
 20
117.3467337725000021
 10
91.936258098899998
 20
117.4961930647999964
 10
92.8026472568000003
 20
117.5169129175999956
 10
93.7105952234999933
 20
117.4086763908999984
 10
94.6505956545999965
 20
117.1726167366999931
  0
SPLINE
  5
9D
  8
0
 62
7
370
15
  6
CONTINUOUS
100
AcDbEntity
100
AcDbSpline
 70
8
 71
3
 72
8
 73
4
 74
0
 40
0.0
 40
0.0
 40
0.0
 40
0.0
 40
1.0
 40
1.0
 40
1.0
 40
1.0
 10
98.8932363417352178
 20
114.7233924012580957
 30
0.0
 10
99.2463198603126813
 20
115.3454072494808997
 30
0.0
 10
99.5999236623218422
 20
115.9671459456429972
 30
0.0
 10
99.9538965135150335
 20
116.5886737270684961
 30
0.0
  0
LWPOLYLINE
  5
9E
  8
0
 62
7
370
15
  6
CONTINUOUS
100
AcDbEntity
100
AcDbPolyline
 90
26
 70
0
 10
130.0059347138999897
 20
136.6340325573999905
 10
131.029619433300013
 20
135.9858932861999961
 10
132.0437462842999992
 20
135.2294481934000032
 10
133.0388466375999883
 20
134.3717600029999915
 10
134.0056295095999985
 20
133.4208367185999862
 10
134.9350683087999982
 20
132.3855568547000132
 10
135.8184851158000015
 20
131.2755865404000133
 10
136.647631705799995
 20
130.1012892694000129
 10
137.4147665604999986
 20
128.8736291390000019
 10
138.1127271484000119
 20
127.6040684811000006
 10
138.7349967997000135
 20
126.3044608415000027
 10
139.2757655501000045
 20
124.9869403065000029
 10
139.7299843877000001
 20
123.6638082103000045
 10
140.0934123934000013
 20
122.3474182809000013
 10
140.3626563379999936
 20
121.0500612964000027
 10
140.5352023631999998
 20
119.7838503292999945
 10
140.6094394534000003
 20
118.5606076502999997
 10
140.5846744767000018
 20
117.3917543466999973
 10
140.4611386571999958
 20
116.2882036869000046
 10
140.2399854155000014
 20
115.2602592260000023
 10
139.9232795997999972
 20
114.3175186044999947
 10
139.5139782068999921
 20
113.4687839375999943
 10
139.0159027738000077
 20
112.7219796323000054
 10
138.4337036965000038
 20
112.0840783990000062
 10
137.7728168110000126
 20
111.5610361497000014
 10
137.5053252086999862
 20
111.3951874434000047
  0
ARC
  5
9F
100
AcDbEntity
  8
0
 62
7
370
15
  6
CONTINUOUS
100
AcDbCircle
 10
125.6193436818000038
 20
130.5736210283000105
 30
0.0
 40
7.4813614259632608
100
AcDbArc
 50
54.1025762741999969
 51
114.5869652967000007
  0
SPLINE
  5
A0
  8
0
 62
7
370
15
  6
CONTINUOUS
100
AcDbEntity
100
AcDbSpline
 70
8
 71
3
 72
38
 73
34
 74
0
 40
0.0
 40
0.0
 40
0.0
 40
0.0
 40
0.032258064516129
 40
0.0645161290322581
 40
0.0967741935483871
 40
0.1290322580645161
 40
0.1612903225806452
 40
0.1935483870967742
 40
0.2258064516129032
 40
0.2580645161290323
 40
0.2903225806451613
 40
0.3225806451612903
 40
0.3548387096774194
 40
0.3870967741935484
 40
0.4193548387096774
 40
0.4516129032258064
 40
0.4838709677419355
 40
0.5161290322580645
 40
0.5483870967741935
 40
0.5806451612903226
 40
0.6129032258064516
 40
0.6451612903225806
 40
0.6774193548387096
 40
0.7096774193548387
 40
0.7419354838709677
 40
0.7741935483870968
 40
0.8064516129032258
 40
0.8387096774193549
 40
0.8709677419354839
 40
0.9032258064516129
 40
0.9354838709677419
 40
0.967741935483871
 40
1.0
 40
1.0
 40
1.0
 40
1.0
 10
115.8637990902122965
 20
125.7732649850739932
 30
0.0
 10
116.0025413896306929
 20
125.8533592096746929
 30
0.0
 10
116.1295621015762976
 20
125.9461021038381006
 30
0.0
 10
116.3474231909059995
 20
126.1472936412176011
 30
0.0
 10
116.4395765163634024
 20
126.2561359820733031
 30
0.0
 10
116.5900693286649954
 20
126.4894089384728062
 30
0.0
 10
116.6473567840387062
 20
126.6129604553541981
 30
0.0
 10
116.7232028936253982
 20
126.8638383951327029
 30
0.0
 10
116.7425577384185971
 20
126.9929656294914935
 30
0.0
 10
116.7423992702907043
 20
127.2531044670958948
 30
0.0
 10
116.7230826104438961
 20
127.3812024329456989
 30
0.0
 10
116.647070196257701
 20
127.6319331481667945
 30
0.0
 10
116.589362818045899
 20
127.7558652930341054
 30
0.0
 10
116.4391843944013942
 20
127.9879877944234039
 30
0.0
 10
116.3471295542195065
 20
128.0965684238547055
 30
0.0
 10
116.1288858750773016
 20
128.2977362884388981
 30
0.0
 10
116.0019454982315068
 20
128.3902475057377899
 30
0.0
 10
115.7246281511383046
 20
128.5502466504175061
 30
0.0
 10
115.5731058216144049
 20
128.6189995200109877
 30
0.0
 10
115.2434865590419975
 20
128.7336300264281022
 30
0.0
 10
115.0695543033229029
 20
128.7779411156070921
 30
0.0
 10
114.7082100902703985
 20
128.8415304592132884
 30
0.0
 10
114.5181005086266026
 20
128.8610541901722968
 30
0.0
 10
114.1327156616900993
 20
128.875281291349296
 30
0.0
 10
113.938630577489505
 20
128.8702596959059008
 30
0.0
 10
113.5475009490442062
 20
128.8380424326568914
 30
0.0
 10
113.3492306289945049
 20
128.8103986020828984
 30
0.0
 10
112.9660087185348942
 20
128.7365307108458126
 30
0.0
 10
112.7790829727672985
 20
128.6902710580249902
 30
0.0
 10
112.4146964729872025
 20
128.5801538087492872
 30
0.0
 10
112.2397704353909944
 20
128.5168711092541969
 30
0.0
 10
111.9142879465162963
 20
128.3789591087925999
 30
0.0
 10
111.7612258537245964
 20
128.3033485386548023
 30
0.0
 10
111.6211584030930055
 20
128.2224893205421097
 30
0.0
  0
LINE
  5
A1
100
AcDbEntity
100
AcDbLine
  8
0
 62
7
370
15
  6
CONTINUOUS
 10
111.6211584030999973
 20
128.2224893204999887
 30
0.0
 11
95.7112558264000057
 21
119.0378980625000054
 31
0.0
  0
LINE
  5
A2
100
AcDbEntity
100
AcDbLine
  8
0
 62
7
370
15
  6
CONTINUOUS
 10
99.9538965134999984
 20
116.5886737271000015
 30
0.0
 11
115.8637990902000041
 21
125.7732649850999991
 31
0.0
  0
LWPOLYLINE
  5
A3
  8
0
 62
7
370
15
  6
CONTINUOUS
100
AcDbEntity
100
AcDbPolyline
 90
30
 70
0
 10
96.7719159982000008
 20
107.6499521868999949
 10
97.2279371662999949
 20
107.3294259589000035
 10
97.6626352913999938
 20
106.909345558499993
 10
98.0556843722999929
 20
106.409353478400007
 10
98.3887058707999955
 20
105.8528287925000058
 10
98.6461280718000069
 20
105.2657939766999959
 10
98.8159141992999963
 20
104.6756981263999933
 10
98.8901252426999946
 20
104.110133467899999
 10
98.8652911759999995
 20
103.5955451758999999
 10
98.7425732126000071
 20
103.1559948270000007
 10
98.5277095081000027
 20
102.8120353071000039
 10
98.2307468504999974
 20
102.5797497810000038
 10
97.8655708836000002
 20
102.4699996618000029
 10
97.4492568298000066
 20
102.4879167428999978
 10
97.0012710714999997
 20
102.6326632418000031
 10
96.5425609249000019
 20
102.8974709727999937
 10
96.094575166599995
 20
103.2699578209000038
 10
95.6782611126999996
 20
103.7327067150000062
 10
95.3130851459000041
 20
104.2640800310999936
 10
95.0161224881999971
 20
104.8392313436000052
 10
94.8012587837000069
 20
105.4312672163000002
 10
94.6785408203000003
 20
106.0125047097999982
 10
94.6537067536000052
 20
106.5557658049000054
 10
94.7279177970000035
 20
107.035648216599995
 10
94.8977039244999929
 20
107.4297131766000035
 10
95.1551261255000043
 20
107.7195346455000049
 10
95.4881476240999945
 20
107.8915608933999977
 10
95.8811967049999936
 20
107.9377481642000021
 10
96.3158948301000066
 20
107.8559367924000014
 10
96.7719159982000008
 20
107.6499521868999949
  0
LINE
  5
A4
100
AcDbEntity
100
AcDbLine
  8
0
 62
7
370
15
  6
CONTINUOUS
 10
94.6505956545999965
 20
117.1726167366999931
 30
0.0
 11
94.6505956545999965
 21
115.4068908497000052
 31
0.0
  0
LINE
  5
A5
100
AcDbEntity
100
AcDbLine
  8
0
 62
7
370
15
  6
CONTINUOUS
 10
98.8932363417000033
 20
112.9576665143000014
 30
0.0
 11
94.6505956545999965
 21
115.4068908497000052
 31
0.0
  0
LINE
  5
A6
100
AcDbEntity
100
AcDbLine
  8
0
 62
7
370
15
  6
CONTINUOUS
 10
98.8932363417000033
 20
112.9576665143000014
 30
0.0
 11
98.8932363417000033
 21
114.7233924013000035
 31
0.0
  0
LINE
  5
A7
100
AcDbEntity
100
AcDbLine
  8
0
 62
7
370
15
  6
CONTINUOUS
 10
111.6211584030999973
 20
125.2037881915999975
 30
0.0
 11
94.6505956545999965
 21
115.4068908497000052
 31
0.0
  0
ARC
  5
A8
100
AcDbEntity
  8
0
 62
7
370
15
  6
CONTINUOUS
100
AcDbCircle
 10
113.7570502601000015
 20
121.0637557127000008
 30
0.0
 40
4.6585301277768103
100
AcDbArc
 50
70.4957434505000009
 51
117.2897457289000016
  0
LWPOLYLINE
  5
A9
  8
0
 62
7
370
15
  6
CONTINUOUS
100
AcDbEntity
100
AcDbPolyline
 90
28
 70
0
 10
138.8447694788000035
 20
143.7779352860000017
 10
139.9384174761999873
 20
143.0906685198000048
 10
141.0235061953000013
 20
142.2969461161000027
 10
142.0915433455000141
 20
141.4029800289000036
 10
143.1341700879999905
 20
140.4157667547999893
 10
144.14322645499999
 20
139.3430325763000042
 10
145.1108152122999968
 20
138.1931730926999933
 10
146.0293636657999912
 20
136.975187513700007
 10
146.8916829286999928
 20
135.6986082276000047
 10
147.6910241832999873
 20
134.3734261982999953
 10
148.4211315006999996
 20
133.0100127720000103
 10
149.0762908012000025
 20
131.6190385072000026
 10
149.6513745748999895
 20
130.2113896635000003
 10
150.1418820115999893
 20
128.7980830017999949
 10
150.5439742256000102
 20
127.3901795628000002
 10
150.8545043000000021
 20
125.998698099799995
 10
151.0710419160000129
 20
124.6345288420999964
 10
151.1918923732999929
 20
123.3083482634999939
 10
151.2161098530000061
 20
122.0305355252999959
 10
151.1435048207000023
 20
120.8110912446999947
 10
150.9746455089999984
 20
119.6595592264000061
 10
150.7108534710999947
 20
118.5849517700000035
 10
150.3541932372999952
 20
117.595679135599994
 10
149.9074561575999951
 20
116.699483723100002
 10
149.374138555299993
 20
115.9033794765000067
 10
148.7584143637000125
 20
115.2135969911000046
 10
148.0651024594000091
 20
114.635534750000005
 10
147.5940583892999882
 20
114.3326159862999987
  0
ARC
  5
AA
100
AcDbEntity
  8
0
 62
7
370
15
  6
CONTINUOUS
100
AcDbCircle
 10
133.7126592943000105
 20
136.561827590799993
 30
0.0
 40
8.8549853311345732
100
AcDbArc
 50
54.5794864806999982
 51
114.1100550902000066
  0
LWPOLYLINE
  5
AB
  8
0
 62
7
370
15
  6
CONTINUOUS
100
AcDbEntity
100
AcDbPolyline
 90
34
 70
0
 10
130.0059347138999897
 20
138.6753845871000124
 10
131.0995827113999894
 20
137.988117820899987
 10
132.1846714303999875
 20
137.1943954172000133
 10
133.2527085806000002
 20
136.3004293299999858
 10
134.2953353231999927
 20
135.3132160558999999
 10
135.3043916901999921
 20
134.2404818773999864
 10
136.2719804474000114
 20
133.0906223938999915
 10
137.1905289009999933
 20
131.8726368147999892
 10
138.0528481638000073
 20
130.596057528699987
 10
138.8521894184999894
 20
129.270875499400006
 10
139.5822967359000017
 20
127.9074620731000067
 10
140.2374560364000047
 20
126.5164878082999991
 10
140.8125398100999917
 20
125.1088389645999968
 10
141.3030472467999914
 20
123.6955323029000056
 10
141.7051394606999963
 20
122.2876288638999966
 10
142.0156695352000042
 20
120.8961474009000057
 10
142.2322071511999866
 20
119.531978143200007
 10
142.3530576084000074
 20
118.2057975646000045
 10
142.3772750882000082
 20
116.9279848264000066
 10
142.3046700557999884
 20
115.7085405458000054
 10
142.1358107442000005
 20
114.5570085275000025
 10
141.8720187062999969
 20
113.4824010711
 10
141.5153584724999973
 20
112.4931284367000046
 10
141.0686213927999972
 20
111.5969330241999984
 10
140.5353037904000075
 20
110.8008287776000031
 10
139.9195795987999986
 20
110.1110462922000011
 10
139.2262676946000113
 20
109.5329840511000015
 10
138.4607941833999973
 20
109.0711661751000037
 10
137.629149933299999
 20
108.7292070153000054
 10
136.7378436882000017
 20
108.5097828657000036
 10
135.7938511279000124
 20
108.4146110177999986
 10
134.8045602740999982
 20
108.4444363204000013
 10
133.7777136690999953
 20
108.5990253500000051
 10
132.9980198771000062
 20
108.7931754608000006
  0
LWPOLYLINE
  5
AC
  8
0
 62
7
370
15
  6
CONTINUOUS
100
AcDbEntity
100
AcDbPolyline
 90
16
 70
0
 10
117.9992388874999989
 20
134.774641332199991
 10
118.306729967199999
 20
135.7952431468999919
 10
118.7088221811000039
 20
136.7389007973999924
 10
119.1993296178000037
 20
137.5858796274000042
 10
119.7744133915000049
 20
138.3295508790000099
 10
120.4295726919999936
 20
138.9640943166000113
 10
121.1596800094000059
 20
139.4845437772999901
 10
121.9590212641000022
 20
139.8868260383999882
 10
122.821340526900002
 20
140.1677926957999887
 10
123.7398889803999964
 20
140.325244804499988
 10
124.7074777377000032
 20
140.3579500881999991
 10
125.7165341047000027
 20
140.265652583800005
 10
126.7591608472999951
 20
140.0490746442999921
 10
127.8271979974000061
 20
139.7099112857999899
 10
128.9122867165000059
 20
139.2508169214999896
 10
130.0059347138999897
 20
138.6753845871000124
  0
LWPOLYLINE
  5
AD
  8
0
 62
7
370
15
  6
CONTINUOUS
100
AcDbEntity
100
AcDbPolyline
 90
28
 70
0
 10
151.5726915401000099
 20
150.7173378864999904
 10
152.6502291143000036
 20
150.0394070803000091
 10
153.7190909894999891
 20
149.255171364000006
 10
154.7706713183999909
 20
148.3709449421999977
 10
155.7965033945000073
 20
147.3938470863000134
 10
156.7883278211000118
 20
146.331744813600011
 10
157.7381590111999969
 20
145.1931895472000065
 10
158.6383494822999864
 20
143.9873482646000014
 10
159.4816514302999906
 20
142.7239296907999915
 10
160.2612750837000135
 20
141.4131061292000027
 10
160.9709433710999917
 20
140.0654315605000022
 10
161.6049424608999914
 20
138.6917566678000071
 10
162.1581677650999893
 20
137.3031414735999931
 10
162.626165039
 20
135.9107662911000034
 10
163.0051662435000139
 20
134.525841706499989
 10
163.2921198839999875
 20
133.1595183180999982
 10
163.4847155783000119
 20
131.8227969586000086
 10
163.5814026591999948
 20
130.5264401224000039
 10
163.5814026591999948
 20
129.2808853123999882
 10
163.4847155783000119
 20
128.0961610036000025
 10
163.2921198839999875
 20
126.9818058996000048
 10
163.0051662435000139
 20
125.9467921324000059
 10
162.626165039
 20
124.9994530241999939
 10
162.1581677650999893
 20
124.1474159926000027
 10
161.6049424608999914
 20
123.3975411387999941
 10
160.9709433710999917
 20
122.7558660140999933
 10
160.2612750837000135
 20
122.2275570092999999
 10
160.0720007674999863
 20
122.1133134238999958
  0
ARC
  5
AE
100
AcDbEntity
  8
0
 62
7
370
15
  6
CONTINUOUS
100
AcDbCircle
 10
146.5894321604999959
 20
143.7298142333000044
 30
0.0
 40
8.5824449225396879
100
AcDbArc
 50
54.5048523681999981
 51
114.1846892026999996
  0
LINE
  5
AF
100
AcDbEntity
100
AcDbLine
  8
0
 62
7
370
15
  6
CONTINUOUS
 10
220.8218189902000006
 20
187.7749200119000079
 30
0.0
 11
233.950631548399997
 21
195.3540221760000009
 31
0.0
  0
LWPOLYLINE
  5
B0
  8
0
 62
7
370
15
  6
CONTINUOUS
100
AcDbEntity
100
AcDbPolyline
 90
25
 70
0
 10
233.950631548399997
 20
195.3540221760000009
 10
234.9630766651000044
 20
194.5947129666000137
 10
235.956210232300009
 20
193.7346580845999995
 10
236.9207809359000123
 20
192.7818691793999903
 10
237.8478035329000022
 20
191.745221743299993
 10
238.7286425512999983
 20
190.6343724339999994
 10
239.5550927317999879
 20
189.4596691204000081
 10
240.3194554622999988
 20
188.2320544888000029
 10
241.0146104922999939
 20
186.9629641093999908
 10
241.6340822603999925
 20
185.6642199101999893
 10
242.1721002156999987
 20
184.3479200529000082
 10
242.6236525719000099
 20
183.0263262349999991
 10
242.9845329938999896
 20
181.7117494686000043
 10
243.25137978059999
 20
180.4164354001999868
 10
243.4217071804999932
 20
179.1524502386999984
 10
243.4939285467000047
 20
177.9315683558000103
 10
243.4673711170999866
 20
176.765162604000011
 10
243.3422822814999904
 20
175.6640983759000108
 10
243.1198272771000006
 20
174.6386323893999872
 10
242.8020783338000115
 20
173.6983171438999989
 10
242.3919953708999913
 20
172.8519119361999969
 10
241.8933984248000115
 20
172.1073012651999932
 10
241.3109320638999975
 20
171.4714213851000011
 10
240.6500221237000119
 20
170.9501956931999871
 10
240.3893618714000127
 20
170.7888775785000064
  0
ARC
  5
B1
100
AcDbEntity
  8
0
 62
7
370
15
  6
CONTINUOUS
100
AcDbCircle
 10
228.4299476275000131
 20
190.6290731038999979
 30
0.0
 40
6.8522223896981229
100
AcDbArc
 50
60.2579188775999981
 51
116.3311979209999976
  0
LINE
  5
B2
100
AcDbEntity
100
AcDbLine
  8
0
 62
7
370
15
  6
CONTINUOUS
 10
218.7004986466000105
 20
188.9995321796000098
 30
0.0
 11
231.8293112048000069
 21
196.5786343437000028
 31
0.0
  0
SPLINE
  5
B3
  8
0
 62
7
370
15
  6
CONTINUOUS
100
AcDbEntity
100
AcDbSpline
 70
8
 71
3
 72
9
 73
5
 74
0
 40
0.0
 40
0.0
 40
0.0
 40
0.0
 40
0.5
 40
1.0
 40
1.0
 40
1.0
 40
1.0
 10
218.7004986466126866
 20
188.9995321796185976
 30
0.0
 10
219.0184771343321017
 20
188.8159259170575126
 30
0.0
 10
219.6913979320001999
 20
188.4287101388084125
 30
0.0
 10
220.4326906967050945
 20
187.9995178052348024
 30
0.0
 10
220.8218189901724031
 20
187.7749200118844897
 30
0.0
  0
LINE
  5
B4
100
AcDbEntity
100
AcDbLine
  8
0
 62
7
370
15
  6
CONTINUOUS
 10
165.7148271638999972
 20
154.5516509267999936
 30
0.0
 11
203.8985933479000039
 21
176.5946699460000104
 31
0.0
  0
SPLINE
  5
B5
  8
0
 62
7
370
15
  6
CONTINUOUS
100
AcDbEntity
100
AcDbSpline
 70
8
 71
3
 72
38
 73
34
 74
0
 40
0.0
 40
0.0
 40
0.0
 40
0.0
 40
0.032258064516129
 40
0.0645161290322581
 40
0.0967741935483871
 40
0.1290322580645161
 40
0.1612903225806452
 40
0.1935483870967742
 40
0.2258064516129032
 40
0.2580645161290323
 40
0.2903225806451613
 40
0.3225806451612903
 40
0.3548387096774194
 40
0.3870967741935484
 40
0.4193548387096774
 40
0.4516129032258064
 40
0.4838709677419355
 40
0.5161290322580645
 40
0.5483870967741935
 40
0.5806451612903226
 40
0.6129032258064516
 40
0.6451612903225806
 40
0.6774193548387096
 40
0.7096774193548387
 40
0.7419354838709677
 40
0.7741935483870968
 40
0.8064516129032258
 40
0.8387096774193549
 40
0.8709677419354839
 40
0.9032258064516129
 40
0.9354838709677419
 40
0.967741935483871
 40
1.0
 40
1.0
 40
1.0
 40
1.0
 10
203.8985933479372932
 20
176.5946699460376976
 30
0.0
 10
204.0373356473556896
 20
176.6747641706384115
 30
0.0
 10
204.1643563593013084
 20
176.767507064801805
 30
0.0
 10
204.3822174486309109
 20
176.9686986021812913
 30
0.0
 10
204.4743707740884133
 20
177.0775409430370075
 30
0.0
 10
204.6248635863900915
 20
177.3108138994365959
 30
0.0
 10
204.6821510417636887
 20
177.4343654163178883
 30
0.0
 10
204.7579971513505086
 20
177.6852433560964926
 30
0.0
 10
204.7773519961436079
 20
177.8143705904552121
 30
0.0
 10
204.7771935280156015
 20
178.0745094280595993
 30
0.0
 10
204.7578768681688075
 20
178.2026073939094033
 30
0.0
 10
204.6818644539827119
 20
178.4533381091304989
 30
0.0
 10
204.6241570757709098
 20
178.5772702539977956
 30
0.0
 10
204.4739786521263909
 20
178.8093927553871936
 30
0.0
 10
204.381923811944489
 20
178.9179733848183957
 30
0.0
 10
204.1636801328023125
 20
179.1191412494025883
 30
0.0
 10
204.0367397559564893
 20
179.2116524667015938
 30
0.0
 10
203.759422408863287
 20
179.37165161138131
 30
0.0
 10
203.6079000793394016
 20
179.4404044809747063
 30
0.0
 10
203.2782808167669941
 20
179.5550349873917924
 30
0.0
 10
203.1043485610479138
 20
179.5993460765708107
 30
0.0
 10
202.7430043479953952
 20
179.662935420177007
 30
0.0
 10
202.5528947663516135
 20
179.682459151135987
 30
0.0
 10
202.1675099194150107
 20
179.6966862523129009
 30
0.0
 10
201.9734248352145869
 20
179.6916646568697047
 30
0.0
 10
201.5822952067692029
 20
179.65944739362061
 30
0.0
 10
201.3840248867194873
 20
179.6318035630465886
 30
0.0
 10
201.0008029762599051
 20
179.5579356718095028
 30
0.0
 10
200.8138772304922952
 20
179.5116760189887088
 30
0.0
 10
200.4494907307121991
 20
179.4015587697130911
 30
0.0
 10
200.2745646931159911
 20
179.3382760702180008
 30
0.0
 10
199.9490822042413072
 20
179.2003640697562901
 30
0.0
 10
199.7960201114495078
 20
179.1247534996184925
 30
0.0
 10
199.6559526608180022
 20
179.0438942815059136
 30
0.0
  0
LINE
  5
B6
100
AcDbEntity
100
AcDbLine
  8
0
 62
7
370
15
  6
CONTINUOUS
 10
199.6559526608000112
 20
179.0438942815000019
 30
0.0
 11
161.4721864766999886
 21
157.0008752623000134
 31
0.0
  0
SPLINE
  5
B7
  8
0
 62
7
370
15
  6
CONTINUOUS
100
AcDbEntity
100
AcDbSpline
 70
8
 71
3
 72
38
 73
34
 74
0
 40
0.0
 40
0.0
 40
0.0
 40
0.0
 40
0.032258064516129
 40
0.0645161290322581
 40
0.0967741935483871
 40
0.1290322580645161
 40
0.1612903225806452
 40
0.1935483870967742
 40
0.2258064516129032
 40
0.2580645161290323
 40
0.2903225806451613
 40
0.3225806451612903
 40
0.3548387096774194
 40
0.3870967741935484
 40
0.4193548387096774
 40
0.4516129032258064
 40
0.4838709677419355
 40
0.5161290322580645
 40
0.5483870967741935
 40
0.5806451612903226
 40
0.6129032258064516
 40
0.6451612903225806
 40
0.6774193548387096
 40
0.7096774193548387
 40
0.7419354838709677
 40
0.7741935483870968
 40
0.8064516129032258
 40
0.8387096774193549
 40
0.8709677419354839
 40
0.9032258064516129
 40
0.9354838709677419
 40
0.967741935483871
 40
1.0
 40
1.0
 40
1.0
 40
1.0
 10
161.4721864767446107
 20
157.0008752622927091
 30
0.0
 10
161.3316809309424968
 20
156.9197631372213095
 30
0.0
 10
161.2074167853376991
 20
156.8353585826002927
 30
0.0
 10
160.9899512066168938
 20
156.6598664167102015
 30
0.0
 10
160.8959996457593888
 20
156.5677096631492873
 30
0.0
 10
160.7458828774753954
 20
156.381141450170702
 30
0.0
 10
160.6893559595343106
 20
156.2869547292449113
 30
0.0
 10
160.6129405950022999
 20
156.0951418132135871
 30
0.0
 10
160.5935051600226018
 20
155.9971547502626095
 30
0.0
 10
160.5935084808029956
 20
155.8040709532785968
 30
0.0
 10
160.6123534582561092
 20
155.7079409925746916
 30
0.0
 10
160.6889487408307104
 20
155.5145990991478016
 30
0.0
 10
160.7461537008261985
 20
155.4193595797858904
 30
0.0
 10
160.8952520921675102
 20
155.2336264508072077
 30
0.0
 10
160.9883383557780974
 20
155.1417988443600962
 30
0.0
 10
161.2075986515048101
 20
154.9644803143235094
 30
0.0
 10
161.3318637212099986
 20
154.8802242660784998
 30
0.0
 10
161.609067606150802
 20
154.7199899236331078
 30
0.0
 10
161.7638353457477081
 20
154.6433815283990043
 30
0.0
 10
162.0903546139093123
 20
154.5051790001469953
 30
0.0
 10
162.2628684594702122
 20
154.4428978315125107
 30
0.0
 10
162.6266135668284107
 20
154.3330656120500066
 30
0.0
 10
162.8165143160993011
 20
154.2861615077904958
 30
0.0
 10
163.1992383141432015
 20
154.2125665184962884
 30
0.0
 10
163.3947973187898128
 20
154.1852119851963892
 30
0.0
 10
163.7890841820590992
 20
154.1525715295344128
 30
0.0
 10
163.9832934995156961
 20
154.1475713362713975
 30
0.0
 10
164.3662266781234962
 20
154.1613351842441944
 30
0.0
 10
164.5569922298180074
 20
154.1805535563746048
 30
0.0
 10
164.9197901867308076
 20
154.2439141079377976
 30
0.0
 10
165.0922986660729066
 20
154.2877315192583012
 30
0.0
 10
165.4195195684403075
 20
154.4008490015484938
 30
0.0
 10
165.5743207028943971
 20
154.4705382734381942
 30
0.0
 10
165.714827163863788
 20
154.5516509268244931
 30
0.0
  0
LINE
  5
B8
100
AcDbEntity
100
AcDbLine
  8
0
 62
7
370
15
  6
CONTINUOUS
 10
199.6559526608000112
 20
176.0251931525999964
 30
0.0
 11
162.277061428899998
 21
154.4468185530000142
 31
0.0
  0
ARC
  5
B9
100
AcDbEntity
  8
0
 62
7
370
15
  6
CONTINUOUS
100
AcDbCircle
 10
201.7918445178000013
 20
171.8851606736000122
 30
0.0
 40
4.6585301277770634
100
AcDbArc
 50
70.4957434505000009
 51
117.2897457289000016
  0
ARC
  5
BA
100
AcDbEntity
  8
0
 62
7
370
15
  6
CONTINUOUS
100
AcDbCircle
 10
220.767912383200013
 20
193.5867011386999934
 30
0.0
 40
5.0315324323453154
100
AcDbArc
 50
245.7391523981000034
 51
305.609807262400011
  0
SPLINE
  5
BB
  8
0
 62
7
370
15
  6
CONTINUOUS
100
AcDbEntity
100
AcDbSpline
 70
8
 71
3
 72
8
 73
4
 74
0
 40
0.0
 40
0.0
 40
0.0
 40
0.0
 40
1.0
 40
1.0
 40
1.0
 40
1.0
 10
231.8293112048058902
 20
196.5786343437378889
 30
0.0
 10
232.1829643883166057
 20
196.3723509663734035
 30
0.0
 10
232.5365289482068079
 20
196.1659145197548071
 30
0.0
 10
232.8899713765856916
 20
195.9592672526138983
 30
0.0
  0
LINE
  5
BC
100
AcDbEntity
100
AcDbLine
  8
0
 62
7
370
15
  6
CONTINUOUS
 10
232.8899713765999877
 20
195.9592672526000001
 30
0.0
 11
232.8899713765999877
 21
194.8027124246000028
 31
0.0
  0
LINE
  5
BD
100
AcDbEntity
100
AcDbLine
  8
0
 62
7
370
15
  6
CONTINUOUS
 10
223.6975832212000057
 20
189.4960596976999909
 30
0.0
 11
232.8899713765999877
 21
194.8027124246000028
 31
0.0
  0
ARC
  5
BE
100
AcDbEntity
  8
0
 62
7
370
15
  6
CONTINUOUS
100
AcDbCircle
 10
222.6415535634999969
 20
177.9164479741999969
 30
0.0
 40
20.8773205292845105
100
AcDbArc
 50
2.6485066690000001
 51
53.665635761499999
  0
SPLINE
  5
BF
  8
0
 62
7
370
15
  6
CONTINUOUS
100
AcDbEntity
100
AcDbSpline
 70
8
 71
3
 72
8
 73
4
 74
0
 40
0.0
 40
0.0
 40
0.0
 40
0.0
 40
1.0
 40
1.0
 40
1.0
 40
1.0
 10
233.950631548365493
 20
195.3540221760038094
 30
0.0
 10
234.3042847318762938
 20
195.1477387986392955
 30
0.0
 10
234.6578492917664107
 20
194.9413023520208128
 30
0.0
 10
235.0112917201454081
 20
194.7346550848797904
 30
0.0
  0
LINE
  5
C0
100
AcDbEntity
100
AcDbLine
  8
0
 62
7
370
15
  6
CONTINUOUS
 10
232.9428014743000119
 20
194.7722142583999982
 30
0.0
 11
232.8899713765999877
 21
194.8027124246000028
 31
0.0
  0
LINE
  5
C1
100
AcDbEntity
100
AcDbLine
  8
0
 62
7
370
15
  6
CONTINUOUS
 10
223.6975832212000057
 20
189.4960596976999909
 30
0.0
 11
223.7504133188000139
 21
189.4655615314999864
 31
0.0
  0
LINE
  5
C2
100
AcDbEntity
100
AcDbLine
  8
0
 62
7
370
15
  6
CONTINUOUS
 10
74.3463629425999954
 20
90.7612215298999985
 30
0.0
 11
78.043301399300006
 21
90.7612215298999985
 31
0.0
  0
LINE
  5
C3
100
AcDbEntity
100
AcDbLine
  8
0
 62
7
370
15
  6
CONTINUOUS
 10
74.3463629425999954
 20
90.7612215298999985
 30
0.0
 11
74.3463629425999954
 21
84.7612215298999985
 31
0.0
  0
LINE
  5
C4
100
AcDbEntity
100
AcDbLine
  8
0
 62
7
370
15
  6
CONTINUOUS
 10
78.043301399300006
 20
84.7612215298999985
 30
0.0
 11
74.3463629425999954
 21
84.7612215298999985
 31
0.0
  0
CIRCLE
  5
C5
100
AcDbEntity
100
AcDbCircle
  8
0
 62
7
370
15
  6
CONTINUOUS
 10
63.3463629426000026
 20
87.7612215298999985
 30
0.0
 40
3.0
  0
ARC
  5
C6
100
AcDbEntity
  8
0
 62
7
370
15
  6
CONTINUOUS
100
AcDbCircle
 10
63.3463629426000026
 20
87.7612215298999985
 30
0.0
 40
15.0000000000000107
100
AcDbArc
 50
11.5369590328000005
 51
348.4630409672000155
  0
SPLINE
  5
C7
  8
0
 62
7
370
15
  6
CONTINUOUS
100
AcDbEntity
100
AcDbSpline
 70
8
 71
3
 72
38
 73
34
 74
0
 40
0.0
 40
0.0
 40
0.0
 40
0.0
 40
0.032258064516129
 40
0.0645161290322581
 40
0.0967741935483871
 40
0.1290322580645161
 40
0.1612903225806452
 40
0.1935483870967742
 40
0.2258064516129032
 40
0.2580645161290323
 40
0.2903225806451613
 40
0.3225806451612903
 40
0.3548387096774194
 40
0.3870967741935484
 40
0.4193548387096774
 40
0.4516129032258064
 40
0.4838709677419355
 40
0.5161290322580645
 40
0.5483870967741935
 40
0.5806451612903226
 40
0.6129032258064516
 40
0.6451612903225806
 40
0.6774193548387096
 40
0.7096774193548387
 40
0.7419354838709677
 40
0.7741935483870968
 40
0.8064516129032258
 40
0.8387096774193549
 40
0.8709677419354839
 40
0.9032258064516129
 40
0.9354838709677419
 40
0.967741935483871
 40
1.0
 40
1.0
 40
1.0
 40
1.0
 10
78.0433013992782918
 20
84.7612215298519089
 30
0.0
 10
78.0433013992782918
 20
84.7612215298519089
 30
0.0
 10
78.0473648303608201
 20
84.7809389241655253
 30
0.0
 10
78.0627619581597685
 20
84.8579232453942183
 30
0.0
 10
78.0740203149859155
 20
84.9148193613750522
 30
0.0
 10
78.1023916364347741
 20
85.065759756829209
 30
0.0
 10
78.1194267591558429
 20
85.1595490011928717
 30
0.0
 10
78.1560146440309325
 20
85.376618636975806
 30
0.0
 10
78.1758128064922317
 20
85.5012963700437183
 30
0.0
 10
78.2156414820144192
 20
85.7802115069252835
 30
0.0
 10
78.2352078535635513
 20
85.9312052238204274
 30
0.0
 10
78.2715171474893339
 20
86.2557533557149299
 30
0.0
 10
78.2884115776300007
 20
86.4314631648470311
 30
0.0
 10
78.3162593496856232
 20
86.7941246980784484
 30
0.0
 10
78.3273089155209163
 20
86.981163917602089
 30
0.0
 10
78.3424173728202078
 20
87.3667805990691733
 30
0.0
 10
78.3463723923343878
 20
87.5659002548152046
 30
0.0
 10
78.3463534578437191
 20
87.9579915356996906
 30
0.0
 10
78.3425018088035046
 20
88.1532001266736245
 30
0.0
 10
78.3272968898884159
 20
88.5418918711664276
 30
0.0
 10
78.3161198531982308
 20
88.730335062171747
 30
0.0
 10
78.2883560582441334
 20
89.0915014751917482
 30
0.0
 10
78.2715295926371084
 20
89.2666726306575384
 30
0.0
 10
78.2349821303287882
 20
89.5931607294686785
 30
0.0
 10
78.2154195944590072
 20
89.7438144845027921
 30
0.0
 10
78.1759096955607049
 20
90.0204390142428821
 30
0.0
 10
78.1558515262908315
 20
90.1468384230534809
 30
0.0
 10
78.1192399566525211
 20
90.3639556306156067
 30
0.0
 10
78.1024735069237863
 20
90.4562388559610611
 30
0.0
 10
78.074056392726277
 20
90.6074406032342665
 30
0.0
 10
78.0626641377027681
 20
90.6650125369502859
 30
0.0
 10
78.0473549781931695
 20
90.7415497411930119
 30
0.0
 10
78.0433013992783202
 20
90.7612215298519089
 30
0.0
 10
78.0433013992783202
 20
90.7612215298519089
 30
0.0
  0
CIRCLE
  5
C8
100
AcDbEntity
100
AcDbCircle
  8
0
 62
7
370
15
  6
CONTINUOUS
 10
63.3463629426000026
 20
87.7612215298999985
 30
0.0
 40
17.5000000000000107
  0
INSERT
  5
C9
100
AcDbEntity
100
AcDbBlockReference
  8
0
 62
7
370
0
  6
CONTINUOUS
  2
SW_CENTERMARKSYMBOL_0
 10
63.3463629426000026
 20
87.7612215298999985
 30
0.0
  0
LINE
  5
CA
100
AcDbEntity
100
AcDbLine
  8
0
 62
7
370
15
  6
CONTINUOUS
 10
198.2336012810000057
 20
94.9812247823000035
 30
0.0
 11
201.930539737700002
 21
94.9812247823000035
 31
0.0
  0
LINE
  5
CB
100
AcDbEntity
100
AcDbLine
  8
0
 62
7
370
15
  6
CONTINUOUS
 10
198.2336012810000057
 20
94.9812247823000035
 30
0.0
 11
198.2336012810000057
 21
88.9812247823000035
 31
0.0
  0
LINE
  5
CC
100
AcDbEntity
100
AcDbLine
  8
0
 62
7
370
15
  6
CONTINUOUS
 10
201.930539737700002
 20
88.9812247823000035
 30
0.0
 11
198.2336012810000057
 21
88.9812247823000035
 31
0.0
  0
ARC
  5
CD
100
AcDbEntity
  8
0
 62
7
370
15
  6
CONTINUOUS
100
AcDbCircle
 10
187.2336012810000057
 20
91.9812247823000035
 30
0.0
 40
15.0000000000000107
100
AcDbArc
 50
11.5369590328000005
 51
348.4630409672000155
  0
SPLINE
  5
CE
  8
0
 62
7
370
15
  6
CONTINUOUS
100
AcDbEntity
100
AcDbSpline
 70
8
 71
3
 72
38
 73
34
 74
0
 40
0.0
 40
0.0
 40
0.0
 40
0.0
 40
0.032258064516129
 40
0.0645161290322581
 40
0.0967741935483871
 40
0.1290322580645161
 40
0.1612903225806452
 40
0.1935483870967742
 40
0.2258064516129032
 40
0.2580645161290323
 40
0.2903225806451613
 40
0.3225806451612903
 40
0.3548387096774194
 40
0.3870967741935484
 40
0.4193548387096774
 40
0.4516129032258064
 40
0.4838709677419355
 40
0.5161290322580645
 40
0.5483870967741935
 40
0.5806451612903226
 40
0.6129032258064516
 40
0.6451612903225806
 40
0.6774193548387096
 40
0.7096774193548387
 40
0.7419354838709677
 40
0.7741935483870968
 40
0.8064516129032258
 40
0.8387096774193549
 40
0.8709677419354839
 40
0.9032258064516129
 40
0.9354838709677419
 40
0.967741935483871
 40
1.0
 40
1.0
 40
1.0
 40
1.0
 10
201.9305397376849101
 20
88.9812247822553104
 30
0.0
 10
201.9305397376849101
 20
88.9812247822553104
 30
0.0
 10
201.9346031687674099
 20
89.0009421765689268
 30
0.0
 10
201.9500002965662873
 20
89.0779264977976197
 30
0.0
 10
201.9612586533924912
 20
89.1348226137784678
 30
0.0
 10
201.9896299748413924
 20
89.2857630092326389
 30
0.0
 10
202.0066650975624043
 20
89.3795522535962732
 30
0.0
 10
202.0432529824375081
 20
89.5966218893792075
 30
0.0
 10
202.0630511448987932
 20
89.7212996224471198
 30
0.0
 10
202.1028798204210091
 20
90.000214759328685
 30
0.0
 10
202.122446191970198
 20
90.1512084762238288
 30
0.0
 10
202.1587554858959095
 20
90.4757566081183313
 30
0.0
 10
202.1756499160366047
 20
90.6514664172504325
 30
0.0
 10
202.2034976880921988
 20
91.0141279504818499
 30
0.0
 10
202.214547253927492
 20
91.2011671700054762
 30
0.0
 10
202.2296557112267976
 20
91.5867838514725605
 30
0.0
 10
202.2336107307409918
 20
91.785903507218606
 30
0.0
 10
202.2335917962502947
 20
92.1779947881030779
 30
0.0
 10
202.2297401472100944
 20
92.3732033790770259
 30
0.0
 10
202.2145352282950057
 20
92.7618951235698148
 30
0.0
 10
202.2033581916047922
 20
92.9503383145751343
 30
0.0
 10
202.1755943966506948
 20
93.3115047275951355
 30
0.0
 10
202.1587679310437125
 20
93.4866758830609115
 30
0.0
 10
202.1222204687354065
 20
93.8131639818720657
 30
0.0
 10
202.1026579328656112
 20
93.9638177369061651
 30
0.0
 10
202.0631480339673089
 20
94.2404422666462551
 30
0.0
 10
202.0430898646974072
 20
94.3668416754568824
 30
0.0
 10
202.0064782950591109
 20
94.5839588830189939
 30
0.0
 10
201.9897118453303904
 20
94.6762421083644341
 30
0.0
 10
201.9612947311329094
 20
94.8274438556376396
 30
0.0
 10
201.9499024761094006
 20
94.8850157893536732
 30
0.0
 10
201.9345933165998019
 20
94.9615529935963991
 30
0.0
 10
201.9305397376849101
 20
94.9812247822553104
 30
0.0
 10
201.9305397376849101
 20
94.9812247822553104
 30
0.0
  0
LINE
  5
CF
100
AcDbEntity
100
AcDbLine
  8
0
 62
7
370
15
  6
CONTINUOUS
 10
212.5536207954000076
 20
75.9960365182000004
 30
0.0
 11
241.8311318451999909
 21
75.9960365182000004
 31
0.0
  0
LINE
  5
D0
100
AcDbEntity
100
AcDbLine
  8
0
 62
7
370
15
  6
CONTINUOUS
 10
223.2641870674999893
 20
105.9208480748000056
 30
0.0
 11
241.8311318451999909
 21
105.9208480748000056
 31
0.0
  0
LINE
  5
D1
100
AcDbEntity
100
AcDbLine
  8
0
 62
7
370
15
  6
CONTINUOUS
 10
223.1897034167000129
 20
105.9960365182000004
 30
0.0
 11
212.5536207954000076
 21
105.9960365182000004
 31
0.0
  0
SPLINE
  5
D2
  8
0
 62
7
370
15
  6
CONTINUOUS
100
AcDbEntity
100
AcDbSpline
 70
8
 71
3
 72
8
 73
4
 74
0
 40
0.0
 40
0.0
 40
0.0
 40
0.0
 40
1.0
 40
1.0
 40
1.0
 40
1.0
 10
241.8311318451941929
 20
105.9208480748057042
 30
0.0
 10
242.3312729736915117
 20
105.4181873276995987
 30
0.0
 10
242.8312887694625886
 20
104.9154017761433977
 30
0.0
 10
243.3311318451941929
 20
104.4124443832050986
 30
0.0
  0
LINE
  5
D3
100
AcDbEntity
100
AcDbLine
  8
0
 62
7
370
15
  6
CONTINUOUS
 10
241.8311318451999909
 20
75.9960365182000004
 30
0.0
 11
243.3311318451999909
 21
77.4960365182000004
 31
0.0
  0
LINE
  5
D4
100
AcDbEntity
100
AcDbLine
  8
0
 62
7
370
15
  6
CONTINUOUS
 10
230.3311318451999909
 20
102.9960365182000004
 30
0.0
 11
243.3311318451999909
 21
102.9960365182000004
 31
0.0
  0
LINE
  5
D5
100
AcDbEntity
100
AcDbLine
  8
0
 62
7
370
15
  6
CONTINUOUS
 10
243.3311318451999909
 20
77.4960365182000004
 30
0.0
 11
243.3311318451999909
 21
102.9960365182000004
 31
0.0
  0
LINE
  5
D6
100
AcDbEntity
100
AcDbLine
  8
0
 62
7
370
15
  6
CONTINUOUS
 10
212.5536207954000076
 20
105.9960365182000004
 30
0.0
 11
212.5536207954000076
 21
75.9960365182000004
 31
0.0
  0
ARC
  5
D7
100
AcDbEntity
  8
0
 62
7
370
15
  6
CONTINUOUS
100
AcDbCircle
 10
230.3311318451999909
 20
112.9960365182000004
 30
0.0
 40
10.0
100
AcDbArc
 50
224.4270040007999967
 51
270.0
  0
LINE
  5
D8
100
AcDbEntity
100
AcDbLine
  8
0
 62
7
370
15
  6
CONTINUOUS
 10
243.3311318451999909
 20
104.4124443831999969
 30
0.0
 11
243.3311318451999909
 21
102.9960365182000004
 31
0.0
  0
LINE
  5
D9
100
AcDbEntity
100
AcDbLine
  8
0
 62
7
370
0
  6
CONTINUOUS
 10
50.6463629425999997
 20
14.8262995445208716
 30
0.0
 11
63.3463629426000026
 21
14.8262995445208716
 31
0.0
  0
INSERT
  5
DA
100
AcDbEntity
100
AcDbBlockReference
  8
0
 62
7
370
0
  6
CONTINUOUS
  2
_Closed
 10
63.3463629426000026
 20
14.8262995445208716
 30
0.0
 41
6.3499999999999996
 42
6.3499999999999996
 43
1.0
 50
360.0
  0
LINE
  5
DB
100
AcDbEntity
100
AcDbLine
  8
0
 62
7
370
0
  6
CENTER
 10
63.3463629426000026
 20
11.5431219937000016
 30
0.0
 11
63.3463629426000026
 21
61.1545849476000001
 31
0.0
  0
LINE
  5
DC
100
AcDbEntity
100
AcDbLine
  8
0
 62
256
370
-1
  6
ByLayer
 10
-7.0
 20
0.0
 30
0.0
 11
-7.0
 21
200.0
 31
0.0
  0
LINE
  5
DD
100
AcDbEntity
100
AcDbLine
  8
0
 62
256
370
-1
  6
ByLayer
 10
277.0
 20
0.0
 30
0.0
 11
-7.0
 21
0.0
 31
0.0
  0
LINE
  5
DE
100
AcDbEntity
100
AcDbLine
  8
0
 62
256
370
-1
  6
ByLayer
 10
-7.0
 20
200.0
 30
0.0
 11
277.0
 21
200.0
 31
0.0
  0
LINE
  5
DF
100
AcDbEntity
100
AcDbLine
  8
0
 62
256
370
-1
  6
ByLayer
 10
277.0
 20
200.0
 30
0.0
 11
277.0
 21
0.0
 31
0.0
  0
MTEXT
  5
E0
100
AcDbEntity
100
AcDbMText
  8
0
 62
7
370
-1
  6
CONTINUOUS
 10
50.6463629425999997
 20
64.7129320887000006
 30
0.0
 40
3.5
 41
0.0
 71
1
 72
2
  1
A
  7
SLDTEXTSTYLE0
 50
0.0
 73
1
 44
1.0
  0
MTEXT
  5
E1
100
AcDbEntity
100
AcDbMText
  8
0
 62
7
370
-1
  6
CONTINUOUS
 10
50.6463629425999997
 20
20.3846466855208703
 30
0.0
 40
3.5
 41
0.0
 71
1
 72
2
  1
A
  7
SLDTEXTSTYLE0
 50
0.0
 73
1
 44
1.0
  0
MTEXT
  5
E2
100
AcDbEntity
100
AcDbMText
  8
0
 62
7
370
-1
  6
CONTINUOUS
 10
174.8350300847000085
 20
67.7272201260999935
 30
0.0
 40
3.5
 41
0.0
 71
1
 72
2
  1
B
  7
SLDTEXTSTYLE0
 50
0.0
 73
1
 44
1.0
  0
MTEXT
  5
E3
100
AcDbEntity
100
AcDbMText
  8
0
 62
7
370
-1
  6
CONTINUOUS
 10
174.8350300847000085
 20
19.5800370784999984
 30
0.0
 40
3.5
 41
0.0
 71
1
 72
2
  1
B
  7
SLDTEXTSTYLE0
 50
0.0
 73
1
 44
1.0
  0
MTEXT
  5
E4
100
AcDbEntity
100
AcDbMText
  8
0
 62
7
370
-1
  6
CONTINUOUS
 10
215.8280617775999985
 20
31.4866736608000011
 30
0.0
 40
3.5
 41
0.0
 71
1
 72
2
  1
C
  7
SLDTEXTSTYLE0
 50
0.0
 73
1
 44
1.0
  0
MTEXT
  5
E5
100
AcDbEntity
100
AcDbMText
  8
0
 62
7
370
-1
  6
CONTINUOUS
 10
250.7123774604999937
 20
31.4866736608000011
 30
0.0
 40
3.5
 41
0.0
 71
1
 72
2
  1
C
  7
SLDTEXTSTYLE0
 50
0.0
 73
1
 44
1.0
  0
MTEXT
  5
E6
100
AcDbEntity
100
AcDbMText
  8
0
 62
7
370
0
  6
CONTINUOUS
 10
49.7473651322000023
 20
120.7205588168999952
 30
0.0
 40
3.5
 41
0.0
 71
1
 72
2
  1
COUPE\~A-A
  7
SLDTEXTSTYLE0
 50
0.0
 73
1
 44
1.0
  0
MTEXT
  5
E7
100
AcDbEntity
100
AcDbMText
  8
0
 62
7
370
0
  6
CONTINUOUS
 10
177.8740110955999967
 20
120.4048419756999948
 30
0.0
 40
3.5
 41
0.0
 71
1
 72
2
  1
COUPE\~B-B
  7
SLDTEXTSTYLE0
 50
0.0
 73
1
 44
1.0
  0
MTEXT
  5
E8
100
AcDbEntity
100
AcDbMText
  8
0
 62
7
370
0
  6
CONTINUOUS
 10
214.9461546946000112
 20
120.3239401228999981
 30
0.0
 40
3.5
 41
0.0
 71
1
 72
2
  1
COUPE\~C-C
  7
SLDTEXTSTYLE0
 50
0.0
 73
1
 44
1.0
  0
ENDSEC
  0
SECTION
  2
OBJECTS
  0
DICTIONARY
  5
C
100
AcDbDictionary
280
0
281
1
  3
ACAD_GROUP
350
D
  3
ACAD_LAYOUT
350
1A
  3
ACAD_MLINESTYLE
350
17
  3
ACAD_PLOTSETTINGS
350
19
  3
ACAD_PLOTSTYLENAME
350
E
  3
AcDbVariableDictionary
350
E9
  0
DICTIONARY
  5
D
100
AcDbDictionary
280
0
281
1
  0
ACDBDICTIONARYWDFLT
  5
E
100
AcDbDictionary
281
1
  3
Normal
350
F
100
AcDbDictionaryWithDefault
340
F
  0
ACDBPLACEHOLDER
  5
F
  0
DICTIONARY
  5
17
100
AcDbDictionary
280
0
281
1
  3
Standard
350
18
  0
MLINESTYLE
  5
18
100
AcDbMlineStyle
  2
STANDARD
 70
0
  3

 62
256
 51
90.0
 52
90.0
 71
2
 49
0.5
 62
256
  6
BYLAYER
 49
-0.5
 62
256
  6
BYLAYER
  0
DICTIONARY
  5
19
100
AcDbDictionary
280
0
281
1
  0
DICTIONARY
  5
1A
100
AcDbDictionary
281
1
  3
Layout1
350
1E
  3
Layout2
350
26
  3
Model
350
22
  0
LAYOUT
  5
1E
100
AcDbPlotSettings
  1

  2
C:\Program Files\AutoCAD 2002\plotters\DWF ePlot (optimized for plotting).pc3
  4

  6

 40
0.0
 41
0.0
 42
0.0
 43
0.0
 44
0.0
 45
0.0
 46
0.0
 47
0.0
 48
0.0
 49
0.0
140
0.0
141
0.0
142
1.0
143
1.0
 70
688
 72
0
 73
0
 74
5
  7

 75
16
147
1.0
148
0.0
149
0.0
100
AcDbLayout
  1
Layout1
 70
1
 71
1
 10
0.0
 20
0.0
 11
420.0
 21
297.0
 12
0.0
 22
0.0
 32
0.0
 14
100000000000000000000.0
 24
100000000000000000000.0
 34
100000000000000000000.0
 15
-100000000000000000000.0
 25
-100000000000000000000.0
 35
-100000000000000000000.0
146
0.0
 13
0.0
 23
0.0
 33
0.0
 16
1.0
 26
0.0
 36
0.0
 17
0.0
 27
1.0
 37
0.0
 76
0
330
1B
  0
LAYOUT
  5
22
100
AcDbPlotSettings
  1

  2
C:\Program Files\AutoCAD 2002\plotters\DWF ePlot (optimized for plotting).pc3
  4

  6

 40
0.0
 41
0.0
 42
0.0
 43
0.0
 44
0.0
 45
0.0
 46
0.0
 47
0.0
 48
0.0
 49
0.0
140
0.0
141
0.0
142
1.0
143
1.0
 70
1712
 72
0
 73
0
 74
0
  7

 75
0
147
1.0
148
0.0
149
0.0
100
AcDbLayout
  1
Model
 70
1
 71
0
 10
0.0
 20
0.0
 11
12.0
 21
9.0
 12
0.0
 22
0.0
 32
0.0
 14
0.0
 24
0.0
 34
0.0
 15
0.0
 25
0.0
 35
0.0
146
0.0
 13
0.0
 23
0.0
 33
0.0
 16
1.0
 26
0.0
 36
0.0
 17
0.0
 27
1.0
 37
0.0
 76
0
330
1F
  0
LAYOUT
  5
26
100
AcDbPlotSettings
  1

  2
C:\Program Files\AutoCAD 2002\plotters\DWF ePlot (optimized for plotting).pc3
  4

  6

 40
0.0
 41
0.0
 42
0.0
 43
0.0
 44
0.0
 45
0.0
 46
0.0
 47
0.0
 48
0.0
 49
0.0
140
0.0
141
0.0
142
1.0
143
1.0
 70
688
 72
0
 73
0
 74
5
  7

 75
16
147
1.0
148
0.0
149
0.0
100
AcDbLayout
  1
Layout2
 70
1
 71
2
 10
0.0
 20
0.0
 11
12.0
 21
9.0
 12
0.0
 22
0.0
 32
0.0
 14
0.0
 24
0.0
 34
0.0
 15
0.0
 25
0.0
 35
0.0
146
0.0
 13
0.0
 23
0.0
 33
0.0
 16
1.0
 26
0.0
 36
0.0
 17
0.0
 27
1.0
 37
0.0
 76
0
330
23
  0
DICTIONARY
  5
E9
100
AcDbDictionary
281
1
  3
DIMASSOC
350
EB
  3
HIDETEXT
350
EA
  0
DICTIONARYVAR
  5
EA
100
DictionaryVariables
280
0
  1
2
  0
DICTIONARYVAR
  5
EB
100
DictionaryVariables
280
0
  1
1
  0
ENDSEC
  0
EOF
