999
dxflib 2.0.4.8
  0
SECTION
  2
HEADER
  9
$ACADVER
  1
AC1015
  9
$HANDSEED
  5
FFFF
  9
$DIMASZ
 40
2.5
  9
$GRIDUNIT
 10
0.0
 20
0.0
  9
$DIMADEC
 70
2
  9
$DIMGAP
 40
0.625
  9
$SPLINESEGS
 70
8
  9
$AUPREC
 70
2
  9
$LUNITS
 70
2
  9
$DIMEXO
 40
0.625
  9
$INSUNITS
 70
4
  9
$DIMLUNIT
 70
2
  9
$DIMTXT
 40
2.5
  9
$GRIDMODE
 70
1
  9
$LUPREC
 70
4
  9
$DIMSTYLE
  2
Standard
  9
$PLIMMAX
 10
420.0
 20
297.0
  9
$PLIMMIN
 10
0.0
 20
0.0
  9
$PINSBASE
 10
0.0
 20
0.0
 30
0.0
  9
$DIMEXE
 40
1.25
  9
$DIMAUNIT
 70
0
  9
$AUNITS
 70
0
  0
ENDSEC
  0
SECTION
  2
TABLES
  0
TABLE
  2
VPORT
  5
8
100
AcDbSymbolTable
 70
1
  0
VPORT
  5
30
100
AcDbSymbolTableRecord
100
AcDbViewportTableRecord
  2
*Active
 70
0
 10
0.0
 20
0.0
 11
1.0
 21
1.0
 12
286.3055555555554861
 22
148.5
 13
0.0
 23
0.0
 14
10.0
 24
10.0
 15
10.0
 25
10.0
 16
0.0
 26
0.0
 36
1.0
 17
0.0
 27
0.0
 37
0.0
 40
297.0
 41
1.92798353909465
 42
50.0
 43
0.0
 44
0.0
 50
0.0
 51
0.0
 71
0
 72
100
 73
1
 74
3
 75
1
 76
1
 77
0
 78
0
281
0
 65
1
110
0.0
120
0.0
130
0.0
111
1.0
121
0.0
131
0.0
112
0.0
122
1.0
132
0.0
 79
0
146
0.0
  0
ENDTAB
  0
TABLE
  2
LTYPE
  5
5
100
AcDbSymbolTable
 70
21
  0
LTYPE
  5
14
100
AcDbSymbolTableRecord
100
AcDbLinetypeTableRecord
  2
ByBlock
 70
0
  3

 72
65
 73
0
 40
0.0
  0
LTYPE
  5
15
100
AcDbSymbolTableRecord
100
AcDbLinetypeTableRecord
  2
ByLayer
 70
0
  3

 72
65
 73
0
 40
0.0
  0
LTYPE
  5
16
100
AcDbSymbolTableRecord
100
AcDbLinetypeTableRecord
  2
CONTINUOUS
 70
0
  3
Solid line
 72
65
 73
0
 40
0.0
  0
LTYPE
  5
31
100
AcDbSymbolTableRecord
100
AcDbLinetypeTableRecord
  2
DOT
 70
0
  3
Dot . . . . . . . . . . . . . . . . . . . . . .
 72
65
 73
2
 40
6.3499999999999996
 49
0.0
 74
0
 49
-6.3499999999999996
 74
0
  0
LTYPE
  5
32
100
AcDbSymbolTableRecord
100
AcDbLinetypeTableRecord
  2
DOT2
 70
0
  3
Dot (.5x) .....................................
 72
65
 73
2
 40
3.1749999999999998
 49
0.0
 74
0
 49
-3.1749999999999998
 74
0
  0
LTYPE
  5
33
100
AcDbSymbolTableRecord
100
AcDbLinetypeTableRecord
  2
DOTX2
 70
0
  3
Dot (2x) .  .  .  .  .  .  .  .  .  .  .  .  .
 72
65
 73
2
 40
12.6999999999999993
 49
0.0
 74
0
 49
-12.6999999999999993
 74
0
  0
LTYPE
  5
34
100
AcDbSymbolTableRecord
100
AcDbLinetypeTableRecord
  2
DASHED
 70
0
  3
Dashed __ __ __ __ __ __ __ __ __ __ __ __ __ _
 72
65
 73
2
 40
19.0500000000000007
 49
12.6999999999999993
 74
0
 49
-6.3499999999999996
 74
0
  0
LTYPE
  5
35
100
AcDbSymbolTableRecord
100
AcDbLinetypeTableRecord
  2
DASHED2
 70
0
  3
Dashed (.5x) _ _ _ _ _ _ _ _ _ _ _ _ _ _ _ _ _
 72
65
 73
2
 40
9.5250000000000004
 49
6.3499999999999996
 74
0
 49
-3.1749999999999998
 74
0
  0
LTYPE
  5
36
100
AcDbSymbolTableRecord
100
AcDbLinetypeTableRecord
  2
DASHEDX2
 70
0
  3
Dashed (2x) ____  ____  ____  ____  ____  ___
 72
65
 73
2
 40
38.1000000000000014
 49
25.3999999999999986
 74
0
 49
-12.6999999999999993
 74
0
  0
LTYPE
  5
37
100
AcDbSymbolTableRecord
100
AcDbLinetypeTableRecord
  2
DASHDOT
 70
0
  3
Dash dot __ . __ . __ . __ . __ . __ . __ . __
 72
65
 73
4
 40
25.3999999999999986
 49
12.6999999999999993
 74
0
 49
-6.3499999999999996
 74
0
 49
0.0
 74
0
 49
-6.3499999999999996
 74
0
  0
LTYPE
  5
38
100
AcDbSymbolTableRecord
100
AcDbLinetypeTableRecord
  2
DASHDOT2
 70
0
  3
Dash dot (.5x) _._._._._._._._._._._._._._._.
 72
65
 73
4
 40
12.6999999999999993
 49
6.3499999999999996
 74
0
 49
-3.1749999999999998
 74
0
 49
0.0
 74
0
 49
-3.1749999999999998
 74
0
  0
LTYPE
  5
39
100
AcDbSymbolTableRecord
100
AcDbLinetypeTableRecord
  2
DASHDOTX2
 70
0
  3
Dash dot (2x) ____  .  ____  .  ____  .  ___
 72
65
 73
4
 40
50.7999999999999972
 49
25.3999999999999986
 74
0
 49
-12.6999999999999993
 74
0
 49
0.0
 74
0
 49
-12.6999999999999993
 74
0
  0
LTYPE
  5
3A
100
AcDbSymbolTableRecord
100
AcDbLinetypeTableRecord
  2
DIVIDE
 70
0
  3
Divide ____ . . ____ . . ____ . . ____ . . ____
 72
65
 73
6
 40
31.75
 49
12.6999999999999993
 74
0
 49
-6.3499999999999996
 74
0
 49
0.0
 74
0
 49
-6.3499999999999996
 74
0
 49
0.0
 74
0
 49
-6.3499999999999996
 74
0
  0
LTYPE
  5
3B
100
AcDbSymbolTableRecord
100
AcDbLinetypeTableRecord
  2
DIVIDE2
 70
0
  3
Divide (.5x) __..__..__..__..__..__..__..__.._
 72
65
 73
6
 40
15.875
 49
6.3499999999999996
 74
0
 49
-3.1749999999999998
 74
0
 49
0.0
 74
0
 49
-3.1749999999999998
 74
0
 49
0.0
 74
0
 49
-3.1749999999999998
 74
0
  0
LTYPE
  5
3C
100
AcDbSymbolTableRecord
100
AcDbLinetypeTableRecord
  2
DIVIDEX2
 70
0
  3
Divide (2x) ________  .  .  ________  .  .  _
 72
65
 73
6
 40
63.5
 49
25.3999999999999986
 74
0
 49
-12.6999999999999993
 74
0
 49
0.0
 74
0
 49
-12.6999999999999993
 74
0
 49
0.0
 74
0
 49
-12.6999999999999993
 74
0
  0
LTYPE
  5
3D
100
AcDbSymbolTableRecord
100
AcDbLinetypeTableRecord
  2
CENTER
 70
0
  3
Center ____ _ ____ _ ____ _ ____ _ ____ _ ____
 72
65
 73
4
 40
50.7999999999999972
 49
31.75
 74
0
 49
-6.3499999999999996
 74
0
 49
6.3499999999999996
 74
0
 49
-6.3499999999999996
 74
0
  0
LTYPE
  5
3E
100
AcDbSymbolTableRecord
100
AcDbLinetypeTableRecord
  2
CENTER2
 70
0
  3
Center (.5x) ___ _ ___ _ ___ _ ___ _ ___ _ ___
 72
65
 73
4
 40
28.5749999999999993
 49
19.0500000000000007
 74
0
 49
-3.1749999999999998
 74
0
 49
3.1749999999999998
 74
0
 49
-3.1749999999999998
 74
0
  0
LTYPE
  5
3F
100
AcDbSymbolTableRecord
100
AcDbLinetypeTableRecord
  2
CENTERX2
 70
0
  3
Center (2x) ________  __  ________  __  _____
 72
65
 73
4
 40
101.5999999999999943
 49
63.5
 74
0
 49
-12.6999999999999993
 74
0
 49
12.6999999999999993
 74
0
 49
-12.6999999999999993
 74
0
  0
LTYPE
  5
40
100
AcDbSymbolTableRecord
100
AcDbLinetypeTableRecord
  2
BORDER
 70
0
  3
Border __ __ . __ __ . __ __ . __ __ . __ __ .
 72
65
 73
6
 40
44.4500000000000028
 49
12.6999999999999993
 74
0
 49
-6.3499999999999996
 74
0
 49
12.6999999999999993
 74
0
 49
-6.3499999999999996
 74
0
 49
0.0
 74
0
 49
-6.3499999999999996
 74
0
  0
LTYPE
  5
41
100
AcDbSymbolTableRecord
100
AcDbLinetypeTableRecord
  2
BORDER2
 70
0
  3
Border (.5x) __.__.__.__.__.__.__.__.__.__.__.
 72
65
 73
6
 40
22.2250000000000014
 49
6.3499999999999996
 74
0
 49
-3.1749999999999998
 74
0
 49
6.3499999999999996
 74
0
 49
-3.1749999999999998
 74
0
 49
0.0
 74
0
 49
-3.1749999999999998
 74
0
  0
LTYPE
  5
42
100
AcDbSymbolTableRecord
100
AcDbLinetypeTableRecord
  2
BORDERX2
 70
0
  3
Border (2x) ____  ____  .  ____  ____  .  ___
 72
65
 73
6
 40
88.9000000000000057
 49
25.3999999999999986
 74
0
 49
-12.6999999999999993
 74
0
 49
25.3999999999999986
 74
0
 49
-12.6999999999999993
 74
0
 49
0.0
 74
0
 49
-12.6999999999999993
 74
0
  0
ENDTAB
  0
TABLE
  2
LAYER
  5
2
100
AcDbSymbolTable
 70
8
  0
LAYER
  5
10
100
AcDbSymbolTableRecord
100
AcDbLayerTableRecord
  2
0
 70
0
 62
7
  6
CONTINUOUS
370
0
390
F
  0
LAYER
  5
43
100
AcDbSymbolTableRecord
100
AcDbLayerTableRecord
  2
FORT
 70
0
 62
7
  6
CONTINUOUS
370
50
390
F
  0
LAYER
  5
44
100
AcDbSymbolTableRecord
100
AcDbLayerTableRecord
  2
TEXTE
 70
0
 62
7
  6
CONTINUOUS
370
50
390
F
  0
LAYER
  5
45
100
AcDbSymbolTableRecord
100
AcDbLayerTableRecord
  2
FIN
 70
0
 62
5
  6
CONTINUOUS
370
25
390
F
  0
LAYER
  5
46
100
AcDbSymbolTableRecord
100
AcDbLayerTableRecord
  2
HACHURE
 70
0
 62
5
  6
CONTINUOUS
370
25
390
F
  0
LAYER
  5
47
100
AcDbSymbolTableRecord
100
AcDbLayerTableRecord
  2
RENFORCE
 70
0
 62
7
  6
CONTINUOUS
370
70
390
F
  0
LAYER
  5
48
100
AcDbSymbolTableRecord
100
AcDbLayerTableRecord
  2
AXE
 70
0
 62
3
  6
DASHDOT
370
25
390
F
  0
LAYER
  5
49
100
AcDbSymbolTableRecord
100
AcDbLayerTableRecord
  2
INTERROMPU
 70
0
 62
5
  6
DASHED
370
25
390
F
  0
ENDTAB
  0
TABLE
  2
STYLE
  5
3
100
AcDbSymbolTable
 70
1
  0
STYLE
  5
11
100
AcDbSymbolTableRecord
100
AcDbTextStyleTableRecord
  2
Standard
 70
0
 40
0.0
 41
0.75
 50
0.0
 71
0
 42
2.5
  3
txt
  4

  0
ENDTAB
  0
TABLE
  2
VIEW
  5
6
100
AcDbSymbolTable
 70
0
  0
ENDTAB
  0
TABLE
  2
UCS
  5
7
100
AcDbSymbolTable
 70
0
  0
ENDTAB
  0
TABLE
  2
APPID
  5
9
100
AcDbSymbolTable
 70
1
  0
APPID
  5
12
100
AcDbSymbolTableRecord
100
AcDbRegAppTableRecord
  2
ACAD
 70
0
  0
ENDTAB
  0
TABLE
  2
DIMSTYLE
  5
A
100
AcDbSymbolTable
 70
1
100
AcDbDimStyleTable
 71
0
  0
DIMSTYLE
105
27
100
AcDbSymbolTableRecord
100
AcDbDimStyleTableRecord
  2
Standard
 41
2.5
 42
0.625
 43
3.75
 44
1.25
 70
0
 73
0
 74
0
 77
1
 78
8
140
2.5
141
2.5
143
0.03937007874016
147
0.625
171
3
172
1
271
2
272
2
274
3
278
44
283
0
284
8
340
11
  0
ENDTAB
  0
TABLE
  2
BLOCK_RECORD
  5
1
100
AcDbSymbolTable
 70
1
  0
BLOCK_RECORD
  5
1F
100
AcDbSymbolTableRecord
100
AcDbBlockTableRecord
  2
*Model_Space
340
22
  0
BLOCK_RECORD
  5
1B
100
AcDbSymbolTableRecord
100
AcDbBlockTableRecord
  2
*Paper_Space
340
1E
  0
BLOCK_RECORD
  5
23
100
AcDbSymbolTableRecord
100
AcDbBlockTableRecord
  2
*Paper_Space0
340
26
  0
BLOCK_RECORD
  5
4A
100
AcDbSymbolTableRecord
100
AcDbBlockTableRecord
  2
DESENS-G1
340
0
  0
BLOCK_RECORD
  5
4B
100
AcDbSymbolTableRecord
100
AcDbBlockTableRecord
  2
DESENS-G2
340
0
  0
BLOCK_RECORD
  5
4C
100
AcDbSymbolTableRecord
100
AcDbBlockTableRecord
  2
DESENS-G3
340
0
  0
BLOCK_RECORD
  5
4D
100
AcDbSymbolTableRecord
100
AcDbBlockTableRecord
  2
DESENS-G4
340
0
  0
BLOCK_RECORD
  5
4E
100
AcDbSymbolTableRecord
100
AcDbBlockTableRecord
  2
DESENS-G5
340
0
  0
BLOCK_RECORD
  5
4F
100
AcDbSymbolTableRecord
100
AcDbBlockTableRecord
  2
DESENS-G6
340
0
  0
BLOCK_RECORD
  5
50
100
AcDbSymbolTableRecord
100
AcDbBlockTableRecord
  2
DESENS-G7
340
0
  0
BLOCK_RECORD
  5
51
100
AcDbSymbolTableRecord
100
AcDbBlockTableRecord
  2
DESENS-G9
340
0
  0
BLOCK_RECORD
  5
52
100
AcDbSymbolTableRecord
100
AcDbBlockTableRecord
  2
DESENS-G10
340
0
  0
BLOCK_RECORD
  5
53
100
AcDbSymbolTableRecord
100
AcDbBlockTableRecord
  2
DESENS-G11
340
0
  0
BLOCK_RECORD
  5
54
100
AcDbSymbolTableRecord
100
AcDbBlockTableRecord
  2
DESENS-G12
340
0
  0
BLOCK_RECORD
  5
55
100
AcDbSymbolTableRecord
100
AcDbBlockTableRecord
  2
DESENS-G13
340
0
  0
BLOCK_RECORD
  5
56
100
AcDbSymbolTableRecord
100
AcDbBlockTableRecord
  2
DESENS-G14
340
0
  0
BLOCK_RECORD
  5
57
100
AcDbSymbolTableRecord
100
AcDbBlockTableRecord
  2
DESENS-G15
340
0
  0
BLOCK_RECORD
  5
58
100
AcDbSymbolTableRecord
100
AcDbBlockTableRecord
  2
DESENS-G16
340
0
  0
BLOCK_RECORD
  5
59
100
AcDbSymbolTableRecord
100
AcDbBlockTableRecord
  2
DESENS-G17
340
0
  0
BLOCK_RECORD
  5
5A
100
AcDbSymbolTableRecord
100
AcDbBlockTableRecord
  2
DESENS-G18
340
0
  0
BLOCK_RECORD
  5
5B
100
AcDbSymbolTableRecord
100
AcDbBlockTableRecord
  2
DESENS-G19
340
0
  0
BLOCK_RECORD
  5
5C
100
AcDbSymbolTableRecord
100
AcDbBlockTableRecord
  2
DESENS-G20
340
0
  0
BLOCK_RECORD
  5
5D
100
AcDbSymbolTableRecord
100
AcDbBlockTableRecord
  2
DESENS-G21
340
0
  0
BLOCK_RECORD
  5
5E
100
AcDbSymbolTableRecord
100
AcDbBlockTableRecord
  2
DESENS-G22
340
0
  0
BLOCK_RECORD
  5
5F
100
AcDbSymbolTableRecord
100
AcDbBlockTableRecord
  2
DESENS-G23
340
0
  0
BLOCK_RECORD
  5
60
100
AcDbSymbolTableRecord
100
AcDbBlockTableRecord
  2
DESENS-G24
340
0
  0
BLOCK_RECORD
  5
61
100
AcDbSymbolTableRecord
100
AcDbBlockTableRecord
  2
DESENS-G8
340
0
  0
ENDTAB
  0
ENDSEC
  0
SECTION
  2
BLOCKS
  0
BLOCK
  5
20
100
AcDbEntity
  8
0
100
AcDbBlockBegin
  2
*Model_Space
 70
0
 10
0.0
 20
0.0
 30
0.0
  3
*Model_Space
  1

  0
ENDBLK
  5
21
100
AcDbEntity
  8
0
100
AcDbBlockEnd
  0
BLOCK
  5
1C
100
AcDbEntity
 67
1
  8
0
100
AcDbBlockBegin
  2
*Paper_Space
 70
0
 10
0.0
 20
0.0
 30
0.0
  3
*Paper_Space
  1

  0
ENDBLK
  5
1D
100
AcDbEntity
 67
1
  8
0
100
AcDbBlockEnd
  0
BLOCK
  5
24
100
AcDbEntity
  8
0
100
AcDbBlockBegin
  2
*Paper_Space0
 70
0
 10
0.0
 20
0.0
 30
0.0
  3
*Paper_Space0
  1

  0
ENDBLK
  5
25
100
AcDbEntity
  8
0
100
AcDbBlockEnd
  0
BLOCK
  5
62
100
AcDbEntity
  8
0
100
AcDbBlockBegin
  2
DESENS-G1
 70
0
 10
0.0
 20
0.0
 30
0.0
  3
DESENS-G1
  1

  0
LINE
  5
63
100
AcDbEntity
100
AcDbLine
  8
HACHURE
 62
5
370
-1
  6
CONTINUOUS
 10
112.5558110000000056
 20
119.9874080000000021
 30
0.0
 11
109.5695300000000003
 21
121.3799329999999941
 31
0.0
  0
LINE
  5
64
100
AcDbEntity
100
AcDbLine
  8
HACHURE
 62
5
370
-1
  6
CONTINUOUS
 10
108.4498820000000023
 20
119.0993720000000025
 30
0.0
 11
112.4161440000000027
 21
117.2498740000000055
 31
0.0
  0
ENDBLK
  5
65
100
AcDbEntity
  8
0
100
AcDbBlockEnd
  0
BLOCK
  5
66
100
AcDbEntity
  8
0
100
AcDbBlockBegin
  2
DESENS-G2
 70
0
 10
0.0
 20
0.0
 30
0.0
  3
DESENS-G2
  1

  0
LINE
  5
67
100
AcDbEntity
100
AcDbLine
  8
HACHURE
 62
5
370
-1
  6
CONTINUOUS
 10
104.4129070000000041
 20
127.639796000000004
 30
0.0
 11
104.2037279999999981
 21
126.453479999999999
 31
0.0
  0
LINE
  5
68
100
AcDbEntity
100
AcDbLine
  8
HACHURE
 62
5
370
-1
  6
CONTINUOUS
 10
106.4266290000000055
 20
122.6038829999999962
 30
0.0
 11
107.6435419999999965
 21
129.5053409999999872
 31
0.0
  0
LINE
  5
69
100
AcDbEntity
100
AcDbLine
  8
HACHURE
 62
5
370
-1
  6
CONTINUOUS
 10
110.6755359999999939
 20
130.244339999999994
 30
0.0
 11
109.0607030000000037
 21
121.0861660000000057
 31
0.0
  0
LINE
  5
6A
100
AcDbEntity
100
AcDbLine
  8
HACHURE
 62
5
370
-1
  6
CONTINUOUS
 10
112.2907249999999948
 20
122.950885999999997
 30
0.0
 11
113.4963809999999995
 21
129.7885009999999966
 31
0.0
  0
LINE
  5
6B
100
AcDbEntity
100
AcDbLine
  8
HACHURE
 62
5
370
-1
  6
CONTINUOUS
 10
116.520151999999996
 20
130.4808620000000019
 30
0.0
 11
116.2718509999999981
 21
129.0726789999999937
 31
0.0
  0
ENDBLK
  5
6C
100
AcDbEntity
  8
0
100
AcDbBlockEnd
  0
BLOCK
  5
6D
100
AcDbEntity
  8
0
100
AcDbBlockBegin
  2
DESENS-G3
 70
0
 10
0.0
 20
0.0
 30
0.0
  3
DESENS-G3
  1

  0
LINE
  5
6E
100
AcDbEntity
100
AcDbLine
  8
HACHURE
 62
5
370
-1
  6
CONTINUOUS
 10
102.6386519999999933
 20
113.1643739999999951
 30
0.0
 11
98.6011359999999968
 21
115.0470980000000054
 31
0.0
  0
LINE
  5
6F
100
AcDbEntity
100
AcDbLine
  8
HACHURE
 62
5
370
-1
  6
CONTINUOUS
 10
95.9152559999999994
 20
113.4967089999999956
 30
0.0
 11
101.4473179999999957
 21
110.917067000000003
 31
0.0
  0
LINE
  5
70
100
AcDbEntity
100
AcDbLine
  8
HACHURE
 62
5
370
-1
  6
CONTINUOUS
 10
99.6629400000000061
 20
108.9468260000000015
 30
0.0
 11
93.2300089999999955
 21
111.9465509999999995
 31
0.0
  0
LINE
  5
71
100
AcDbEntity
100
AcDbLine
  8
HACHURE
 62
5
370
-1
  6
CONTINUOUS
 10
90.5445610000000016
 20
110.3959609999999998
 30
0.0
 11
95.9566789999999941
 21
107.8722489999999965
 31
0.0
  0
LINE
  5
72
100
AcDbEntity
100
AcDbLine
  8
HACHURE
 62
5
370
-1
  6
CONTINUOUS
 10
91.7121690000000029
 20
107.0491860000000059
 30
0.0
 11
89.7210239999999999
 21
107.9776729999999958
 31
0.0
  0
ENDBLK
  5
73
100
AcDbEntity
  8
0
100
AcDbBlockEnd
  0
BLOCK
  5
74
100
AcDbEntity
  8
0
100
AcDbBlockBegin
  2
DESENS-G4
 70
0
 10
0.0
 20
0.0
 30
0.0
  3
DESENS-G4
  1

  0
LINE
  5
75
100
AcDbEntity
100
AcDbLine
  8
HACHURE
 62
5
370
-1
  6
CONTINUOUS
 10
105.8286120000000068
 20
131.6393449999999916
 30
0.0
 11
103.3451950000000039
 21
132.7973819999999989
 31
0.0
  0
LINE
  5
76
100
AcDbEntity
100
AcDbLine
  8
HACHURE
 62
5
370
-1
  6
CONTINUOUS
 10
101.7225899999999967
 20
130.7514290000000017
 30
0.0
 11
106.1916489999999982
 21
128.6674730000000011
 31
0.0
  0
ENDBLK
  5
77
100
AcDbEntity
  8
0
100
AcDbBlockEnd
  0
BLOCK
  5
78
100
AcDbEntity
  8
0
100
AcDbBlockBegin
  2
DESENS-G5
 70
0
 10
0.0
 20
0.0
 30
0.0
  3
DESENS-G5
  1

  0
LINE
  5
79
100
AcDbEntity
100
AcDbLine
  8
HACHURE
 62
5
370
-1
  6
CONTINUOUS
 10
95.3136099999999971
 20
125.8516249999999985
 30
0.0
 11
93.1013860000000051
 21
126.8832019999999972
 31
0.0
  0
LINE
  5
7A
100
AcDbEntity
100
AcDbLine
  8
HACHURE
 62
5
370
-1
  6
CONTINUOUS
 10
89.5939309999999978
 20
125.7161020000000065
 30
0.0
 11
95.9478189999999955
 21
122.7532350000000037
 31
0.0
  0
LINE
  5
7B
100
AcDbEntity
100
AcDbLine
  8
HACHURE
 62
5
370
-1
  6
CONTINUOUS
 10
93.2621769999999941
 20
121.2029169999999993
 30
0.0
 11
87.6368520000000046
 21
123.8260489999999976
 31
0.0
  0
LINE
  5
7C
100
AcDbEntity
100
AcDbLine
  8
HACHURE
 62
5
370
-1
  6
CONTINUOUS
 10
85.6812890000000067
 20
121.9352899999999948
 30
0.0
 11
90.5769140000000021
 21
119.6524229999999989
 31
0.0
  0
LINE
  5
7D
100
AcDbEntity
100
AcDbLine
  8
HACHURE
 62
5
370
-1
  6
CONTINUOUS
 10
87.8918280000000038
 20
118.1023069999999962
 30
0.0
 11
84.168650999999997
 21
119.8384530000000012
 31
0.0
  0
LINE
  5
7E
100
AcDbEntity
100
AcDbLine
  8
HACHURE
 62
5
370
-1
  6
CONTINUOUS
 10
84.3024949999999933
 20
116.9733870000000024
 30
0.0
 11
85.2061860000000024
 21
116.5519890000000061
 31
0.0
  0
ENDBLK
  5
7F
100
AcDbEntity
  8
0
100
AcDbBlockEnd
  0
BLOCK
  5
80
100
AcDbEntity
  8
0
100
AcDbBlockBegin
  2
DESENS-G6
 70
0
 10
0.0
 20
0.0
 30
0.0
  3
DESENS-G6
  1

  0
LINE
  5
81
100
AcDbEntity
100
AcDbLine
  8
HACHURE
 62
5
370
-1
  6
CONTINUOUS
 10
87.0530990000000031
 20
113.1799589999999966
 30
0.0
 11
86.996493000000001
 21
112.8589300000000009
 31
0.0
  0
LINE
  5
82
100
AcDbEntity
100
AcDbLine
  8
HACHURE
 62
5
370
-1
  6
CONTINUOUS
 10
90.0202629999999999
 20
113.5512910000000062
 30
0.0
 11
90.6343889999999988
 21
117.034167999999994
 31
0.0
  0
LINE
  5
83
100
AcDbEntity
100
AcDbLine
  8
HACHURE
 62
5
370
-1
  6
CONTINUOUS
 10
90.8940269999999941
 20
118.5066479999999984
 30
0.0
 11
91.1547819999999973
 21
119.9854679999999973
 31
0.0
  0
LINE
  5
84
100
AcDbEntity
100
AcDbLine
  8
HACHURE
 62
5
370
-1
  6
CONTINUOUS
 10
94.3853370000000069
 20
121.850560999999999
 30
0.0
 11
93.0440339999999964
 21
114.2436519999999973
 31
0.0
  0
LINE
  5
85
100
AcDbEntity
100
AcDbLine
  8
HACHURE
 62
5
370
-1
  6
CONTINUOUS
 10
95.8019659999999931
 20
113.431012999999993
 30
0.0
 11
97.3653819999999968
 21
122.2975890000000021
 31
0.0
  0
LINE
  5
86
100
AcDbEntity
100
AcDbLine
  8
HACHURE
 62
5
370
-1
  6
CONTINUOUS
 10
99.5882040000000046
 20
118.4475390000000061
 30
0.0
 11
99.0326009999999997
 21
115.2965580000000045
 31
0.0
  0
ENDBLK
  5
87
100
AcDbEntity
  8
0
100
AcDbBlockEnd
  0
BLOCK
  5
88
100
AcDbEntity
  8
0
100
AcDbBlockBegin
  2
DESENS-G7
 70
0
 10
0.0
 20
0.0
 30
0.0
  3
DESENS-G7
  1

  0
LINE
  5
89
100
AcDbEntity
100
AcDbLine
  8
HACHURE
 62
5
370
-1
  6
CONTINUOUS
 10
93.0516219999999947
 20
128.0090490000000045
 30
0.0
 11
92.7319669999999974
 21
127.3235459999999932
 31
0.0
  0
LINE
  5
8A
100
AcDbEntity
100
AcDbLine
  8
HACHURE
 62
5
370
-1
  6
CONTINUOUS
 10
93.2735109999999992
 20
126.9824330000000003
 30
0.0
 11
94.0103450000000009
 21
128.562579999999997
 31
0.0
  0
LINE
  5
8B
100
AcDbEntity
100
AcDbLine
  8
HACHURE
 62
5
370
-1
  6
CONTINUOUS
 10
94.5389660000000021
 20
128.1935819999999921
 30
0.0
 11
94.2323920000000044
 21
127.5361309999999975
 31
0.0
  0
ENDBLK
  5
8C
100
AcDbEntity
  8
0
100
AcDbBlockEnd
  0
BLOCK
  5
8D
100
AcDbEntity
  8
0
100
AcDbBlockBegin
  2
DESENS-G9
 70
0
 10
0.0
 20
0.0
 30
0.0
  3
DESENS-G9
  1

  0
LINE
  5
8E
100
AcDbEntity
100
AcDbLine
  8
HACHURE
 62
5
370
-1
  6
CONTINUOUS
 10
144.7264900000000125
 20
243.5095780000000047
 30
0.0
 11
141.0852109999999868
 21
239.868300000000005
 31
0.0
  0
LINE
  5
8F
100
AcDbEntity
100
AcDbLine
  8
HACHURE
 62
5
370
-1
  6
CONTINUOUS
 10
141.0852260000000058
 20
234.9287469999999871
 30
0.0
 11
147.6661489999999901
 21
241.5096709999999973
 31
0.0
  0
LINE
  5
90
100
AcDbEntity
100
AcDbLine
  8
HACHURE
 62
5
370
-1
  6
CONTINUOUS
 10
149.9338750000000005
 20
238.8388909999999896
 30
0.0
 11
141.084179000000006
 21
229.9891949999999952
 31
0.0
  0
LINE
  5
91
100
AcDbEntity
100
AcDbLine
  8
HACHURE
 62
5
370
-1
  6
CONTINUOUS
 10
140.6933370000000139
 20
224.6587859999999921
 30
0.0
 11
149.9338889999999935
 21
233.8993389999999977
 31
0.0
  0
LINE
  5
92
100
AcDbEntity
100
AcDbLine
  8
HACHURE
 62
5
370
-1
  6
CONTINUOUS
 10
150.6339460000000088
 20
229.6608889999999974
 30
0.0
 11
149.4820589999999925
 21
228.5090020000000095
 31
0.0
  0
LINE
  5
93
100
AcDbEntity
100
AcDbLine
  8
HACHURE
 62
5
370
-1
  6
CONTINUOUS
 10
142.840676000000002
 20
221.8676199999999881
 30
0.0
 11
139.2545529999999872
 21
218.2814970000000017
 31
0.0
  0
LINE
  5
94
100
AcDbEntity
100
AcDbLine
  8
HACHURE
 62
5
370
-1
  6
CONTINUOUS
 10
137.4975680000000011
 20
211.5849460000000022
 30
0.0
 11
144.648602000000011
 21
218.7359789999999862
 31
0.0
  0
LINE
  5
95
100
AcDbEntity
100
AcDbLine
  8
HACHURE
 62
5
370
-1
  6
CONTINUOUS
 10
147.3618089999999938
 20
216.5096200000000124
 30
0.0
 11
139.5743730000000085
 21
208.7221839999999986
 31
0.0
  0
LINE
  5
96
100
AcDbEntity
100
AcDbLine
  8
HACHURE
 62
5
370
-1
  6
CONTINUOUS
 10
142.671543000000014
 20
206.8808479999999861
 30
0.0
 11
152.3002999999999929
 21
216.5096049999999934
 31
0.0
  0
LINE
  5
97
100
AcDbEntity
100
AcDbLine
  8
HACHURE
 62
5
370
-1
  6
CONTINUOUS
 10
157.2398520000000133
 20
216.5095910000000003
 30
0.0
 11
146.3732929999999897
 21
205.6430320000000052
 31
0.0
  0
LINE
  5
98
100
AcDbEntity
100
AcDbLine
  8
HACHURE
 62
5
370
-1
  6
CONTINUOUS
 10
150.8047850000000096
 20
205.1360180000000071
 30
0.0
 11
159.9334369999999979
 21
214.2646699999999953
 31
0.0
  0
LINE
  5
99
100
AcDbEntity
100
AcDbLine
  8
HACHURE
 62
5
370
-1
  6
CONTINUOUS
 10
159.9334509999999909
 20
209.3251180000000033
 30
0.0
 11
154.4455470000000048
 21
203.8372139999999888
 31
0.0
  0
LINE
  5
9A
100
AcDbEntity
100
AcDbLine
  8
HACHURE
 62
5
370
-1
  6
CONTINUOUS
 10
158.9374970000000076
 20
203.3895970000000091
 30
0.0
 11
159.9334660000000099
 21
204.3855660000000114
 31
0.0
  0
ENDBLK
  5
9B
100
AcDbEntity
  8
0
100
AcDbBlockEnd
  0
BLOCK
  5
9C
100
AcDbEntity
  8
0
100
AcDbBlockBegin
  2
DESENS-G10
 70
0
 10
0.0
 20
0.0
 30
0.0
  3
DESENS-G10
  1

  0
LINE
  5
9D
100
AcDbEntity
100
AcDbLine
  8
HACHURE
 62
5
370
-1
  6
CONTINUOUS
 10
157.5443380000000104
 20
241.5094369999999913
 30
0.0
 11
155.9341330000000028
 21
239.899232000000012
 31
0.0
  0
LINE
  5
9E
100
AcDbEntity
100
AcDbLine
  8
HACHURE
 62
5
370
-1
  6
CONTINUOUS
 10
155.9341860000000111
 20
234.9601619999999969
 30
0.0
 11
159.9340599999999881
 21
238.9600360000000023
 31
0.0
  0
LINE
  5
9F
100
AcDbEntity
100
AcDbLine
  8
HACHURE
 62
5
370
-1
  6
CONTINUOUS
 10
159.9341129999999964
 20
234.0209659999999872
 30
0.0
 11
155.2341830000000016
 21
229.3210359999999923
 31
0.0
  0
LINE
  5
A0
100
AcDbEntity
100
AcDbLine
  8
HACHURE
 62
5
370
-1
  6
CONTINUOUS
 10
159.3617669999999862
 20
228.5094970000000103
 30
0.0
 11
159.9341670000000022
 21
229.0818969999999979
 31
0.0
  0
ENDBLK
  5
A1
100
AcDbEntity
  8
0
100
AcDbBlockEnd
  0
BLOCK
  5
A2
100
AcDbEntity
  8
0
100
AcDbBlockBegin
  2
DESENS-G11
 70
0
 10
0.0
 20
0.0
 30
0.0
  3
DESENS-G11
  1

  0
LINE
  5
A3
100
AcDbEntity
100
AcDbLine
  8
HACHURE
 62
5
370
-1
  6
CONTINUOUS
 10
282.8977219999999875
 20
170.9790669999999864
 30
0.0
 11
268.8437559999999849
 21
177.5325390000000141
 31
0.0
  0
LINE
  5
A4
100
AcDbEntity
100
AcDbLine
  8
HACHURE
 62
5
370
-1
  6
CONTINUOUS
 10
264.9171529999999848
 20
176.5617499999999893
 30
0.0
 11
284.6789110000000278
 21
167.3466909999999928
 31
0.0
  0
LINE
  5
A5
100
AcDbEntity
100
AcDbLine
  8
HACHURE
 62
5
370
-1
  6
CONTINUOUS
 10
285.3564230000000066
 20
164.2289680000000089
 30
0.0
 11
275.476428999999996
 21
168.8360849999999971
 31
0.0
  0
LINE
  5
A6
100
AcDbEntity
100
AcDbLine
  8
HACHURE
 62
5
370
-1
  6
CONTINUOUS
 10
271.9759920000000193
 20
170.4683660000000032
 30
0.0
 11
262.0924580000000219
 21
175.0771330000000034
 31
0.0
  0
LINE
  5
A7
100
AcDbEntity
100
AcDbLine
  8
HACHURE
 62
5
370
-1
  6
CONTINUOUS
 10
259.9076650000000086
 20
173.2941250000000082
 30
0.0
 11
267.1598970000000008
 21
169.912352999999996
 31
0.0
  0
LINE
  5
A8
100
AcDbEntity
100
AcDbLine
  8
HACHURE
 62
5
370
-1
  6
CONTINUOUS
 10
278.1426839999999743
 20
164.7909960000000069
 30
0.0
 11
285.394030999999984
 21
161.4096370000000036
 31
0.0
  0
LINE
  5
A9
100
AcDbEntity
100
AcDbLine
  8
HACHURE
 62
5
370
-1
  6
CONTINUOUS
 10
284.9528189999999768
 20
158.8135829999999942
 30
0.0
 11
278.4095249999999737
 21
161.8647719999999879
 31
0.0
  0
LINE
  5
AA
100
AcDbEntity
100
AcDbLine
  8
HACHURE
 62
5
370
-1
  6
CONTINUOUS
 10
264.7494130000000041
 20
168.2345860000000073
 30
0.0
 11
258.2034629999999993
 21
171.2870130000000017
 31
0.0
  0
LINE
  5
AB
100
AcDbEntity
100
AcDbLine
  8
HACHURE
 62
5
370
-1
  6
CONTINUOUS
 10
256.9092580000000225
 20
169.082334000000003
 30
0.0
 11
263.2542980000000057
 21
166.1235939999999971
 31
0.0
  0
LINE
  5
AC
100
AcDbEntity
100
AcDbLine
  8
HACHURE
 62
5
370
-1
  6
CONTINUOUS
 10
277.7516820000000166
 20
159.3633519999999919
 30
0.0
 11
284.0958360000000198
 21
156.4050239999999974
 31
0.0
  0
LINE
  5
AD
100
AcDbEntity
100
AcDbLine
  8
HACHURE
 62
5
370
-1
  6
CONTINUOUS
 10
282.8483289999999784
 20
154.1849530000000073
 30
0.0
 11
276.3457480000000146
 21
157.2171559999999886
 31
0.0
  0
LINE
  5
AE
100
AcDbEntity
100
AcDbLine
  8
HACHURE
 62
5
370
-1
  6
CONTINUOUS
 10
262.5148179999999911
 20
163.666624000000013
 30
0.0
 11
256.011351999999988
 21
166.6992410000000007
 31
0.0
  0
LINE
  5
AF
100
AcDbEntity
100
AcDbLine
  8
HACHURE
 62
5
370
-1
  6
CONTINUOUS
 10
255.5205760000000055
 20
164.1262989999999888
 30
0.0
 11
262.6559799999999996
 21
160.7990059999999914
 31
0.0
  0
LINE
  5
B0
100
AcDbEntity
100
AcDbLine
  8
HACHURE
 62
5
370
-1
  6
CONTINUOUS
 10
274.0600580000000264
 20
155.4811970000000088
 30
0.0
 11
281.576925000000017
 21
151.9760239999999953
 31
0.0
  0
LINE
  5
B1
100
AcDbEntity
100
AcDbLine
  8
HACHURE
 62
5
370
-1
  6
CONTINUOUS
 10
281.7645590000000198
 20
151.8885290000000055
 30
0.0
 11
281.7645590000000198
 21
151.8885290000000055
 31
0.0
  0
LINE
  5
B2
100
AcDbEntity
100
AcDbLine
  8
HACHURE
 62
5
370
-1
  6
CONTINUOUS
 10
281.4454860000000167
 20
149.2355210000000056
 30
0.0
 11
269.8502330000000029
 21
154.6424759999999878
 31
0.0
  0
LINE
  5
B3
100
AcDbEntity
100
AcDbLine
  8
HACHURE
 62
5
370
-1
  6
CONTINUOUS
 10
264.7141940000000204
 20
157.0374500000000069
 30
0.0
 11
255.5006549999999947
 21
161.3337940000000117
 31
0.0
  0
LINE
  5
B4
100
AcDbEntity
100
AcDbLine
  8
HACHURE
 62
5
370
-1
  6
CONTINUOUS
 10
256.0914300000000026
 20
158.2565170000000023
 30
0.0
 11
281.4459219999999959
 21
146.4335230000000081
 31
0.0
  0
LINE
  5
B5
100
AcDbEntity
100
AcDbLine
  8
HACHURE
 62
5
370
-1
  6
CONTINUOUS
 10
281.4454719999999952
 20
143.6319389999999885
 30
0.0
 11
257.7044569999999908
 21
154.7025559999999871
 31
0.0
  0
LINE
  5
B6
100
AcDbEntity
100
AcDbLine
  8
HACHURE
 62
5
370
-1
  6
CONTINUOUS
 10
260.3423900000000231
 20
150.6706739999999911
 30
0.0
 11
281.4459079999999744
 21
140.8299409999999909
 31
0.0
  0
LINE
  5
B7
100
AcDbEntity
100
AcDbLine
  8
HACHURE
 62
5
370
-1
  6
CONTINUOUS
 10
281.445459000000028
 20
138.0283569999999997
 30
0.0
 11
260.4446080000000165
 21
147.8212139999999977
 31
0.0
  0
LINE
  5
B8
100
AcDbEntity
100
AcDbLine
  8
HACHURE
 62
5
370
-1
  6
CONTINUOUS
 10
260.4443699999999922
 20
145.0131489999999985
 30
0.0
 11
281.4452210000000036
 21
135.2202910000000031
 31
0.0
  0
LINE
  5
B9
100
AcDbEntity
100
AcDbLine
  8
HACHURE
 62
5
370
-1
  6
CONTINUOUS
 10
281.4456559999999854
 20
132.4182940000000031
 30
0.0
 11
260.4448060000000282
 21
142.2111519999999985
 31
0.0
  0
LINE
  5
BA
100
AcDbEntity
100
AcDbLine
  8
HACHURE
 62
5
370
-1
  6
CONTINUOUS
 10
260.444357000000025
 20
139.4095670000000098
 30
0.0
 11
281.4452069999999821
 21
129.616708999999986
 31
0.0
  0
LINE
  5
BB
100
AcDbEntity
100
AcDbLine
  8
HACHURE
 62
5
370
-1
  6
CONTINUOUS
 10
281.4456430000000182
 20
126.8147120000000001
 30
0.0
 11
260.4447920000000067
 21
136.6075690000000122
 31
0.0
  0
LINE
  5
BC
100
AcDbEntity
100
AcDbLine
  8
HACHURE
 62
5
370
-1
  6
CONTINUOUS
 10
260.4443430000000035
 20
133.8059849999999926
 30
0.0
 11
281.445194000000015
 21
124.0131269999999972
 31
0.0
  0
LINE
  5
BD
100
AcDbEntity
100
AcDbLine
  8
HACHURE
 62
5
370
-1
  6
CONTINUOUS
 10
281.4456299999999942
 20
121.2111299999999972
 30
0.0
 11
260.4447789999999827
 21
131.0039869999999951
 31
0.0
  0
LINE
  5
BE
100
AcDbEntity
100
AcDbLine
  8
HACHURE
 62
5
370
-1
  6
CONTINUOUS
 10
260.4443299999999795
 20
128.2024030000000039
 30
0.0
 11
281.4451809999999909
 21
118.4095449999999943
 31
0.0
  0
LINE
  5
BF
100
AcDbEntity
100
AcDbLine
  8
HACHURE
 62
5
370
-1
  6
CONTINUOUS
 10
281.445617000000027
 20
115.6075479999999942
 30
0.0
 11
260.4447660000000155
 21
125.4004050000000063
 31
0.0
  0
LINE
  5
C0
100
AcDbEntity
100
AcDbLine
  8
HACHURE
 62
5
370
-1
  6
CONTINUOUS
 10
260.4445269999999937
 20
122.592339999999993
 30
0.0
 11
281.4453780000000052
 21
112.7994829999999951
 31
0.0
  0
LINE
  5
C1
100
AcDbEntity
100
AcDbLine
  8
HACHURE
 62
5
370
-1
  6
CONTINUOUS
 10
281.4068710000000237
 20
110.0156450000000063
 30
0.0
 11
260.4449629999999729
 21
119.7903429999999929
 31
0.0
  0
LINE
  5
C2
100
AcDbEntity
100
AcDbLine
  8
HACHURE
 62
5
370
-1
  6
CONTINUOUS
 10
260.4445140000000265
 20
116.9887580000000042
 30
0.0
 11
280.8913130000000251
 21
107.4542589999999933
 31
0.0
  0
LINE
  5
C3
100
AcDbEntity
100
AcDbLine
  8
HACHURE
 62
5
370
-1
  6
CONTINUOUS
 10
280.2518460000000005
 20
104.9506530000000026
 30
0.0
 11
260.4449500000000057
 21
114.1867610000000042
 31
0.0
  0
LINE
  5
C4
100
AcDbEntity
100
AcDbLine
  8
HACHURE
 62
5
370
-1
  6
CONTINUOUS
 10
260.4551210000000196
 20
111.3802230000000009
 30
0.0
 11
279.4459870000000024
 21
102.5246369999999985
 31
0.0
  0
LINE
  5
C5
100
AcDbEntity
100
AcDbLine
  8
HACHURE
 62
5
370
-1
  6
CONTINUOUS
 10
277.1718030000000113
 20
100.7833130000000068
 30
0.0
 11
261.0219999999999914
 21
108.3140899999999931
 31
0.0
  0
LINE
  5
C6
100
AcDbEntity
100
AcDbLine
  8
HACHURE
 62
5
370
-1
  6
CONTINUOUS
 10
261.8136850000000209
 20
105.1431270000000069
 30
0.0
 11
271.5184360000000083
 21
100.6177270000000021
 31
0.0
  0
LINE
  5
C7
100
AcDbEntity
100
AcDbLine
  8
HACHURE
 62
5
370
-1
  6
CONTINUOUS
 10
265.3800519999999779
 20
100.6783080000000012
 30
0.0
 11
263.4948610000000144
 21
101.5573870000000056
 31
0.0
  0
ENDBLK
  5
C8
100
AcDbEntity
  8
0
100
AcDbBlockEnd
  0
BLOCK
  5
C9
100
AcDbEntity
  8
0
100
AcDbBlockBegin
  2
DESENS-G12
 70
0
 10
0.0
 20
0.0
 30
0.0
  3
DESENS-G12
  1

  0
LINE
  5
CA
100
AcDbEntity
100
AcDbLine
  8
HACHURE
 62
5
370
-1
  6
CONTINUOUS
 10
359.7669510000000059
 20
187.4088910000000112
 30
0.0
 11
357.4063620000000014
 21
188.5096519999999884
 31
0.0
  0
LINE
  5
CB
100
AcDbEntity
100
AcDbLine
  8
HACHURE
 62
5
370
-1
  6
CONTINUOUS
 10
351.3961530000000266
 20
188.5094310000000064
 30
0.0
 11
359.7669319999999971
 21
184.6060730000000092
 31
0.0
  0
LINE
  5
CC
100
AcDbEntity
100
AcDbLine
  8
HACHURE
 62
5
370
-1
  6
CONTINUOUS
 10
359.767216000000019
 20
181.8039029999999912
 30
0.0
 11
345.3875449999999887
 21
188.5092539999999985
 31
0.0
  0
LINE
  5
CD
100
AcDbEntity
100
AcDbLine
  8
HACHURE
 62
5
370
-1
  6
CONTINUOUS
 10
339.3773370000000114
 20
188.5090319999999906
 30
0.0
 11
356.9269610000000057
 21
180.3255080000000135
 31
0.0
  0
LINE
  5
CE
100
AcDbEntity
100
AcDbLine
  8
HACHURE
 62
5
370
-1
  6
CONTINUOUS
 10
355.8034390000000258
 20
178.0465880000000141
 30
0.0
 11
337.7676779999999894
 21
186.4568010000000129
 31
0.0
  0
LINE
  5
CF
100
AcDbEntity
100
AcDbLine
  8
HACHURE
 62
5
370
-1
  6
CONTINUOUS
 10
337.767312000000004
 20
183.6549339999999972
 30
0.0
 11
355.766727000000003
 21
175.2616700000000094
 31
0.0
  0
LINE
  5
D0
100
AcDbEntity
100
AcDbLine
  8
HACHURE
 62
5
370
-1
  6
CONTINUOUS
 10
355.7667079999999942
 20
172.4588510000000099
 30
0.0
 11
341.4142969999999764
 21
179.1514899999999955
 31
0.0
  0
LINE
  5
D1
100
AcDbEntity
100
AcDbLine
  8
HACHURE
 62
5
370
-1
  6
CONTINUOUS
 10
341.767360999999994
 20
176.1840259999999887
 30
0.0
 11
355.7666889999999853
 21
169.6560320000000104
 31
0.0
  0
LINE
  5
D2
100
AcDbEntity
100
AcDbLine
  8
HACHURE
 62
5
370
-1
  6
CONTINUOUS
 10
359.7670590000000175
 20
164.9885920000000112
 30
0.0
 11
341.7669950000000085
 21
173.3821590000000015
 31
0.0
  0
LINE
  5
D3
100
AcDbEntity
100
AcDbLine
  8
HACHURE
 62
5
370
-1
  6
CONTINUOUS
 10
341.7669759999999997
 20
170.579340000000002
 30
0.0
 11
359.7670400000000086
 21
162.1857730000000117
 31
0.0
  0
LINE
  5
D4
100
AcDbEntity
100
AcDbLine
  8
HACHURE
 62
5
370
-1
  6
CONTINUOUS
 10
359.7670209999999997
 20
159.3829540000000122
 30
0.0
 11
341.4411349999999743
 21
167.9284550000000138
 31
0.0
  0
LINE
  5
D5
100
AcDbEntity
100
AcDbLine
  8
HACHURE
 62
5
370
-1
  6
CONTINUOUS
 10
339.6296219999999835
 20
165.9703499999999963
 30
0.0
 11
355.6286680000000047
 21
158.5098720000000014
 31
0.0
  0
LINE
  5
D6
100
AcDbEntity
100
AcDbLine
  8
HACHURE
 62
5
370
-1
  6
CONTINUOUS
 10
349.6194120000000112
 20
158.5099969999999985
 30
0.0
 11
337.7671359999999936
 21
164.0368039999999894
 31
0.0
  0
LINE
  5
D7
100
AcDbEntity
100
AcDbLine
  8
HACHURE
 62
5
370
-1
  6
CONTINUOUS
 10
337.7671169999999847
 20
161.2339859999999874
 30
0.0
 11
343.6085540000000265
 21
158.5100789999999904
 31
0.0
  0
ENDBLK
  5
D8
100
AcDbEntity
  8
0
100
AcDbBlockEnd
  0
BLOCK
  5
D9
100
AcDbEntity
  8
0
100
AcDbBlockBegin
  2
DESENS-G13
 70
0
 10
0.0
 20
0.0
 30
0.0
  3
DESENS-G13
  1

  0
LINE
  5
DA
100
AcDbEntity
100
AcDbLine
  8
HACHURE
 62
5
370
-1
  6
CONTINUOUS
 10
341.9885249999999814
 20
218.508499999999998
 30
0.0
 11
339.7673070000000166
 21
216.2872830000000022
 31
0.0
  0
LINE
  5
DB
100
AcDbEntity
100
AcDbLine
  8
HACHURE
 62
5
370
-1
  6
CONTINUOUS
 10
336.8578580000000215
 20
208.4382129999999904
 30
0.0
 11
344.7667730000000006
 21
216.3471289999999954
 31
0.0
  0
LINE
  5
DC
100
AcDbEntity
100
AcDbLine
  8
HACHURE
 62
5
370
-1
  6
CONTINUOUS
 10
344.7667730000000006
 20
211.4075090000000046
 30
0.0
 11
332.4994370000000004
 21
199.1401730000000043
 31
0.0
  0
LINE
  5
DD
100
AcDbEntity
100
AcDbLine
  8
HACHURE
 62
5
370
-1
  6
CONTINUOUS
 10
328.1444700000000125
 20
189.8478880000000117
 30
0.0
 11
344.7667730000000006
 21
206.4701909999999998
 31
0.0
  0
LINE
  5
DE
100
AcDbEntity
100
AcDbLine
  8
HACHURE
 62
5
370
-1
  6
CONTINUOUS
 10
352.7666090000000167
 20
214.4700269999999875
 30
0.0
 11
356.8050820000000272
 21
218.508499999999998
 31
0.0
  0
LINE
  5
DF
100
AcDbEntity
100
AcDbLine
  8
HACHURE
 62
5
370
-1
  6
CONTINUOUS
 10
357.7672259999999937
 20
214.5310249999999996
 30
0.0
 11
352.7666090000000167
 21
209.5304079999999942
 31
0.0
  0
LINE
  5
E0
100
AcDbEntity
100
AcDbLine
  8
HACHURE
 62
5
370
-1
  6
CONTINUOUS
 10
344.7667730000000006
 20
201.5305720000000065
 30
0.0
 11
324.1094499999999812
 21
180.8732479999999896
 31
0.0
  0
LINE
  5
E1
100
AcDbEntity
100
AcDbLine
  8
HACHURE
 62
5
370
-1
  6
CONTINUOUS
 10
323.7676349999999843
 20
175.5918139999999994
 30
0.0
 11
344.7667730000000006
 21
196.5909519999999873
 31
0.0
  0
LINE
  5
E2
100
AcDbEntity
100
AcDbLine
  8
HACHURE
 62
5
370
-1
  6
CONTINUOUS
 10
352.7666090000000167
 20
204.5907880000000034
 30
0.0
 11
359.4026410000000169
 21
211.2268200000000036
 31
0.0
  0
LINE
  5
E3
100
AcDbEntity
100
AcDbLine
  8
HACHURE
 62
5
370
-1
  6
CONTINUOUS
 10
360.9551910000000134
 20
207.8397500000000093
 30
0.0
 11
352.7666090000000167
 21
199.6511690000000101
 31
0.0
  0
LINE
  5
E4
100
AcDbEntity
100
AcDbLine
  8
HACHURE
 62
5
370
-1
  6
CONTINUOUS
 10
348.0767329999999902
 20
194.961291999999986
 30
0.0
 11
341.624843999999996
 21
188.5094029999999918
 31
0.0
  0
LINE
  5
E5
100
AcDbEntity
100
AcDbLine
  8
HACHURE
 62
5
370
-1
  6
CONTINUOUS
 10
337.7670610000000124
 20
184.6516200000000083
 30
0.0
 11
323.7676349999999843
 21
170.6521950000000061
 31
0.0
  0
LINE
  5
E6
100
AcDbEntity
100
AcDbLine
  8
HACHURE
 62
5
370
-1
  6
CONTINUOUS
 10
323.7676349999999843
 20
165.7125749999999869
 30
0.0
 11
328.9673559999999952
 21
170.9122959999999978
 31
0.0
  0
LINE
  5
E7
100
AcDbEntity
100
AcDbLine
  8
HACHURE
 62
5
370
-1
  6
CONTINUOUS
 10
332.5673400000000015
 20
174.5122790000000066
 30
0.0
 11
337.7670610000000124
 21
179.7119999999999891
 31
0.0
  0
LINE
  5
E8
100
AcDbEntity
100
AcDbLine
  8
HACHURE
 62
5
370
-1
  6
CONTINUOUS
 10
346.5644629999999893
 20
188.5094029999999918
 30
0.0
 11
362.5319109999999796
 21
204.4768500000000131
 31
0.0
  0
LINE
  5
E9
100
AcDbEntity
100
AcDbLine
  8
HACHURE
 62
5
370
-1
  6
CONTINUOUS
 10
364.1074790000000121
 20
201.1151010000000099
 30
0.0
 11
351.501780999999994
 21
188.5094029999999918
 31
0.0
  0
LINE
  5
EA
100
AcDbEntity
100
AcDbLine
  8
HACHURE
 62
5
370
-1
  6
CONTINUOUS
 10
337.7670610000000124
 20
174.7746820000000127
 30
0.0
 11
332.5673400000000015
 21
169.5749619999999993
 31
0.0
  0
LINE
  5
EB
100
AcDbEntity
100
AcDbLine
  8
HACHURE
 62
5
370
-1
  6
CONTINUOUS
 10
328.267614999999978
 20
165.2752370000000042
 30
0.0
 11
323.7676349999999843
 21
160.7752570000000105
 31
0.0
  0
LINE
  5
EC
100
AcDbEntity
100
AcDbLine
  8
HACHURE
 62
5
370
-1
  6
CONTINUOUS
 10
326.4423039999999787
 20
158.5103060000000141
 30
0.0
 11
328.267614999999978
 21
160.3356170000000134
 31
0.0
  0
LINE
  5
ED
100
AcDbEntity
100
AcDbLine
  8
HACHURE
 62
5
370
-1
  6
CONTINUOUS
 10
333.2682320000000118
 20
165.3362339999999904
 30
0.0
 11
337.7670610000000124
 21
169.835062999999991
 31
0.0
  0
LINE
  5
EE
100
AcDbEntity
100
AcDbLine
  8
HACHURE
 62
5
370
-1
  6
CONTINUOUS
 10
356.4414009999999848
 20
188.5094029999999918
 30
0.0
 11
365.6841979999999808
 21
197.7521999999999878
 31
0.0
  0
LINE
  5
EF
100
AcDbEntity
100
AcDbLine
  8
HACHURE
 62
5
370
-1
  6
CONTINUOUS
 10
367.2609170000000063
 20
194.3892999999999915
 30
0.0
 11
359.7674729999999954
 21
186.8958550000000116
 31
0.0
  0
LINE
  5
F0
100
AcDbEntity
100
AcDbLine
  8
HACHURE
 62
5
370
-1
  6
CONTINUOUS
 10
337.7670610000000124
 20
164.8954430000000002
 30
0.0
 11
333.2682320000000118
 21
160.3966139999999996
 31
0.0
  0
LINE
  5
F1
100
AcDbEntity
100
AcDbLine
  8
HACHURE
 62
5
370
-1
  6
CONTINUOUS
 10
336.3226940000000127
 20
158.5114570000000072
 30
0.0
 11
337.7670610000000124
 21
159.9558230000000094
 31
0.0
  0
LINE
  5
F2
100
AcDbEntity
100
AcDbLine
  8
HACHURE
 62
5
370
-1
  6
CONTINUOUS
 10
359.7674729999999954
 20
181.9562359999999899
 30
0.0
 11
368.8376369999999724
 21
191.0263989999999978
 31
0.0
  0
LINE
  5
F3
100
AcDbEntity
100
AcDbLine
  8
HACHURE
 62
5
370
-1
  6
CONTINUOUS
 10
370.4132050000000049
 20
187.6623480000000086
 30
0.0
 11
359.7674729999999954
 21
177.0166159999999991
 31
0.0
  0
LINE
  5
F4
100
AcDbEntity
100
AcDbLine
  8
HACHURE
 62
5
370
-1
  6
CONTINUOUS
 10
359.7674729999999954
 20
172.0792979999999943
 30
0.0
 11
371.9887729999999806
 21
184.3005980000000079
 31
0.0
  0
LINE
  5
F5
100
AcDbEntity
100
AcDbLine
  8
HACHURE
 62
5
370
-1
  6
CONTINUOUS
 10
373.4411959999999908
 20
180.8134019999999964
 30
0.0
 11
368.2932660000000169
 21
175.6654709999999966
 31
0.0
  0
LINE
  5
F6
100
AcDbEntity
100
AcDbLine
  8
HACHURE
 62
5
370
-1
  6
CONTINUOUS
 10
364.9671940000000063
 20
172.339398999999986
 30
0.0
 11
359.7674729999999954
 21
167.139679000000001
 31
0.0
  0
LINE
  5
F7
100
AcDbEntity
100
AcDbLine
  8
HACHURE
 62
5
370
-1
  6
CONTINUOUS
 10
359.7674729999999954
 20
162.2000590000000102
 30
0.0
 11
364.266301999999996
 21
166.6988880000000108
 31
0.0
  0
LINE
  5
F8
100
AcDbEntity
100
AcDbLine
  8
HACHURE
 62
5
370
-1
  6
CONTINUOUS
 10
368.5671770000000151
 20
170.9997630000000015
 30
0.0
 11
373.7668980000000261
 21
176.1994840000000124
 31
0.0
  0
LINE
  5
F9
100
AcDbEntity
100
AcDbLine
  8
HACHURE
 62
5
370
-1
  6
CONTINUOUS
 10
373.7668980000000261
 20
171.2598639999999932
 30
0.0
 11
369.2669179999999756
 21
166.759884999999997
 31
0.0
  0
LINE
  5
FA
100
AcDbEntity
100
AcDbLine
  8
HACHURE
 62
5
370
-1
  6
CONTINUOUS
 10
364.266301999999996
 20
161.7592679999999916
 30
0.0
 11
361.0173389999999927
 21
158.5103060000000141
 31
0.0
  0
LINE
  5
FB
100
AcDbEntity
100
AcDbLine
  8
HACHURE
 62
5
370
-1
  6
CONTINUOUS
 10
369.2669179999999756
 20
161.8225669999999923
 30
0.0
 11
373.7668980000000261
 21
166.3225469999999859
 31
0.0
  0
LINE
  5
FC
100
AcDbEntity
100
AcDbLine
  8
HACHURE
 62
5
370
-1
  6
CONTINUOUS
 10
373.7668980000000261
 20
161.3829269999999951
 30
0.0
 11
370.8942769999999882
 21
158.5103060000000141
 31
0.0
  0
ENDBLK
  5
FD
100
AcDbEntity
  8
0
100
AcDbBlockEnd
  0
BLOCK
  5
FE
100
AcDbEntity
  8
0
100
AcDbBlockBegin
  2
DESENS-G14
 70
0
 10
0.0
 20
0.0
 30
0.0
  3
DESENS-G14
  1

  0
LINE
  5
FF
100
AcDbEntity
100
AcDbLine
  8
HACHURE
 62
5
370
-1
  6
CONTINUOUS
 10
349.558887000000027
 20
237.9367970000000128
 30
0.0
 11
348.1741719999999987
 21
238.5825010000000077
 31
0.0
  0
LINE
  5
100
100
AcDbEntity
100
AcDbLine
  8
HACHURE
 62
5
370
-1
  6
CONTINUOUS
 10
347.3257370000000037
 20
235.8251730000000066
 30
0.0
 11
350.6913490000000024
 21
234.2557620000000043
 31
0.0
  0
LINE
  5
101
100
AcDbEntity
100
AcDbLine
  8
HACHURE
 62
5
370
-1
  6
CONTINUOUS
 10
351.219319999999982
 20
234.0095650000000091
 30
0.0
 11
352.7671240000000239
 21
233.2878120000000024
 31
0.0
  0
LINE
  5
102
100
AcDbEntity
100
AcDbLine
  8
HACHURE
 62
5
370
-1
  6
CONTINUOUS
 10
352.7671730000000139
 20
230.1348299999999938
 30
0.0
 11
344.7673540000000116
 21
233.8652060000000006
 31
0.0
  0
LINE
  5
103
100
AcDbEntity
100
AcDbLine
  8
HACHURE
 62
5
370
-1
  6
CONTINUOUS
 10
344.7672769999999787
 20
230.7125699999999995
 30
0.0
 11
352.7670949999999834
 21
226.9821929999999952
 31
0.0
  0
LINE
  5
104
100
AcDbEntity
100
AcDbLine
  8
HACHURE
 62
5
370
-1
  6
CONTINUOUS
 10
347.0189340000000016
 20
226.5096450000000061
 30
0.0
 11
344.7673260000000255
 21
227.5595869999999934
 31
0.0
  0
ENDBLK
  5
105
100
AcDbEntity
  8
0
100
AcDbBlockEnd
  0
BLOCK
  5
106
100
AcDbEntity
  8
0
100
AcDbBlockBegin
  2
DESENS-G15
 70
0
 10
0.0
 20
0.0
 30
0.0
  3
DESENS-G15
  1

  0
LINE
  5
107
100
AcDbEntity
100
AcDbLine
  8
HACHURE
 62
5
370
-1
  6
CONTINUOUS
 10
352.7670400000000086
 20
215.8407219999999995
 30
0.0
 11
347.044083999999998
 21
218.5093799999999931
 31
0.0
  0
LINE
  5
108
100
AcDbEntity
100
AcDbLine
  8
HACHURE
 62
5
370
-1
  6
CONTINUOUS
 10
344.7672699999999963
 20
216.4181159999999977
 30
0.0
 11
352.7670889999999986
 21
212.6877389999999934
 31
0.0
  0
LINE
  5
109
100
AcDbEntity
100
AcDbLine
  8
HACHURE
 62
5
370
-1
  6
CONTINUOUS
 10
350.621264999999994
 20
210.5353939999999966
 30
0.0
 11
344.7673189999999863
 21
213.2651329999999916
 31
0.0
  0
LINE
  5
10A
100
AcDbEntity
100
AcDbLine
  8
HACHURE
 62
5
370
-1
  6
CONTINUOUS
 10
347.4243290000000002
 20
208.8734770000000083
 30
0.0
 11
349.7729400000000055
 21
207.778300999999999
 31
0.0
  0
LINE
  5
10B
100
AcDbEntity
100
AcDbLine
  8
HACHURE
 62
5
370
-1
  6
CONTINUOUS
 10
348.9245050000000106
 20
205.0209729999999979
 30
0.0
 11
348.5570260000000076
 21
205.1923319999999933
 31
0.0
  0
ENDBLK
  5
10C
100
AcDbEntity
  8
0
100
AcDbBlockEnd
  0
BLOCK
  5
10D
100
AcDbEntity
  8
0
100
AcDbBlockBegin
  2
DESENS-G16
 70
0
 10
0.0
 20
0.0
 30
0.0
  3
DESENS-G16
  1

  0
LINE
  5
10E
100
AcDbEntity
100
AcDbLine
  8
HACHURE
 62
5
370
-1
  6
CONTINUOUS
 10
338.837806999999998
 20
158.5085899999999981
 30
0.0
 11
333.2671710000000189
 21
155.9109599999999887
 31
0.0
  0
LINE
  5
10F
100
AcDbEntity
100
AcDbLine
  8
HACHURE
 62
5
370
-1
  6
CONTINUOUS
 10
336.266777999999988
 20
154.506922000000003
 30
0.0
 11
344.8490879999999947
 21
158.5089189999999917
 31
0.0
  0
LINE
  5
110
100
AcDbEntity
100
AcDbLine
  8
HACHURE
 62
5
370
-1
  6
CONTINUOUS
 10
350.8594550000000254
 20
158.5088210000000117
 30
0.0
 11
336.2666009999999801
 21
151.7040619999999933
 31
0.0
  0
LINE
  5
111
100
AcDbEntity
100
AcDbLine
  8
HACHURE
 62
5
370
-1
  6
CONTINUOUS
 10
339.7130060000000071
 20
150.5094829999999888
 30
0.0
 11
356.8684799999999768
 21
158.5092119999999909
 31
0.0
  0
LINE
  5
112
100
AcDbEntity
100
AcDbLine
  8
HACHURE
 62
5
370
-1
  6
CONTINUOUS
 10
362.87884600000001
 20
158.5091140000000109
 30
0.0
 11
345.7233719999999835
 21
150.5093850000000089
 31
0.0
  0
LINE
  5
113
100
AcDbEntity
100
AcDbLine
  8
HACHURE
 62
5
370
-1
  6
CONTINUOUS
 10
351.7346529999999802
 20
150.5097140000000024
 30
0.0
 11
361.2662849999999821
 21
154.954386999999997
 31
0.0
  0
LINE
  5
114
100
AcDbEntity
100
AcDbLine
  8
HACHURE
 62
5
370
-1
  6
CONTINUOUS
 10
362.4579669999999965
 20
155.5100769999999955
 30
0.0
 11
364.2669839999999795
 21
156.3536359999999945
 31
0.0
  0
LINE
  5
115
100
AcDbEntity
100
AcDbLine
  8
HACHURE
 62
5
370
-1
  6
CONTINUOUS
 10
361.2661079999999743
 20
152.1515259999999898
 30
0.0
 11
357.745933999999977
 21
150.5100419999999986
 31
0.0
  0
ENDBLK
  5
116
100
AcDbEntity
  8
0
100
AcDbBlockEnd
  0
BLOCK
  5
117
100
AcDbEntity
  8
0
100
AcDbBlockBegin
  2
DESENS-G17
 70
0
 10
0.0
 20
0.0
 30
0.0
  3
DESENS-G17
  1

  0
LINE
  5
118
100
AcDbEntity
100
AcDbLine
  8
HACHURE
 62
5
370
-1
  6
CONTINUOUS
 10
270.7138259999999832
 20
170.6132189999999866
 30
0.0
 11
262.8393009999999776
 21
165.0994159999999908
 31
0.0
  0
LINE
  5
119
100
AcDbEntity
100
AcDbLine
  8
HACHURE
 62
5
370
-1
  6
CONTINUOUS
 10
262.598873000000026
 20
161.0551079999999899
 30
0.0
 11
274.5964640000000259
 21
169.4559120000000121
 31
0.0
  0
LINE
  5
11A
100
AcDbEntity
100
AcDbLine
  8
HACHURE
 62
5
370
-1
  6
CONTINUOUS
 10
276.9717769999999746
 20
167.2431640000000073
 30
0.0
 11
263.8657709999999952
 21
158.0662399999999934
 31
0.0
  0
LINE
  5
11B
100
AcDbEntity
100
AcDbLine
  8
HACHURE
 62
5
370
-1
  6
CONTINUOUS
 10
266.2095120000000179
 20
155.8313860000000091
 30
0.0
 11
278.270672999999988
 21
164.2767010000000028
 31
0.0
  0
LINE
  5
11C
100
AcDbEntity
100
AcDbLine
  8
HACHURE
 62
5
370
-1
  6
CONTINUOUS
 10
278.0938150000000064
 20
160.2769049999999993
 30
0.0
 11
270.0277270000000271
 21
154.6289690000000121
 31
0.0
  0
ENDBLK
  5
11D
100
AcDbEntity
  8
0
100
AcDbBlockEnd
  0
BLOCK
  5
11E
100
AcDbEntity
  8
0
100
AcDbBlockBegin
  2
DESENS-G18
 70
0
 10
0.0
 20
0.0
 30
0.0
  3
DESENS-G18
  1

  0
LINE
  5
11F
100
AcDbEntity
100
AcDbLine
  8
HACHURE
 62
5
370
-1
  6
CONTINUOUS
 10
262.5172620000000165
 20
217.5086819999999932
 30
0.0
 11
258.933131000000003
 21
215.8373740000000112
 31
0.0
  0
LINE
  5
120
100
AcDbEntity
100
AcDbLine
  8
HACHURE
 62
5
370
-1
  6
CONTINUOUS
 10
263.6019000000000005
 20
212.7600040000000092
 30
0.0
 11
273.7857109999999921
 21
217.5087929999999972
 31
0.0
  0
LINE
  5
121
100
AcDbEntity
100
AcDbLine
  8
HACHURE
 62
5
370
-1
  6
CONTINUOUS
 10
284.5207320000000095
 20
217.25902099999999
 30
0.0
 11
271.9856560000000059
 21
211.4138189999999895
 31
0.0
  0
LINE
  5
122
100
AcDbEntity
100
AcDbLine
  8
HACHURE
 62
5
370
-1
  6
CONTINUOUS
 10
278.8283599999999751
 20
209.3501719999999864
 30
0.0
 11
290.5068099999999731
 21
214.7959219999999902
 31
0.0
  0
LINE
  5
123
100
AcDbEntity
100
AcDbLine
  8
HACHURE
 62
5
370
-1
  6
CONTINUOUS
 10
289.6455100000000016
 20
209.1398389999999949
 30
0.0
 11
279.541450999999995
 21
204.4282389999999907
 31
0.0
  0
LINE
  5
124
100
AcDbEntity
100
AcDbLine
  8
HACHURE
 62
5
370
-1
  6
CONTINUOUS
 10
280.0823389999999904
 20
199.4248640000000137
 30
0.0
 11
288.2235709999999926
 21
203.2211829999999964
 31
0.0
  0
ENDBLK
  5
125
100
AcDbEntity
  8
0
100
AcDbBlockEnd
  0
BLOCK
  5
126
100
AcDbEntity
  8
0
100
AcDbBlockBegin
  2
DESENS-G19
 70
0
 10
0.0
 20
0.0
 30
0.0
  3
DESENS-G19
  1

  0
LINE
  5
127
100
AcDbEntity
100
AcDbLine
  8
HACHURE
 62
5
370
-1
  6
CONTINUOUS
 10
324.1026140000000169
 20
158.5093259999999873
 30
0.0
 11
323.7671300000000087
 21
158.3528870000000097
 31
0.0
  0
LINE
  5
128
100
AcDbEntity
100
AcDbLine
  8
HACHURE
 62
5
370
-1
  6
CONTINUOUS
 10
323.7672390000000178
 20
155.550297999999998
 30
0.0
 11
328.2671369999999911
 21
157.648635000000013
 31
0.0
  0
LINE
  5
129
100
AcDbEntity
100
AcDbLine
  8
HACHURE
 62
5
370
-1
  6
CONTINUOUS
 10
325.2672079999999823
 20
153.4472670000000107
 30
0.0
 11
323.7672870000000103
 21
152.7478419999999915
 31
0.0
  0
LINE
  5
12A
100
AcDbEntity
100
AcDbLine
  8
HACHURE
 62
5
370
-1
  6
CONTINUOUS
 10
324.9772370000000024
 20
150.5094110000000001
 30
0.0
 11
325.2673179999999888
 21
150.644677999999999
 31
0.0
  0
ENDBLK
  5
12B
100
AcDbEntity
  8
0
100
AcDbBlockEnd
  0
BLOCK
  5
12C
100
AcDbEntity
  8
0
100
AcDbBlockBegin
  2
DESENS-G20
 70
0
 10
0.0
 20
0.0
 30
0.0
  3
DESENS-G20
  1

  0
LINE
  5
12D
100
AcDbEntity
100
AcDbLine
  8
HACHURE
 62
5
370
-1
  6
CONTINUOUS
 10
286.8791759999999726
 20
245.9737169999999935
 30
0.0
 11
279.755012000000022
 21
242.6516650000000084
 31
0.0
  0
LINE
  5
12E
100
AcDbEntity
100
AcDbLine
  8
HACHURE
 62
5
370
-1
  6
CONTINUOUS
 10
258.9351689999999735
 20
227.688760000000002
 30
0.0
 11
271.4298989999999776
 21
233.5151480000000106
 31
0.0
  0
LINE
  5
12F
100
AcDbEntity
100
AcDbLine
  8
HACHURE
 62
5
370
-1
  6
CONTINUOUS
 10
279.1836319999999887
 20
237.1307730000000049
 30
0.0
 11
288.3363009999999917
 21
241.3987329999999929
 31
0.0
  0
LINE
  5
130
100
AcDbEntity
100
AcDbLine
  8
HACHURE
 62
5
370
-1
  6
CONTINUOUS
 10
289.4842409999999973
 20
236.6784309999999891
 30
0.0
 11
269.8221859999999879
 21
227.5098649999999907
 31
0.0
  0
LINE
  5
131
100
AcDbEntity
100
AcDbLine
  8
HACHURE
 62
5
370
-1
  6
CONTINUOUS
 10
281.0915739999999801
 20
227.5104139999999973
 30
0.0
 11
290.3117980000000102
 21
231.8098750000000052
 31
0.0
  0
ENDBLK
  5
132
100
AcDbEntity
  8
0
100
AcDbBlockEnd
  0
BLOCK
  5
133
100
AcDbEntity
  8
0
100
AcDbBlockBegin
  2
DESENS-G21
 70
0
 10
0.0
 20
0.0
 30
0.0
  3
DESENS-G21
  1

  0
LINE
  5
134
100
AcDbEntity
100
AcDbLine
  8
HACHURE
 62
5
370
-1
  6
CONTINUOUS
 10
342.260310000000004
 20
243.4770049999999912
 30
0.0
 11
338.7994919999999865
 21
240.0161870000000022
 31
0.0
  0
LINE
  5
135
100
AcDbEntity
100
AcDbLine
  8
HACHURE
 62
5
370
-1
  6
CONTINUOUS
 10
338.7670659999999998
 20
235.0441749999999956
 30
0.0
 11
344.7669779999999946
 21
241.044085999999993
 31
0.0
  0
LINE
  5
136
100
AcDbEntity
100
AcDbLine
  8
HACHURE
 62
5
370
-1
  6
CONTINUOUS
 10
344.767138999999986
 20
236.1057790000000125
 30
0.0
 11
339.1707749999999919
 21
230.50941499999999
 31
0.0
  0
LINE
  5
137
100
AcDbEntity
100
AcDbLine
  8
HACHURE
 62
5
370
-1
  6
CONTINUOUS
 10
340.1104829999999879
 20
226.5095369999999946
 30
0.0
 11
344.7671680000000265
 21
231.1662220000000048
 31
0.0
  0
ENDBLK
  5
138
100
AcDbEntity
  8
0
100
AcDbBlockEnd
  0
BLOCK
  5
139
100
AcDbEntity
  8
0
100
AcDbBlockBegin
  2
DESENS-G22
 70
0
 10
0.0
 20
0.0
 30
0.0
  3
DESENS-G22
  1

  0
LINE
  5
13A
100
AcDbEntity
100
AcDbLine
  8
HACHURE
 62
5
370
-1
  6
CONTINUOUS
 10
339.767247999999995
 20
227.9468430000000012
 30
0.0
 11
338.7672709999999938
 21
227.4805460000000039
 31
0.0
  0
LINE
  5
13B
100
AcDbEntity
100
AcDbLine
  8
HACHURE
 62
5
370
-1
  6
CONTINUOUS
 10
338.7672830000000204
 20
226.7799019999999928
 30
0.0
 11
339.7672600000000216
 21
227.2461989999999901
 31
0.0
  0
LINE
  5
13C
100
AcDbEntity
100
AcDbLine
  8
HACHURE
 62
5
370
-1
  6
CONTINUOUS
 10
339.7672430000000077
 20
226.5455420000000117
 30
0.0
 11
338.7672660000000064
 21
226.079244999999986
 31
0.0
  0
ENDBLK
  5
13D
100
AcDbEntity
  8
0
100
AcDbBlockEnd
  0
BLOCK
  5
13E
100
AcDbEntity
  8
0
100
AcDbBlockBegin
  2
DESENS-G23
 70
0
 10
0.0
 20
0.0
 30
0.0
  3
DESENS-G23
  1

  0
LINE
  5
13F
100
AcDbEntity
100
AcDbLine
  8
HACHURE
 62
5
370
-1
  6
CONTINUOUS
 10
371.6056699999999751
 20
158.5093149999999866
 30
0.0
 11
369.2671040000000175
 21
157.4188240000000008
 31
0.0
  0
LINE
  5
140
100
AcDbEntity
100
AcDbLine
  8
HACHURE
 62
5
370
-1
  6
CONTINUOUS
 10
371.1825410000000147
 20
155.509366
 30
0.0
 11
373.7672440000000051
 21
156.7146329999999921
 31
0.0
  0
LINE
  5
141
100
AcDbEntity
100
AcDbLine
  8
HACHURE
 62
5
370
-1
  6
CONTINUOUS
 10
373.7671589999999924
 20
153.912115
 30
0.0
 11
372.2671040000000175
 21
153.2126279999999952
 31
0.0
  0
LINE
  5
142
100
AcDbEntity
100
AcDbLine
  8
HACHURE
 62
5
370
-1
  6
CONTINUOUS
 10
372.4804260000000227
 20
150.5094620000000134
 30
0.0
 11
373.7671359999999936
 21
151.1094640000000027
 31
0.0
  0
ENDBLK
  5
143
100
AcDbEntity
  8
0
100
AcDbBlockEnd
  0
BLOCK
  5
144
100
AcDbEntity
  8
0
100
AcDbBlockBegin
  2
DESENS-G24
 70
0
 10
0.0
 20
0.0
 30
0.0
  3
DESENS-G24
  1

  0
LINE
  5
145
100
AcDbEntity
100
AcDbLine
  8
HACHURE
 62
5
370
-1
  6
CONTINUOUS
 10
356.6427199999999971
 20
243.042113999999998
 30
0.0
 11
352.7673060000000191
 21
239.1666989999999942
 31
0.0
  0
LINE
  5
146
100
AcDbEntity
100
AcDbLine
  8
HACHURE
 62
5
370
-1
  6
CONTINUOUS
 10
352.7674729999999954
 20
234.2272800000000075
 30
0.0
 11
358.7118659999999863
 21
240.1716729999999984
 31
0.0
  0
LINE
  5
147
100
AcDbEntity
100
AcDbLine
  8
HACHURE
 62
5
370
-1
  6
CONTINUOUS
 10
358.7672689999999989
 20
235.2886080000000106
 30
0.0
 11
352.7674959999999942
 21
229.2888350000000059
 31
0.0
  0
LINE
  5
148
100
AcDbEntity
100
AcDbLine
  8
HACHURE
 62
5
370
-1
  6
CONTINUOUS
 10
354.9276540000000182
 20
226.5094060000000127
 30
0.0
 11
357.7671290000000113
 21
229.3488820000000032
 31
0.0
  0
ENDBLK
  5
149
100
AcDbEntity
  8
0
100
AcDbBlockEnd
  0
BLOCK
  5
14A
100
AcDbEntity
  8
0
100
AcDbBlockBegin
  2
DESENS-G8
 70
0
 10
0.0
 20
0.0
 30
0.0
  3
DESENS-G8
  1

  0
LINE
  5
14B
100
AcDbEntity
100
AcDbLine
  8
HACHURE
 62
5
370
-1
  6
CONTINUOUS
 10
221.4467410000000029
 20
119.0607360000000057
 30
0.0
 11
215.2859719999999868
 21
121.9335499999999968
 31
0.0
  0
LINE
  5
14C
100
AcDbEntity
100
AcDbLine
  8
HACHURE
 62
5
370
-1
  6
CONTINUOUS
 10
207.4783250000000123
 20
122.7713669999999979
 30
0.0
 11
221.9335800000000063
 21
116.0307710000000014
 31
0.0
  0
LINE
  5
14D
100
AcDbEntity
100
AcDbLine
  8
HACHURE
 62
5
370
-1
  6
CONTINUOUS
 10
221.9334289999999896
 20
113.2288999999999959
 30
0.0
 11
201.4694000000000074
 21
122.7714330000000018
 31
0.0
  0
LINE
  5
14E
100
AcDbEntity
100
AcDbLine
  8
HACHURE
 62
5
370
-1
  6
CONTINUOUS
 10
196.2539350000000127
 20
122.400496000000004
 30
0.0
 11
221.9328910000000121
 21
110.4262020000000035
 31
0.0
  0
LINE
  5
14F
100
AcDbEntity
100
AcDbLine
  8
HACHURE
 62
5
370
-1
  6
CONTINUOUS
 10
221.8646170000000097
 20
107.6550909999999988
 30
0.0
 11
194.3261960000000101
 21
120.496467999999993
 31
0.0
  0
LINE
  5
150
100
AcDbEntity
100
AcDbLine
  8
HACHURE
 62
5
370
-1
  6
CONTINUOUS
 10
193.9344900000000109
 20
117.8771809999999931
 30
0.0
 11
220.6212419999999952
 21
105.4329440000000062
 31
0.0
  0
LINE
  5
151
100
AcDbEntity
100
AcDbLine
  8
HACHURE
 62
5
370
-1
  6
CONTINUOUS
 10
217.3916299999999922
 20
104.135988999999995
 30
0.0
 11
193.9339530000000025
 21
115.0744830000000007
 31
0.0
  0
LINE
  5
152
100
AcDbEntity
100
AcDbLine
  8
HACHURE
 62
5
370
-1
  6
CONTINUOUS
 10
193.9346270000000061
 20
112.2722260000000034
 30
0.0
 11
213.4800749999999994
 21
103.1580340000000007
 31
0.0
  0
LINE
  5
153
100
AcDbEntity
100
AcDbLine
  8
HACHURE
 62
5
370
-1
  6
CONTINUOUS
 10
208.2976529999999968
 20
102.7716900000000066
 30
0.0
 11
193.9340899999999976
 21
109.4695289999999943
 31
0.0
  0
LINE
  5
154
100
AcDbEntity
100
AcDbLine
  8
HACHURE
 62
5
370
-1
  6
CONTINUOUS
 10
193.936031000000014
 20
106.6656760000000048
 30
0.0
 11
202.286689999999993
 21
102.7716999999999956
 31
0.0
  0
ENDBLK
  5
155
100
AcDbEntity
  8
0
100
AcDbBlockEnd
  0
ENDSEC
  0
SECTION
  2
ENTITIES
  0
LINE
  5
156
100
AcDbEntity
100
AcDbLine
  8
FORT
 62
7
370
-1
  6
CONTINUOUS
 10
10.0
 20
287.0
 30
0.0
 11
410.0
 21
287.0
 31
0.0
  0
LINE
  5
157
100
AcDbEntity
100
AcDbLine
  8
FORT
 62
7
370
-1
  6
CONTINUOUS
 10
221.934077000000002
 20
230.5094029999999918
 30
0.0
 11
257.7340770000000134
 21
230.5094029999999918
 31
0.0
  0
LINE
  5
158
100
AcDbEntity
100
AcDbLine
  8
FORT
 62
7
370
-1
  6
CONTINUOUS
 10
221.934077000000002
 20
214.5094029999999918
 30
0.0
 11
257.7340770000000134
 21
214.5094029999999918
 31
0.0
  0
LINE
  5
159
100
AcDbEntity
100
AcDbLine
  8
FORT
 62
7
370
-1
  6
CONTINUOUS
 10
238.434077000000002
 20
198.0923750000000041
 30
0.0
 11
228.434077000000002
 21
198.0923750000000041
 31
0.0
  0
LINE
  5
15A
100
AcDbEntity
100
AcDbLine
  8
FIN
 62
5
370
-1
  6
CONTINUOUS
 10
220.0
 20
59.0
 30
0.0
 11
410.0
 21
59.0
 31
0.0
  0
LINE
  5
15B
100
AcDbEntity
100
AcDbLine
  8
FIN
 62
5
370
-1
  6
CONTINUOUS
 10
220.0
 20
68.0
 30
0.0
 11
410.0
 21
68.0
 31
0.0
  0
LINE
  5
15C
100
AcDbEntity
100
AcDbLine
  8
FIN
 62
5
370
-1
  6
CONTINUOUS
 10
220.0
 20
77.0
 30
0.0
 11
410.0
 21
77.0
 31
0.0
  0
LINE
  5
15D
100
AcDbEntity
100
AcDbLine
  8
FIN
 62
5
370
-1
  6
CONTINUOUS
 10
220.0
 20
86.0
 30
0.0
 11
410.0
 21
86.0
 31
0.0
  0
LINE
  5
15E
100
AcDbEntity
100
AcDbLine
  8
FIN
 62
5
370
-1
  6
CONTINUOUS
 10
221.934077000000002
 20
229.3094030000000032
 30
0.0
 11
258.934077000000002
 21
229.3094030000000032
 31
0.0
  0
LINE
  5
15F
100
AcDbEntity
100
AcDbLine
  8
FIN
 62
5
370
-1
  6
CONTINUOUS
 10
221.934077000000002
 20
215.7094030000000089
 30
0.0
 11
258.934077000000002
 21
215.7094030000000089
 31
0.0
  0
LINE
  5
160
100
AcDbEntity
100
AcDbLine
  8
FIN
 62
5
370
-1
  6
CONTINUOUS
 10
230.0
 20
270.0
 30
0.0
 11
233.8196649999999863
 21
226.3189419999999927
 31
0.0
  0
LINE
  5
161
100
AcDbEntity
100
AcDbLine
  8
FORT
 62
7
370
-1
  6
CONTINUOUS
 10
10.0
 20
10.0
 30
0.0
 11
10.0
 21
287.0
 31
0.0
  0
LINE
  5
162
100
AcDbEntity
100
AcDbLine
  8
FORT
 62
7
370
-1
  6
CONTINUOUS
 10
152.934077000000002
 20
138.5094029999999918
 30
0.0
 11
152.934077000000002
 21
148.5094029999999918
 31
0.0
  0
LINE
  5
163
100
AcDbEntity
100
AcDbLine
  8
FORT
 62
7
370
-1
  6
CONTINUOUS
 10
99.8499900000000054
 20
109.9947920000000039
 30
0.0
 11
113.474345999999997
 21
117.8608169999999973
 31
0.0
  0
LINE
  5
164
100
AcDbEntity
100
AcDbLine
  8
FORT
 62
7
370
-1
  6
CONTINUOUS
 10
111.974345999999997
 20
116.9947920000000039
 30
0.0
 11
113.974345999999997
 21
113.530690000000007
 31
0.0
  0
LINE
  5
165
100
AcDbEntity
100
AcDbLine
  8
FORT
 62
7
370
-1
  6
CONTINUOUS
 10
103.5820410000000038
 20
107.530690000000007
 30
0.0
 11
113.974345999999997
 21
113.530690000000007
 31
0.0
  0
LINE
  5
166
100
AcDbEntity
100
AcDbLine
  8
FORT
 62
7
370
-1
  6
CONTINUOUS
 10
111.2374860000000041
 20
129.2710710000000063
 30
0.0
 11
117.8666510000000045
 21
130.7890199999999936
 31
0.0
  0
LINE
  5
167
100
AcDbEntity
100
AcDbLine
  8
FORT
 62
7
370
-1
  6
CONTINUOUS
 10
107.7422949999999986
 20
120.3249189999999942
 30
0.0
 11
114.2374860000000041
 21
124.0749189999999942
 31
0.0
  0
LINE
  5
168
100
AcDbEntity
100
AcDbLine
  8
FORT
 62
7
370
-1
  6
CONTINUOUS
 10
111.2063969999999955
 20
122.3249189999999942
 30
0.0
 11
113.2063969999999955
 21
118.8608169999999973
 31
0.0
  0
LWPOLYLINE
  5
169
  8
HACHURE
 62
5
370
-1
  6
CONTINUOUS
100
AcDbEntity
100
AcDbPolyline
 90
5
 70
1
 10
111.2063969999999955
 20
122.3249189999999942
 10
107.7422949999999986
 20
120.3249189999999942
 10
110.2422949999999986
 20
115.9947920000000039
 10
113.474345999999997
 20
117.8608169999999973
 42
0.1316520000526917
 10
113.2063970000000097
 20
118.8608169999999973
  0
INSERT
  5
16A
100
AcDbEntity
100
AcDbBlockReference
  8
HACHURE
 62
256
370
-1
  6
ByLayer
  2
DESENS-G1
 10
0.0
 20
0.0
 30
0.0
  0
LWPOLYLINE
  5
16B
  8
HACHURE
 62
5
370
-1
  6
CONTINUOUS
100
AcDbEntity
100
AcDbPolyline
 90
7
 70
1
 10
113.2374860000000041
 20
125.8069700000000068
 10
117.8666510000000045
 20
130.7890199999999936
 10
111.2374860000000041
 20
129.2710710000000063
 10
110.2374860000000041
 20
131.0031219999999905
 10
103.7422949999999986
 20
127.2531220000000047
 10
107.7422949999999986
 20
120.3249189999999942
 10
114.2374860000000041
 20
124.0749189999999942
  0
INSERT
  5
16C
100
AcDbEntity
100
AcDbBlockReference
  8
HACHURE
 62
256
370
-1
  6
ByLayer
  2
DESENS-G2
 10
0.0
 20
0.0
 30
0.0
  0
MTEXT
  5
16D
100
AcDbEntity
100
AcDbMText
  8
TEXTE
 62
7
370
-1
  6
CONTINUOUS
 10
68.0
 20
12.0
 30
0.0
 40
5.0
 41
100.0
 71
7
 72
2
  1
DESIGNATION
  7
ISO9
 50
0.0
 73
1
 44
1.0
  0
LINE
  5
16E
100
AcDbEntity
100
AcDbLine
  8
FORT
 62
7
370
-1
  6
CONTINUOUS
 10
101.5820410000000038
 20
110.9947920000000039
 30
0.0
 11
103.5820410000000038
 21
107.530690000000007
 31
0.0
  0
LINE
  5
16F
100
AcDbEntity
100
AcDbLine
  8
FORT
 62
7
370
-1
  6
CONTINUOUS
 10
88.6897359999999964
 20
109.3249189999999942
 30
0.0
 11
100.8140920000000023
 21
116.3249189999999942
 31
0.0
  0
LWPOLYLINE
  5
170
  8
HACHURE
 62
5
370
-1
  6
CONTINUOUS
100
AcDbEntity
100
AcDbPolyline
 90
8
 70
1
 10
103.3140920000000023
 20
111.9947920000000039
 10
100.8140920000000023
 20
116.3249189999999942
 10
88.6897359999999964
 20
109.3249189999999942
 10
88.878183000000007
 20
108.9985190000000017
 42
0.3441510000000004
 10
93.4424020000000013
 20
107.1527750000000054
 10
99.1664090000000016
 20
108.7901899999999955
 42
0.030399
 10
100.31195799999999
 20
109.1946399999999926
 10
99.8499900000000054
 20
109.9947920000000039
  0
INSERT
  5
171
100
AcDbEntity
100
AcDbBlockReference
  8
HACHURE
 62
256
370
-1
  6
ByLayer
  2
DESENS-G3
 10
0.0
 20
0.0
 30
0.0
  0
LINE
  5
172
100
AcDbEntity
100
AcDbLine
  8
FORT
 62
7
370
-1
  6
CONTINUOUS
 10
88.6897359999999964
 20
109.3249189999999942
 30
0.0
 11
88.878183000000007
 21
108.9985190000000017
 31
0.0
  0
ARC
  5
173
100
AcDbEntity
  8
FORT
 62
7
370
-1
  6
CONTINUOUS
100
AcDbCircle
 10
92.3422850000000039
 20
110.9985190000000017
 30
0.0
 40
4.0
100
AcDbArc
 50
210.0
 51
285.9637569999999869
  0
LINE
  5
174
100
AcDbEntity
100
AcDbLine
  8
FORT
 62
7
370
-1
  6
CONTINUOUS
 10
93.4424020000000013
 20
107.1527750000000054
 30
0.0
 11
99.1664090000000016
 21
108.7901899999999955
 31
0.0
  0
LINE
  5
175
100
AcDbEntity
100
AcDbLine
  8
FORT
 62
7
370
-1
  6
CONTINUOUS
 10
101.4161160000000024
 20
109.7442939999999965
 30
0.0
 11
102.0820410000000038
 21
110.1287659999999988
 31
0.0
  0
ARC
  5
176
100
AcDbEntity
  8
FORT
 62
7
370
-1
  6
CONTINUOUS
100
AcDbCircle
 10
96.4161160000000024
 20
118.4045490000000029
 30
0.0
 40
10.0
100
AcDbArc
 50
285.9637569999999869
 51
300.0
  0
LINE
  5
177
100
AcDbEntity
100
AcDbLine
  8
FORT
 62
7
370
-1
  6
CONTINUOUS
 10
99.8499900000000054
 20
109.9947920000000039
 30
0.0
 11
100.3119580000000042
 21
109.1946400000000068
 31
0.0
  0
LINE
  5
178
100
AcDbEntity
100
AcDbLine
  8
FORT
 62
7
370
-1
  6
CONTINUOUS
 10
94.3140920000000023
 20
127.583248999999995
 30
0.0
 11
103.3140920000000023
 21
111.9947920000000039
 31
0.0
  0
LINE
  5
179
100
AcDbEntity
100
AcDbLine
  8
FORT
 62
7
370
-1
  6
CONTINUOUS
 10
101.2422949999999986
 20
131.583248999999995
 30
0.0
 11
110.2422949999999986
 21
115.9947920000000039
 31
0.0
  0
LINE
  5
17A
100
AcDbEntity
100
AcDbLine
  8
FORT
 62
7
370
-1
  6
CONTINUOUS
 10
90.3189009999999968
 20
119.5031220000000047
 30
0.0
 11
91.3189009999999968
 21
117.7710710000000063
 31
0.0
  0
LINE
  5
17B
100
AcDbEntity
100
AcDbLine
  8
FORT
 62
7
370
-1
  6
CONTINUOUS
 10
84.6897359999999964
 20
116.2531220000000047
 30
0.0
 11
96.8140920000000023
 21
123.2531220000000047
 31
0.0
  0
ARC
  5
17C
100
AcDbEntity
  8
FORT
 62
7
370
-1
  6
CONTINUOUS
100
AcDbCircle
 10
87.9653909999999968
 20
118.5795219999999972
 30
0.0
 40
4.0
100
AcDbArc
 50
134.0362430000000131
 51
210.0
  0
LINE
  5
17D
100
AcDbEntity
100
AcDbLine
  8
FORT
 62
7
370
-1
  6
CONTINUOUS
 10
91.3189009999999968
 20
117.7710710000000063
 30
0.0
 11
86.6897359999999964
 21
112.7890199999999936
 31
0.0
  0
LINE
  5
17E
100
AcDbEntity
100
AcDbLine
  8
FORT
 62
7
370
-1
  6
CONTINUOUS
 10
93.3189009999999968
 20
114.3069700000000068
 30
0.0
 11
86.6897359999999964
 21
112.7890199999999936
 31
0.0
  0
LINE
  5
17F
100
AcDbEntity
100
AcDbLine
  8
FORT
 62
7
370
-1
  6
CONTINUOUS
 10
93.3189009999999968
 20
114.3069700000000068
 30
0.0
 11
94.3189009999999968
 21
112.5749189999999942
 31
0.0
  0
LINE
  5
180
100
AcDbEntity
100
AcDbLine
  8
FORT
 62
7
370
-1
  6
CONTINUOUS
 10
84.5012889999999999
 20
116.5795219999999972
 30
0.0
 11
84.6897359999999964
 21
116.2531220000000047
 31
0.0
  0
LINE
  5
181
100
AcDbEntity
100
AcDbLine
  8
FORT
 62
7
370
-1
  6
CONTINUOUS
 10
99.7422949999999986
 20
134.1813249999999869
 30
0.0
 11
92.8140920000000023
 21
130.1813249999999869
 31
0.0
  0
LINE
  5
182
100
AcDbEntity
100
AcDbLine
  8
FORT
 62
7
370
-1
  6
CONTINUOUS
 10
98.3762700000000052
 20
134.5473509999999919
 30
0.0
 11
93.1801169999999956
 21
131.5473509999999919
 31
0.0
  0
LINE
  5
183
100
AcDbEntity
100
AcDbLine
  8
FORT
 62
7
370
-1
  6
CONTINUOUS
 10
94.2471050000000048
 20
128.6992740000000026
 30
0.0
 11
94.7471050000000048
 21
127.833248999999995
 31
0.0
  0
LINE
  5
184
100
AcDbEntity
100
AcDbLine
  8
FORT
 62
7
370
-1
  6
CONTINUOUS
 10
92.8140920000000023
 20
130.1813249999999869
 30
0.0
 11
93.8140920000000023
 21
128.4492740000000026
 31
0.0
  0
LINE
  5
185
100
AcDbEntity
100
AcDbLine
  8
FORT
 62
7
370
-1
  6
CONTINUOUS
 10
93.1801169999999956
 20
131.5473509999999919
 30
0.0
 11
92.8140920000000023
 21
130.1813249999999869
 31
0.0
  0
LINE
  5
186
100
AcDbEntity
100
AcDbLine
  8
FORT
 62
7
370
-1
  6
CONTINUOUS
 10
92.5150540000000063
 20
127.6992740000000026
 30
0.0
 11
93.0150540000000063
 21
126.833248999999995
 31
0.0
  0
LINE
  5
187
100
AcDbEntity
100
AcDbLine
  8
FORT
 62
7
370
-1
  6
CONTINUOUS
 10
100.3092819999999961
 20
132.1992740000000026
 30
0.0
 11
100.8092819999999961
 21
131.333248999999995
 31
0.0
  0
LINE
  5
188
100
AcDbEntity
100
AcDbLine
  8
FORT
 62
7
370
-1
  6
CONTINUOUS
 10
99.7422949999999986
 20
134.1813249999999869
 30
0.0
 11
100.7422949999999986
 21
132.4492740000000026
 31
0.0
  0
LINE
  5
189
100
AcDbEntity
100
AcDbLine
  8
FORT
 62
7
370
-1
  6
CONTINUOUS
 10
98.3762700000000052
 20
134.5473509999999919
 30
0.0
 11
99.7422949999999986
 21
134.1813249999999869
 31
0.0
  0
LINE
  5
18A
100
AcDbEntity
100
AcDbLine
  8
FORT
 62
7
370
-1
  6
CONTINUOUS
 10
102.0413329999999945
 20
133.1992740000000026
 30
0.0
 11
102.5413329999999945
 21
132.333248999999995
 31
0.0
  0
LINE
  5
18B
100
AcDbEntity
100
AcDbLine
  8
FORT
 62
7
370
-1
  6
CONTINUOUS
 10
110.2374860000000041
 20
131.0031219999999905
 30
0.0
 11
111.2374860000000041
 21
129.2710710000000063
 31
0.0
  0
LINE
  5
18C
100
AcDbEntity
100
AcDbLine
  8
FORT
 62
7
370
-1
  6
CONTINUOUS
 10
103.7422949999999986
 20
127.2531220000000047
 30
0.0
 11
110.2374860000000041
 21
131.0031219999999905
 31
0.0
  0
LINE
  5
18D
100
AcDbEntity
100
AcDbLine
  8
FORT
 62
7
370
-1
  6
CONTINUOUS
 10
105.2063969999999955
 20
132.7172239999999874
 30
0.0
 11
107.2063969999999955
 21
129.2531219999999905
 31
0.0
  0
ARC
  5
18E
100
AcDbEntity
  8
FORT
 62
7
370
-1
  6
CONTINUOUS
100
AcDbCircle
 10
103.474345999999997
 20
131.7172239999999874
 30
0.0
 40
2.0
100
AcDbArc
 50
29.9999999999999964
 51
119.9999999999999858
  0
LINE
  5
18F
100
AcDbEntity
100
AcDbLine
  8
FORT
 62
7
370
-1
  6
CONTINUOUS
 10
90.8499900000000054
 20
125.583248999999995
 30
0.0
 11
104.474345999999997
 21
133.4492740000000026
 31
0.0
  0
LINE
  5
190
100
AcDbEntity
100
AcDbLine
  8
FORT
 62
7
370
-1
  6
CONTINUOUS
 10
85.1849380000000025
 20
121.4551230000000004
 30
0.0
 11
89.4649840000000012
 21
125.593551000000005
 31
0.0
  0
LINE
  5
191
100
AcDbEntity
100
AcDbLine
  8
FORT
 62
7
370
-1
  6
CONTINUOUS
 10
91.4161160000000024
 20
127.0648029999999977
 30
0.0
 11
102.474345999999997
 21
133.4492740000000026
 31
0.0
  0
ARC
  5
192
100
AcDbEntity
  8
FORT
 62
7
370
-1
  6
CONTINUOUS
100
AcDbCircle
 10
96.4161160000000024
 20
118.4045490000000029
 30
0.0
 40
10.0
100
AcDbArc
 50
119.9999999999999858
 51
134.0362430000000131
  0
LINE
  5
193
100
AcDbEntity
100
AcDbLine
  8
FORT
 62
7
370
-1
  6
CONTINUOUS
 10
90.3880220000000065
 20
126.3834010000000063
 30
0.0
 11
90.8499900000000054
 21
125.583248999999995
 31
0.0
  0
MTEXT
  5
194
100
AcDbEntity
100
AcDbMText
  8
TEXTE
 62
7
370
-1
  6
CONTINUOUS
 10
89.0730829999999969
 20
140.7612440000000049
 30
0.0
 40
5.0
 41
100.0
 71
7
 72
2
  1
B-B
  7
ISO9
 50
0.0
 73
1
 44
1.0
  0
LWPOLYLINE
  5
195
  8
HACHURE
 62
5
370
-1
  6
CONTINUOUS
100
AcDbEntity
100
AcDbPolyline
 90
5
 70
1
 10
105.2063970000000097
 20
132.7172239999999874
 42
0.1316520000000002
 10
104.474345999999997
 20
133.4492740000000026
 10
101.2422949999999986
 20
131.583248999999995
 10
103.7422949999999986
 20
127.2531220000000047
 10
107.2063969999999955
 20
129.2531219999999905
  0
INSERT
  5
196
100
AcDbEntity
100
AcDbBlockReference
  8
HACHURE
 62
256
370
-1
  6
ByLayer
  2
DESENS-G4
 10
0.0
 20
0.0
 30
0.0
  0
LWPOLYLINE
  5
197
  8
HACHURE
 62
5
370
-1
  6
CONTINUOUS
100
AcDbEntity
100
AcDbPolyline
 90
8
 70
1
 10
96.8140920000000023
 20
123.2531220000000047
 10
94.3140920000000023
 20
127.583248999999995
 10
90.8499900000000054
 20
125.583248999999995
 10
90.3880220000000065
 20
126.3834010000000063
 42
0.0303990000000001
 10
89.464983999999987
 20
125.5935510000000335
 10
85.1849380000000025
 20
121.4551230000000004
 42
0.344151
 10
84.5012889999999999
 20
116.5795219999999972
 10
84.6897359999999964
 20
116.2531220000000047
  0
INSERT
  5
198
100
AcDbEntity
100
AcDbBlockReference
  8
HACHURE
 62
256
370
-1
  6
ByLayer
  2
DESENS-G5
 10
0.0
 20
0.0
 30
0.0
  0
LWPOLYLINE
  5
199
  8
HACHURE
 62
5
370
-1
  6
CONTINUOUS
100
AcDbEntity
100
AcDbPolyline
 90
7
 70
1
 10
96.8140920000000023
 20
123.2531220000000047
 10
90.3189009999999968
 20
119.5031220000000047
 10
91.3189009999999968
 20
117.7710710000000063
 10
86.6897359999999964
 20
112.7890199999999936
 10
93.3189009999999968
 20
114.3069700000000068
 10
94.3189009999999968
 20
112.5749189999999942
 10
100.8140920000000023
 20
116.3249189999999942
  0
INSERT
  5
19A
100
AcDbEntity
100
AcDbBlockReference
  8
HACHURE
 62
256
370
-1
  6
ByLayer
  2
DESENS-G6
 10
0.0
 20
0.0
 30
0.0
  0
LWPOLYLINE
  5
19B
  8
HACHURE
 62
5
370
-1
  6
CONTINUOUS
100
AcDbEntity
100
AcDbPolyline
 90
4
 70
1
 10
94.2471050000000048
 20
128.6992740000000026
 10
92.5150540000000063
 20
127.6992740000000026
 10
93.0150540000000063
 20
126.833248999999995
 10
94.7471050000000048
 20
127.833248999999995
  0
INSERT
  5
19C
100
AcDbEntity
100
AcDbBlockReference
  8
HACHURE
 62
256
370
-1
  6
ByLayer
  2
DESENS-G7
 10
0.0
 20
0.0
 30
0.0
  0
ARC
  5
19D
100
AcDbEntity
  8
FORT
 62
7
370
-1
  6
CONTINUOUS
100
AcDbCircle
 10
111.474345999999997
 20
117.8608169999999973
 30
0.0
 40
2.0
100
AcDbArc
 50
300.0
 51
29.9999999999999964
  0
LINE
  5
19E
100
AcDbEntity
100
AcDbLine
  8
FORT
 62
7
370
-1
  6
CONTINUOUS
 10
113.2374860000000041
 20
125.8069700000000068
 30
0.0
 11
117.8666510000000045
 21
130.7890199999999936
 31
0.0
  0
LINE
  5
19F
100
AcDbEntity
100
AcDbLine
  8
FORT
 62
7
370
-1
  6
CONTINUOUS
 10
113.2374860000000041
 20
125.8069700000000068
 30
0.0
 11
114.2374860000000041
 21
124.0749189999999942
 31
0.0
  0
LINE
  5
1A0
100
AcDbEntity
100
AcDbLine
  8
FORT
 62
7
370
-1
  6
CONTINUOUS
 10
152.934077000000002
 20
143.1760700000000099
 30
0.0
 11
150.1340769999999907
 21
142.2427360000000078
 31
0.0
  0
LINE
  5
1A1
100
AcDbEntity
100
AcDbLine
  8
FORT
 62
7
370
-1
  6
CONTINUOUS
 10
152.934077000000002
 20
143.1760700000000099
 30
0.0
 11
150.1340769999999907
 21
144.1094029999999862
 31
0.0
  0
LINE
  5
1A2
100
AcDbEntity
100
AcDbLine
  8
FORT
 62
7
370
-1
  6
CONTINUOUS
 10
143.5154660000000035
 20
143.1760700000000099
 30
0.0
 11
152.934077000000002
 21
143.1760700000000099
 31
0.0
  0
MTEXT
  5
1A3
100
AcDbEntity
100
AcDbMText
  8
TEXTE
 62
7
370
-1
  6
CONTINUOUS
 10
151.450698999999986
 20
131.2366210000000137
 30
0.0
 40
5.0
 41
100.0
 71
7
 72
2
  1
A
  7
ISO9
 50
0.0
 73
1
 44
1.0
  0
MTEXT
  5
1A4
100
AcDbEntity
100
AcDbMText
  8
TEXTE
 62
7
370
-1
  6
CONTINUOUS
 10
205.1298050000000046
 20
140.8479319999999859
 30
0.0
 40
5.0
 41
100.0
 71
7
 72
2
  1
D
  7
ISO9
 50
0.0
 73
1
 44
1.0
  0
LINE
  5
1A5
100
AcDbEntity
100
AcDbLine
  8
FORT
 62
7
370
-1
  6
CONTINUOUS
 10
109.934077000000002
 20
150.5094029999999918
 30
0.0
 11
159.934077000000002
 21
150.5094029999999918
 31
0.0
  0
LINE
  5
1A6
100
AcDbEntity
100
AcDbLine
  8
FORT
 62
7
370
-1
  6
CONTINUOUS
 10
94.934077000000002
 20
158.5094029999999918
 30
0.0
 11
189.934077000000002
 21
158.5094029999999918
 31
0.0
  0
CIRCLE
  5
1A7
100
AcDbEntity
100
AcDbCircle
  8
FORT
 62
7
370
-1
  6
CONTINUOUS
 10
119.934077000000002
 20
222.5094029999999918
 30
0.0
 40
8.0
  0
ARC
  5
1A8
100
AcDbEntity
  8
FORT
 62
7
370
-1
  6
CONTINUOUS
100
AcDbCircle
 10
119.934077000000002
 20
233.5094029999999918
 30
0.0
 40
10.0
100
AcDbArc
 50
90.0
 51
180.0
  0
LINE
  5
1A9
100
AcDbEntity
100
AcDbLine
  8
FORT
 62
7
370
-1
  6
CONTINUOUS
 10
110.5154660000000035
 20
250.8427360000000022
 30
0.0
 11
119.934077000000002
 21
250.8427360000000022
 31
0.0
  0
LINE
  5
1AA
100
AcDbEntity
100
AcDbLine
  8
FIN
 62
5
370
-1
  6
CONTINUOUS
 10
111.934077000000002
 20
212.5094029999999918
 30
0.0
 11
136.8773339999999905
 21
212.5094029999999918
 31
0.0
  0
LINE
  5
1AB
100
AcDbEntity
100
AcDbLine
  8
FIN
 62
5
370
-1
  6
CONTINUOUS
 10
111.934077000000002
 20
180.5094029999999918
 30
0.0
 11
157.934077000000002
 21
180.5094029999999918
 31
0.0
  0
LINE
  5
1AC
100
AcDbEntity
100
AcDbLine
  8
FIN
 62
5
370
-1
  6
CONTINUOUS
 10
120.0
 20
270.0
 30
0.0
 11
85.8669110000000018
 21
264.5927310000000148
 31
0.0
  0
LINE
  5
1AD
100
AcDbEntity
100
AcDbLine
  8
FORT
 62
7
370
-1
  6
CONTINUOUS
 10
109.934077000000002
 20
150.5094029999999918
 30
0.0
 11
109.934077000000002
 21
233.5094029999999918
 31
0.0
  0
ARC
  5
1AE
100
AcDbEntity
  8
FORT
 62
7
370
-1
  6
CONTINUOUS
100
AcDbCircle
 10
94.934077000000002
 20
222.5094029999999918
 30
0.0
 40
36.0
100
AcDbArc
 50
105.9965729999999979
 51
261.9551470000000108
  0
ARC
  5
1AF
100
AcDbEntity
  8
FORT
 62
7
370
-1
  6
CONTINUOUS
100
AcDbCircle
 10
94.934077000000002
 20
222.5094029999999918
 30
0.0
 40
62.0
100
AcDbArc
 50
150.0
 51
266.1037109999999757
  0
ARC
  5
1B0
100
AcDbEntity
  8
FORT
 62
7
370
-1
  6
CONTINUOUS
100
AcDbCircle
 10
119.934077000000002
 20
222.5094029999999918
 30
0.0
 40
18.0
100
AcDbArc
 50
119.4001969999999915
 51
236.2510110000000054
  0
ARC
  5
1B1
100
AcDbEntity
  8
FORT
 62
7
370
-1
  6
CONTINUOUS
100
AcDbCircle
 10
119.934077000000002
 20
222.5094029999999918
 30
0.0
 40
11.5
100
AcDbArc
 50
150.4081539999999961
 51
209.5918460000000039
  0
ARC
  5
1B2
100
AcDbEntity
  8
FIN
 62
5
370
-1
  6
CONTINUOUS
100
AcDbCircle
 10
94.934077000000002
 20
222.5094029999999918
 30
0.0
 40
52.0
100
AcDbArc
 50
102.5884099999999961
 51
253.0671460000000081
  0
CIRCLE
  5
1B3
100
AcDbEntity
100
AcDbCircle
  8
FORT
 62
7
370
-1
  6
CONTINUOUS
 10
56.8289589999999976
 20
200.5094029999999918
 30
0.0
 40
8.0
  0
CIRCLE
  5
1B4
100
AcDbEntity
100
AcDbCircle
  8
FORT
 62
7
370
-1
  6
CONTINUOUS
 10
56.8289589999999976
 20
200.5094029999999918
 30
0.0
 40
6.0
  0
LINE
  5
1B5
100
AcDbEntity
100
AcDbLine
  8
FORT
 62
7
370
-1
  6
CONTINUOUS
 10
30.848196999999999
 20
185.5094029999999918
 30
0.0
 11
39.5084510000000009
 21
190.5094029999999918
 31
0.0
  0
MTEXT
  5
1B6
100
AcDbEntity
100
AcDbMText
  8
TEXTE
 62
7
370
-1
  6
CONTINUOUS
 10
25.9857720000000008
 20
181.3729940000000056
 30
0.0
 40
5.0
 41
100.0
 71
7
 72
2
  1
B
  7
ISO9
 50
0.0
 73
1
 44
1.0
  0
LINE
  5
1B7
100
AcDbEntity
100
AcDbLine
  8
FORT
 62
7
370
-1
  6
CONTINUOUS
 10
30.1803440000000016
 20
195.9994930000000011
 30
0.0
 11
34.8896489999999986
 21
187.8427360000000022
 31
0.0
  0
LINE
  5
1B8
100
AcDbEntity
100
AcDbLine
  8
FORT
 62
7
370
-1
  6
CONTINUOUS
 10
34.8896489999999986
 20
187.8427360000000022
 30
0.0
 11
34.297939999999997
 21
190.7342739999999992
 31
0.0
  0
LINE
  5
1B9
100
AcDbEntity
100
AcDbLine
  8
FORT
 62
7
370
-1
  6
CONTINUOUS
 10
34.8896489999999986
 20
187.8427360000000022
 30
0.0
 11
32.6813590000000005
 21
189.8009409999999946
 31
0.0
  0
LINE
  5
1BA
100
AcDbEntity
100
AcDbLine
  8
FORT
 62
7
370
-1
  6
CONTINUOUS
 10
40.3744769999999988
 20
191.0094029999999918
 30
0.0
 11
42.1065279999999973
 21
192.0094029999999918
 31
0.0
  0
LINE
  5
1BB
100
AcDbEntity
100
AcDbLine
  8
FORT
 62
7
370
-1
  6
CONTINUOUS
 10
42.9725529999999978
 20
192.5094029999999918
 30
0.0
 11
48.0221560000000025
 21
195.424792999999994
 31
0.0
  0
LINE
  5
1BC
100
AcDbEntity
100
AcDbLine
  8
FORT
 62
7
370
-1
  6
CONTINUOUS
 10
94.934077000000002
 20
181.5094029999999918
 30
0.0
 11
94.934077000000002
 21
188.5094029999999918
 31
0.0
  0
ARC
  5
1BD
100
AcDbEntity
  8
FORT
 62
7
370
-1
  6
CONTINUOUS
100
AcDbCircle
 10
90.9133810000000011
 20
192.2835709999999949
 30
0.0
 40
5.5145569999999999
100
AcDbArc
 50
259.3679549999999949
 51
316.811493999999982
  0
LINE
  5
1BE
100
AcDbEntity
100
AcDbLine
  8
FORT
 62
7
370
-1
  6
CONTINUOUS
 10
94.934077000000002
 20
158.5094029999999918
 30
0.0
 11
94.934077000000002
 21
165.5094029999999918
 31
0.0
  0
LINE
  5
1BF
100
AcDbEntity
100
AcDbLine
  8
FORT
 62
7
370
-1
  6
CONTINUOUS
 10
94.934077000000002
 20
158.5094029999999918
 30
0.0
 11
94.6999919999999946
 21
158.7602369999999894
 31
0.0
  0
LINE
  5
1C0
100
AcDbEntity
100
AcDbLine
  8
FORT
 62
7
370
-1
  6
CONTINUOUS
 10
94.934077000000002
 20
181.5094029999999918
 30
0.0
 11
109.934077000000002
 21
181.5094029999999918
 31
0.0
  0
LINE
  5
1C1
100
AcDbEntity
100
AcDbLine
  8
FORT
 62
7
370
-1
  6
CONTINUOUS
 10
94.934077000000002
 20
165.5094029999999918
 30
0.0
 11
109.934077000000002
 21
165.5094029999999918
 31
0.0
  0
ARC
  5
1C2
100
AcDbEntity
  8
FORT
 62
7
370
-1
  6
CONTINUOUS
100
AcDbCircle
 10
90.3134309999999942
 20
154.6665729999999996
 30
0.0
 40
6.0
100
AcDbArc
 50
43.0218589999999992
 51
86.1037110000000041
  0
LINE
  5
1C3
100
AcDbEntity
100
AcDbLine
  8
FIN
 62
5
370
-1
  6
CONTINUOUS
 10
89.934077000000002
 20
170.5094029999999918
 30
0.0
 11
89.934077000000002
 21
176.5094029999999918
 31
0.0
  0
ARC
  5
1C4
100
AcDbEntity
  8
FIN
 62
5
370
-1
  6
CONTINUOUS
100
AcDbCircle
 10
94.934077000000002
 20
176.5094029999999918
 30
0.0
 40
5.0
100
AcDbArc
 50
113.5781779999999941
 51
180.0
  0
ARC
  5
1C5
100
AcDbEntity
  8
FIN
 62
5
370
-1
  6
CONTINUOUS
100
AcDbCircle
 10
94.934077000000002
 20
170.5094029999999918
 30
0.0
 40
5.0
100
AcDbArc
 50
180.0
 51
246.4218219999999633
  0
LINE
  5
1C6
100
AcDbEntity
100
AcDbLine
  8
FIN
 62
5
370
-1
  6
CONTINUOUS
 10
92.1065009999999944
 20
161.538014000000004
 30
0.0
 11
84.1860290000000049
 21
170.0216139999999996
 31
0.0
  0
ARC
  5
1C7
100
AcDbEntity
  8
FIN
 62
5
370
-1
  6
CONTINUOUS
100
AcDbCircle
 10
76.8765279999999933
 20
163.1973059999999975
 30
0.0
 40
10.0
100
AcDbArc
 50
43.0338890000000021
 51
73.0671459999999939
  0
ARC
  5
1C8
100
AcDbEntity
  8
FORT
 62
7
370
-1
  6
CONTINUOUS
100
AcDbCircle
 10
56.8289589999999976
 20
200.5094029999999918
 30
0.0
 40
18.0
100
AcDbArc
 50
337.4873210000000086
 51
82.5126790000000057
  0
ARC
  5
1C9
100
AcDbEntity
  8
FORT
 62
7
370
-1
  6
CONTINUOUS
100
AcDbCircle
 10
56.8289589999999976
 20
200.5094029999999918
 30
0.0
 40
11.5
100
AcDbArc
 50
349.7376239999999825
 51
70.2623760000000033
  0
LINE
  5
1CA
100
AcDbEntity
100
AcDbLine
  8
FORT
 62
7
370
-1
  6
CONTINUOUS
 10
94.934077000000002
 20
188.5094029999999918
 30
0.0
 11
109.934077000000002
 21
188.5094029999999918
 31
0.0
  0
LINE
  5
1CB
100
AcDbEntity
100
AcDbLine
  8
FORT
 62
7
370
-1
  6
CONTINUOUS
 10
94.934077000000002
 20
187.5094029999999918
 30
0.0
 11
109.934077000000002
 21
187.5094029999999918
 31
0.0
  0
LINE
  5
1CC
100
AcDbEntity
100
AcDbLine
  8
FORT
 62
7
370
-1
  6
CONTINUOUS
 10
82.8097219999999936
 20
215.5094029999999918
 30
0.0
 11
74.1494679999999988
 21
210.5094029999999918
 31
0.0
  0
LINE
  5
1CD
100
AcDbEntity
100
AcDbLine
  8
FORT
 62
7
370
-1
  6
CONTINUOUS
 10
74.0589640000000031
 20
221.3328260000000114
 30
0.0
 11
78.7682700000000011
 21
213.1760700000000099
 31
0.0
  0
LINE
  5
1CE
100
AcDbEntity
100
AcDbLine
  8
FORT
 62
7
370
-1
  6
CONTINUOUS
 10
78.7682700000000011
 20
213.1760700000000099
 30
0.0
 11
76.5599789999999985
 21
215.1342740000000049
 31
0.0
  0
LINE
  5
1CF
100
AcDbEntity
100
AcDbLine
  8
FORT
 62
7
370
-1
  6
CONTINUOUS
 10
78.7682700000000011
 20
213.1760700000000099
 30
0.0
 11
78.1765599999999949
 21
216.0676070000000095
 31
0.0
  0
LINE
  5
1D0
100
AcDbEntity
100
AcDbLine
  8
FORT
 62
7
370
-1
  6
CONTINUOUS
 10
73.2834419999999938
 20
210.0094029999999918
 30
0.0
 11
71.5513909999999953
 21
209.0094029999999918
 31
0.0
  0
LINE
  5
1D1
100
AcDbEntity
100
AcDbLine
  8
FORT
 62
7
370
-1
  6
CONTINUOUS
 10
70.6853660000000019
 20
208.5094029999999918
 30
0.0
 11
65.6357629999999972
 21
205.5940129999999897
 31
0.0
  0
MTEXT
  5
1D2
100
AcDbEntity
100
AcDbMText
  8
TEXTE
 62
7
370
-1
  6
CONTINUOUS
 10
85.2676649999999938
 20
215.1948109999999872
 30
0.0
 40
5.0
 41
100.0
 71
7
 72
2
  1
B
  7
ISO9
 50
0.0
 73
1
 44
1.0
  0
CIRCLE
  5
1D3
100
AcDbEntity
100
AcDbCircle
  8
FORT
 62
7
370
-1
  6
CONTINUOUS
 10
56.8289589999999976
 20
244.5094029999999918
 30
0.0
 40
8.0
  0
CIRCLE
  5
1D4
100
AcDbEntity
100
AcDbCircle
  8
FORT
 62
7
370
-1
  6
CONTINUOUS
 10
56.8289589999999976
 20
244.5094029999999918
 30
0.0
 40
6.0
  0
ARC
  5
1D5
100
AcDbEntity
  8
FORT
 62
7
370
-1
  6
CONTINUOUS
100
AcDbCircle
 10
78.4795950000000033
 20
232.0094029999999918
 30
0.0
 40
43.0
100
AcDbArc
 50
83.153064999999998
 51
150.0
  0
ARC
  5
1D6
100
AcDbEntity
  8
FORT
 62
7
370
-1
  6
CONTINUOUS
100
AcDbCircle
 10
82.532983999999999
 20
265.7669210000000248
 30
0.0
 40
9.0
100
AcDbArc
 50
285.9965730000000121
 51
83.153064999999998
  0
ARC
  5
1D7
100
AcDbEntity
  8
FORT
 62
7
370
-1
  6
CONTINUOUS
100
AcDbCircle
 10
56.8289589999999976
 20
244.5094029999999918
 30
0.0
 40
18.0
100
AcDbArc
 50
277.4873210000000086
 51
22.5126789999999986
  0
ARC
  5
1D8
100
AcDbEntity
  8
FORT
 62
7
370
-1
  6
CONTINUOUS
100
AcDbCircle
 10
56.8289589999999976
 20
244.5094029999999918
 30
0.0
 40
11.5
100
AcDbArc
 50
289.7376239999999825
 51
10.2623759999999997
  0
CIRCLE
  5
1D9
100
AcDbEntity
100
AcDbCircle
  8
FORT
 62
7
370
-1
  6
CONTINUOUS
 10
85.8669110000000018
 20
264.5927310000000148
 30
0.0
 40
0.25
  0
CIRCLE
  5
1DA
100
AcDbEntity
100
AcDbCircle
  8
FORT
 62
7
370
-1
  6
CONTINUOUS
 10
119.934077000000002
 20
222.5094029999999918
 30
0.0
 40
6.0
  0
ARC
  5
1DB
100
AcDbEntity
  8
FORT
 62
7
370
-1
  6
CONTINUOUS
100
AcDbCircle
 10
119.934077000000002
 20
222.5094029999999918
 30
0.0
 40
18.0
100
AcDbArc
 50
336.1147339999999986
 51
49.8203659999999999
  0
LINE
  5
1DC
100
AcDbEntity
100
AcDbLine
  8
FORT
 62
7
370
-1
  6
CONTINUOUS
 10
142.4699760000000026
 20
222.5094029999999918
 30
0.0
 11
145.934077000000002
 21
228.5094029999999918
 31
0.0
  0
LINE
  5
1DD
100
AcDbEntity
100
AcDbLine
  8
FORT
 62
7
370
-1
  6
CONTINUOUS
 10
155.434077000000002
 20
228.5094029999999918
 30
0.0
 11
155.434077000000002
 21
216.5094029999999918
 31
0.0
  0
LINE
  5
1DE
100
AcDbEntity
100
AcDbLine
  8
FORT
 62
7
370
-1
  6
CONTINUOUS
 10
150.434077000000002
 20
228.5094029999999918
 30
0.0
 11
150.434077000000002
 21
216.5094029999999918
 31
0.0
  0
ARC
  5
1DF
100
AcDbEntity
  8
FORT
 62
7
370
-1
  6
CONTINUOUS
100
AcDbCircle
 10
146.6152280000000019
 20
222.5094029999999918
 30
0.0
 40
3.5872229999999998
100
AcDbArc
 50
123.2483979999999946
 51
236.7516019999999912
  0
LINE
  5
1E0
100
AcDbEntity
100
AcDbLine
  8
FORT
 62
7
370
-1
  6
CONTINUOUS
 10
144.6484609999999975
 20
219.5094029999999918
 30
0.0
 11
144.6484609999999975
 21
225.5094029999999918
 31
0.0
  0
LINE
  5
1E1
100
AcDbEntity
100
AcDbLine
  8
FORT
 62
7
370
-1
  6
CONTINUOUS
 10
147.934077000000002
 20
228.5094029999999918
 30
0.0
 11
147.934077000000002
 21
216.5094029999999918
 31
0.0
  0
LINE
  5
1E2
100
AcDbEntity
100
AcDbLine
  8
FORT
 62
7
370
-1
  6
CONTINUOUS
 10
163.934077000000002
 20
230.5094029999999918
 30
0.0
 11
163.934077000000002
 21
214.5094029999999918
 31
0.0
  0
LINE
  5
1E3
100
AcDbEntity
100
AcDbLine
  8
FORT
 62
7
370
-1
  6
CONTINUOUS
 10
161.934077000000002
 20
216.5094029999999918
 30
0.0
 11
161.934077000000002
 21
228.5094029999999918
 31
0.0
  0
ARC
  5
1E4
100
AcDbEntity
  8
FORT
 62
7
370
-1
  6
CONTINUOUS
100
AcDbCircle
 10
101.0853479999999962
 20
230.2424139999999966
 30
0.0
 40
40.0
100
AcDbArc
 50
333.5358249999999884
 51
0.0
  0
LINE
  5
1E5
100
AcDbEntity
100
AcDbLine
  8
FORT
 62
7
370
-1
  6
CONTINUOUS
 10
221.934077000000002
 20
232.5094029999999918
 30
0.0
 11
221.934077000000002
 21
175.5094029999999918
 31
0.0
  0
LINE
  5
1E6
100
AcDbEntity
100
AcDbLine
  8
FORT
 62
7
370
-1
  6
CONTINUOUS
 10
193.934077000000002
 20
189.297664999999995
 30
0.0
 11
193.934077000000002
 21
232.5094029999999918
 31
0.0
  0
LWPOLYLINE
  5
1E7
  8
HACHURE
 62
5
370
-1
  6
CONTINUOUS
100
AcDbEntity
100
AcDbPolyline
 90
18
 70
1
 10
149.934077000000002
 20
241.5094029999999918
 10
144.934077000000002
 20
241.5094029999999918
 10
144.934077000000002
 20
243.5094029999999918
 10
141.0853480000000104
 20
243.5094029999999918
 10
141.0853480000000104
 20
230.2424139999999966
 42
-0.1159879998907425
 10
136.8938750000000084
 20
212.4168869999999174
 10
140.1902839999999912
 20
207.8728610000000003
 10
145.5220019999999863
 20
205.7401729999999986
 10
150.8537210000000073
 20
205.130833999999993
 10
154.6620910000000038
 20
203.7598209999999881
 10
159.934077000000002
 20
203.3028170000000046
 10
159.934077000000002
 20
216.5094029999999918
 10
145.934077000000002
 20
216.5094029999999918
 10
142.4699760000000026
 20
222.5094029999999918
 10
145.934077000000002
 20
228.5094029999999918
 10
150.6340769999999907
 20
228.5094029999999918
 10
150.6340769999999907
 20
231.088390000000004
 10
149.934077000000002
 20
231.7883899999999926
  0
INSERT
  5
1E8
100
AcDbEntity
100
AcDbBlockReference
  8
HACHURE
 62
256
370
-1
  6
ByLayer
  2
DESENS-G9
 10
0.0
 20
0.0
 30
0.0
  0
CIRCLE
  5
1E9
100
AcDbEntity
100
AcDbCircle
  8
FIN
 62
5
370
-1
  6
CONTINUOUS
 10
119.934077000000002
 20
222.5094029999999918
 30
0.0
 40
4.0
  0
LWPOLYLINE
  5
1EA
  8
FIN
 62
5
370
-1
  6
CONTINUOUS
100
AcDbEntity
100
AcDbPolyline
 90
12
 70
0
 10
129.5268480000000011
 20
243.5094029999999918
 10
131.3548649999999895
 20
238.1874870000000044
 10
131.9642049999999927
 20
232.09409500000001
 10
133.6398869999999874
 20
228.1333899999999915
 10
134.2492269999999905
 20
222.3570679999999982
 10
135.7725749999999891
 20
218.6886320000000126
 10
136.8938750000000084
 20
212.4168870000000027
 10
140.1902839999999912
 20
207.8728610000000003
 10
145.5220019999999863
 20
205.7401729999999986
 10
150.8537210000000073
 20
205.130833999999993
 10
154.6620910000000038
 20
203.7598209999999881
 10
159.934077000000002
 20
203.3028170000000046
  0
LINE
  5
1EB
100
AcDbEntity
100
AcDbLine
  8
FORT
 62
7
370
-1
  6
CONTINUOUS
 10
159.934077000000002
 20
188.5094029999999918
 30
0.0
 11
189.934077000000002
 21
188.5094029999999918
 31
0.0
  0
LINE
  5
1EC
100
AcDbEntity
100
AcDbLine
  8
FORT
 62
7
370
-1
  6
CONTINUOUS
 10
159.934077000000002
 20
181.5094029999999918
 30
0.0
 11
189.934077000000002
 21
181.5094029999999918
 31
0.0
  0
LINE
  5
1ED
100
AcDbEntity
100
AcDbLine
  8
FORT
 62
7
370
-1
  6
CONTINUOUS
 10
159.934077000000002
 20
165.5094029999999918
 30
0.0
 11
189.934077000000002
 21
165.5094029999999918
 31
0.0
  0
LINE
  5
1EE
100
AcDbEntity
100
AcDbLine
  8
FORT
 62
7
370
-1
  6
CONTINUOUS
 10
163.934077000000002
 20
214.5094029999999918
 30
0.0
 11
193.934077000000002
 21
214.5094029999999918
 31
0.0
  0
LINE
  5
1EF
100
AcDbEntity
100
AcDbLine
  8
FORT
 62
7
370
-1
  6
CONTINUOUS
 10
159.934077000000002
 20
187.5094029999999918
 30
0.0
 11
189.934077000000002
 21
187.5094029999999918
 31
0.0
  0
LINE
  5
1F0
100
AcDbEntity
100
AcDbLine
  8
FIN
 62
5
370
-1
  6
CONTINUOUS
 10
162.7340770000000134
 20
215.7094030000000089
 30
0.0
 11
193.934077000000002
 21
215.7094030000000089
 31
0.0
  0
LINE
  5
1F1
100
AcDbEntity
100
AcDbLine
  8
FORT
 62
7
370
-1
  6
CONTINUOUS
 10
159.934077000000002
 20
216.5094029999999918
 30
0.0
 11
159.934077000000002
 21
150.5094029999999918
 31
0.0
  0
LINE
  5
1F2
100
AcDbEntity
100
AcDbLine
  8
FORT
 62
7
370
-1
  6
CONTINUOUS
 10
152.934077000000002
 20
182.5094029999999918
 30
0.0
 11
152.934077000000002
 21
189.8455539999999928
 31
0.0
  0
LINE
  5
1F3
100
AcDbEntity
100
AcDbLine
  8
FORT
 62
7
370
-1
  6
CONTINUOUS
 10
152.934077000000002
 20
149.5094029999999918
 30
0.0
 11
152.934077000000002
 21
151.5094029999999918
 31
0.0
  0
LINE
  5
1F4
100
AcDbEntity
100
AcDbLine
  8
FORT
 62
7
370
-1
  6
CONTINUOUS
 10
152.934077000000002
 20
152.5094029999999918
 30
0.0
 11
152.934077000000002
 21
156.3887190000000089
 31
0.0
  0
LINE
  5
1F5
100
AcDbEntity
100
AcDbLine
  8
FORT
 62
7
370
-1
  6
CONTINUOUS
 10
119.934077000000002
 20
189.8455539999999928
 30
0.0
 11
119.934077000000002
 21
197.1817039999999963
 31
0.0
  0
LINE
  5
1F6
100
AcDbEntity
100
AcDbLine
  8
FORT
 62
7
370
-1
  6
CONTINUOUS
 10
119.934077000000002
 20
189.8455539999999928
 30
0.0
 11
125.6326969999999932
 21
189.8455539999999928
 31
0.0
  0
LINE
  5
1F7
100
AcDbEntity
100
AcDbLine
  8
FORT
 62
7
370
-1
  6
CONTINUOUS
 10
142.4699760000000026
 20
222.5094029999999918
 30
0.0
 11
145.934077000000002
 21
216.5094029999999918
 31
0.0
  0
LINE
  5
1F8
100
AcDbEntity
100
AcDbLine
  8
FORT
 62
7
370
-1
  6
CONTINUOUS
 10
150.434077000000002
 20
219.5094029999999918
 30
0.0
 11
155.434077000000002
 21
219.5094029999999918
 31
0.0
  0
LINE
  5
1F9
100
AcDbEntity
100
AcDbLine
  8
FORT
 62
7
370
-1
  6
CONTINUOUS
 10
145.934077000000002
 20
219.5094029999999918
 30
0.0
 11
145.934077000000002
 21
216.5094029999999918
 31
0.0
  0
LINE
  5
1FA
100
AcDbEntity
100
AcDbLine
  8
FORT
 62
7
370
-1
  6
CONTINUOUS
 10
144.6484609999999975
 20
219.5094029999999918
 30
0.0
 11
147.934077000000002
 21
219.5094029999999918
 31
0.0
  0
LINE
  5
1FB
100
AcDbEntity
100
AcDbLine
  8
FORT
 62
7
370
-1
  6
CONTINUOUS
 10
145.934077000000002
 20
216.5094029999999918
 30
0.0
 11
161.934077000000002
 21
216.5094029999999918
 31
0.0
  0
LINE
  5
1FC
100
AcDbEntity
100
AcDbLine
  8
FORT
 62
7
370
-1
  6
CONTINUOUS
 10
161.934077000000002
 20
216.5094029999999918
 30
0.0
 11
163.934077000000002
 21
214.5094029999999918
 31
0.0
  0
LINE
  5
1FD
100
AcDbEntity
100
AcDbLine
  8
FORT
 62
7
370
-1
  6
CONTINUOUS
 10
147.2354579999999942
 20
189.8455539999999928
 30
0.0
 11
152.934077000000002
 21
189.8455539999999928
 31
0.0
  0
LINE
  5
1FE
100
AcDbEntity
100
AcDbLine
  8
FORT
 62
7
370
-1
  6
CONTINUOUS
 10
189.934077000000002
 20
181.5094029999999918
 30
0.0
 11
189.934077000000002
 21
188.5094029999999918
 31
0.0
  0
LINE
  5
1FF
100
AcDbEntity
100
AcDbLine
  8
FIN
 62
5
370
-1
  6
CONTINUOUS
 10
211.934077000000002
 20
203.3294030000000134
 30
0.0
 11
211.934077000000002
 21
175.5094029999999918
 31
0.0
  0
LINE
  5
200
100
AcDbEntity
100
AcDbLine
  8
FORT
 62
7
370
-1
  6
CONTINUOUS
 10
189.934077000000002
 20
158.5094029999999918
 30
0.0
 11
189.934077000000002
 21
165.5094029999999918
 31
0.0
  0
ARC
  5
201
100
AcDbEntity
  8
FORT
 62
7
370
-1
  6
CONTINUOUS
100
AcDbCircle
 10
194.408048000000008
 20
154.5094029999999918
 30
0.0
 40
6.0
100
AcDbArc
 50
90.0
 51
136.9781409999999937
  0
LINE
  5
202
100
AcDbEntity
100
AcDbLine
  8
FORT
 62
7
370
-1
  6
CONTINUOUS
 10
189.934077000000002
 20
158.5094029999999918
 30
0.0
 11
190.0214870000000076
 21
158.60306700000001
 31
0.0
  0
LINE
  5
203
100
AcDbEntity
100
AcDbLine
  8
FORT
 62
7
370
-1
  6
CONTINUOUS
 10
194.408048000000008
 20
160.5094029999999918
 30
0.0
 11
206.934077000000002
 21
160.5094029999999918
 31
0.0
  0
ARC
  5
204
100
AcDbEntity
  8
FORT
 62
7
370
-1
  6
CONTINUOUS
100
AcDbCircle
 10
206.934077000000002
 20
175.5094029999999918
 30
0.0
 40
15.0
100
AcDbArc
 50
270.0
 51
0.0
  0
LINE
  5
205
100
AcDbEntity
100
AcDbLine
  8
FORT
 62
7
370
-1
  6
CONTINUOUS
 10
206.2459100000000092
 20
148.5094029999999918
 30
0.0
 11
206.2459100000000092
 21
158.5094029999999918
 31
0.0
  0
LINE
  5
206
100
AcDbEntity
100
AcDbLine
  8
FORT
 62
7
370
-1
  6
CONTINUOUS
 10
196.8272990000000107
 20
153.1760700000000099
 30
0.0
 11
206.2459100000000092
 21
153.1760700000000099
 31
0.0
  0
LINE
  5
207
100
AcDbEntity
100
AcDbLine
  8
FORT
 62
7
370
-1
  6
CONTINUOUS
 10
206.2459100000000092
 20
153.1760700000000099
 30
0.0
 11
203.4459099999999978
 21
154.1094029999999862
 31
0.0
  0
LINE
  5
208
100
AcDbEntity
100
AcDbLine
  8
FORT
 62
7
370
-1
  6
CONTINUOUS
 10
206.2459100000000092
 20
153.1760700000000099
 30
0.0
 11
203.4459099999999978
 21
152.2427360000000078
 31
0.0
  0
LINE
  5
209
100
AcDbEntity
100
AcDbLine
  8
FORT
 62
7
370
-1
  6
CONTINUOUS
 10
206.2459100000000092
 20
162.5094029999999918
 30
0.0
 11
206.2459100000000092
 21
167.5094029999999918
 31
0.0
  0
LINE
  5
20A
100
AcDbEntity
100
AcDbLine
  8
FORT
 62
7
370
-1
  6
CONTINUOUS
 10
206.2459100000000092
 20
159.5094029999999918
 30
0.0
 11
206.2459100000000092
 21
161.5094029999999918
 31
0.0
  0
ARC
  5
20B
100
AcDbEntity
  8
FIN
 62
5
370
-1
  6
CONTINUOUS
100
AcDbCircle
 10
206.934077000000002
 20
175.5094029999999918
 30
0.0
 40
5.0
100
AcDbArc
 50
270.0
 51
0.0
  0
LINE
  5
20C
100
AcDbEntity
100
AcDbLine
  8
FIN
 62
5
370
-1
  6
CONTINUOUS
 10
194.934077000000002
 20
170.5094029999999918
 30
0.0
 11
194.934077000000002
 21
176.5094029999999918
 31
0.0
  0
ARC
  5
20D
100
AcDbEntity
  8
FIN
 62
5
370
-1
  6
CONTINUOUS
100
AcDbCircle
 10
205.4821430000000078
 20
160.5094029999999918
 30
0.0
 40
10.0
100
AcDbArc
 50
90.0
 51
136.9661110000000122
  0
LINE
  5
20E
100
AcDbEntity
100
AcDbLine
  8
FIN
 62
5
370
-1
  6
CONTINUOUS
 10
192.7616539999999929
 20
161.538014000000004
 30
0.0
 11
198.1726409999999987
 21
167.3337109999999939
 31
0.0
  0
ARC
  5
20F
100
AcDbEntity
  8
FIN
 62
5
370
-1
  6
CONTINUOUS
100
AcDbCircle
 10
189.934077000000002
 20
176.5094029999999918
 30
0.0
 40
5.0
100
AcDbArc
 50
360.0
 51
66.4218220000000059
  0
ARC
  5
210
100
AcDbEntity
  8
FIN
 62
5
370
-1
  6
CONTINUOUS
100
AcDbCircle
 10
189.934077000000002
 20
170.5094029999999918
 30
0.0
 40
5.0
100
AcDbArc
 50
293.5781779999999799
 51
0.0
  0
LINE
  5
211
100
AcDbEntity
100
AcDbLine
  8
FIN
 62
5
370
-1
  6
CONTINUOUS
 10
205.4821430000000078
 20
170.5094029999999918
 30
0.0
 11
206.934077000000002
 21
170.5094029999999918
 31
0.0
  0
LINE
  5
212
100
AcDbEntity
100
AcDbLine
  8
FORT
 62
7
370
-1
  6
CONTINUOUS
 10
189.934077000000002
 20
188.5094029999999918
 30
0.0
 11
190.4718900000000019
 21
187.9331099999999992
 31
0.0
  0
ARC
  5
213
100
AcDbEntity
  8
FORT
 62
7
370
-1
  6
CONTINUOUS
100
AcDbCircle
 10
191.934077000000002
 20
189.297664999999995
 30
0.0
 40
2.0
100
AcDbArc
 50
223.0218590000000063
 51
0.0
  0
LINE
  5
214
100
AcDbEntity
100
AcDbLine
  8
FORT
 62
7
370
-1
  6
CONTINUOUS
 10
227.434077000000002
 20
198.0923750000000041
 30
0.0
 11
225.434077000000002
 21
198.0923750000000041
 31
0.0
  0
LINE
  5
215
100
AcDbEntity
100
AcDbLine
  8
FORT
 62
7
370
-1
  6
CONTINUOUS
 10
224.434077000000002
 20
198.0923750000000041
 30
0.0
 11
219.434077000000002
 21
198.0923750000000041
 31
0.0
  0
LINE
  5
216
100
AcDbEntity
100
AcDbLine
  8
FORT
 62
7
370
-1
  6
CONTINUOUS
 10
177.434077000000002
 20
198.0923750000000041
 30
0.0
 11
187.434077000000002
 21
198.0923750000000041
 31
0.0
  0
LINE
  5
217
100
AcDbEntity
100
AcDbLine
  8
FORT
 62
7
370
-1
  6
CONTINUOUS
 10
188.434077000000002
 20
198.0923750000000041
 30
0.0
 11
190.434077000000002
 21
198.0923750000000041
 31
0.0
  0
LINE
  5
218
100
AcDbEntity
100
AcDbLine
  8
FORT
 62
7
370
-1
  6
CONTINUOUS
 10
191.434077000000002
 20
198.0923750000000041
 30
0.0
 11
196.434077000000002
 21
198.0923750000000041
 31
0.0
  0
LINE
  5
219
100
AcDbEntity
100
AcDbLine
  8
FORT
 62
7
370
-1
  6
CONTINUOUS
 10
182.1007439999999917
 20
207.5109860000000026
 30
0.0
 11
182.1007439999999917
 21
198.0923750000000041
 31
0.0
  0
LINE
  5
21A
100
AcDbEntity
100
AcDbLine
  8
FORT
 62
7
370
-1
  6
CONTINUOUS
 10
182.1007439999999917
 20
198.0923750000000041
 30
0.0
 11
183.0340769999999964
 21
200.892374999999987
 31
0.0
  0
LINE
  5
21B
100
AcDbEntity
100
AcDbLine
  8
FORT
 62
7
370
-1
  6
CONTINUOUS
 10
182.1007439999999917
 20
198.0923750000000041
 30
0.0
 11
181.1674109999999871
 21
200.892374999999987
 31
0.0
  0
MTEXT
  5
21C
100
AcDbEntity
100
AcDbMText
  8
TEXTE
 62
7
370
-1
  6
CONTINUOUS
 10
171.8359920000000045
 20
195.6550180000000125
 30
0.0
 40
5.0
 41
100.0
 71
7
 72
2
  1
C
  7
ISO9
 50
0.0
 73
1
 44
1.0
  0
ARC
  5
21D
100
AcDbEntity
  8
FIN
 62
5
370
-1
  6
CONTINUOUS
100
AcDbCircle
 10
219.934077000000002
 20
203.3294030000000134
 30
0.0
 40
8.0
100
AcDbArc
 50
90.0
 51
180.0
  0
LINE
  5
21E
100
AcDbEntity
100
AcDbLine
  8
FIN
 62
5
370
-1
  6
CONTINUOUS
 10
195.934077000000002
 20
211.3294030000000134
 30
0.0
 11
219.934077000000002
 21
211.3294030000000134
 31
0.0
  0
LINE
  5
21F
100
AcDbEntity
100
AcDbLine
  8
FORT
 62
7
370
-1
  6
CONTINUOUS
 10
163.934077000000002
 20
230.5094029999999918
 30
0.0
 11
193.934077000000002
 21
230.5094029999999918
 31
0.0
  0
LINE
  5
220
100
AcDbEntity
100
AcDbLine
  8
FIN
 62
5
370
-1
  6
CONTINUOUS
 10
162.7340770000000134
 20
229.3094030000000032
 30
0.0
 11
193.934077000000002
 21
229.3094030000000032
 31
0.0
  0
LINE
  5
221
100
AcDbEntity
100
AcDbLine
  8
FIN
 62
5
370
-1
  6
CONTINUOUS
 10
157.934077000000002
 20
242.1312839999999937
 30
0.0
 11
180.0
 21
270.0
 31
0.0
  0
LINE
  5
222
100
AcDbEntity
100
AcDbLine
  8
FIN
 62
5
370
-1
  6
CONTINUOUS
 10
155.917743999999999
 20
245.0706539999999904
 30
0.0
 11
160.0
 21
270.0
 31
0.0
  0
LINE
  5
223
100
AcDbEntity
100
AcDbLine
  8
FORT
 62
7
370
-1
  6
CONTINUOUS
 10
141.0853480000000104
 20
243.5094029999999918
 30
0.0
 11
141.0853480000000104
 21
230.2424139999999966
 31
0.0
  0
LINE
  5
224
100
AcDbEntity
100
AcDbLine
  8
FORT
 62
7
370
-1
  6
CONTINUOUS
 10
159.934077000000002
 20
241.5094029999999918
 30
0.0
 11
159.934077000000002
 21
228.5094029999999918
 31
0.0
  0
LINE
  5
225
100
AcDbEntity
100
AcDbLine
  8
FORT
 62
7
370
-1
  6
CONTINUOUS
 10
149.934077000000002
 20
241.5094029999999918
 30
0.0
 11
149.934077000000002
 21
231.7883899999999926
 31
0.0
  0
LINE
  5
226
100
AcDbEntity
100
AcDbLine
  8
FORT
 62
7
370
-1
  6
CONTINUOUS
 10
155.934077000000002
 20
231.7883899999999926
 30
0.0
 11
155.934077000000002
 21
241.5094029999999918
 31
0.0
  0
LINE
  5
227
100
AcDbEntity
100
AcDbLine
  8
FORT
 62
7
370
-1
  6
CONTINUOUS
 10
149.934077000000002
 20
231.7883899999999926
 30
0.0
 11
150.934077000000002
 21
230.7883899999999926
 31
0.0
  0
LINE
  5
228
100
AcDbEntity
100
AcDbLine
  8
FORT
 62
7
370
-1
  6
CONTINUOUS
 10
154.934077000000002
 20
230.7883899999999926
 30
0.0
 11
155.934077000000002
 21
231.7883899999999926
 31
0.0
  0
LINE
  5
229
100
AcDbEntity
100
AcDbLine
  8
FORT
 62
7
370
-1
  6
CONTINUOUS
 10
150.434077000000002
 20
225.5094029999999918
 30
0.0
 11
155.434077000000002
 21
225.5094029999999918
 31
0.0
  0
LINE
  5
22A
100
AcDbEntity
100
AcDbLine
  8
FORT
 62
7
370
-1
  6
CONTINUOUS
 10
145.934077000000002
 20
228.5094029999999918
 30
0.0
 11
145.934077000000002
 21
225.5094029999999918
 31
0.0
  0
LINE
  5
22B
100
AcDbEntity
100
AcDbLine
  8
FORT
 62
7
370
-1
  6
CONTINUOUS
 10
144.6484609999999975
 20
225.5094029999999918
 30
0.0
 11
147.934077000000002
 21
225.5094029999999918
 31
0.0
  0
LINE
  5
22C
100
AcDbEntity
100
AcDbLine
  8
FORT
 62
7
370
-1
  6
CONTINUOUS
 10
150.934077000000002
 20
230.7883899999999926
 30
0.0
 11
154.934077000000002
 21
230.7883899999999926
 31
0.0
  0
LINE
  5
22D
100
AcDbEntity
100
AcDbLine
  8
FORT
 62
7
370
-1
  6
CONTINUOUS
 10
150.6340769999999907
 20
228.5094029999999918
 30
0.0
 11
150.6340769999999907
 21
231.088390000000004
 31
0.0
  0
LINE
  5
22E
100
AcDbEntity
100
AcDbLine
  8
FORT
 62
7
370
-1
  6
CONTINUOUS
 10
155.2340770000000134
 20
228.5094029999999918
 30
0.0
 11
155.2340770000000134
 21
231.088390000000004
 31
0.0
  0
LINE
  5
22F
100
AcDbEntity
100
AcDbLine
  8
FORT
 62
7
370
-1
  6
CONTINUOUS
 10
145.934077000000002
 20
228.5094029999999918
 30
0.0
 11
150.934077000000002
 21
228.5094029999999918
 31
0.0
  0
LINE
  5
230
100
AcDbEntity
100
AcDbLine
  8
FORT
 62
7
370
-1
  6
CONTINUOUS
 10
150.934077000000002
 20
226.9094029999999975
 30
0.0
 11
150.934077000000002
 21
230.7883899999999926
 31
0.0
  0
LINE
  5
231
100
AcDbEntity
100
AcDbLine
  8
FORT
 62
7
370
-1
  6
CONTINUOUS
 10
150.934077000000002
 20
226.9094029999999975
 30
0.0
 11
151.6340769999999907
 21
226.2094030000000089
 31
0.0
  0
LINE
  5
232
100
AcDbEntity
100
AcDbLine
  8
FORT
 62
7
370
-1
  6
CONTINUOUS
 10
154.934077000000002
 20
226.9094029999999975
 30
0.0
 11
154.934077000000002
 21
230.7883899999999926
 31
0.0
  0
LINE
  5
233
100
AcDbEntity
100
AcDbLine
  8
FORT
 62
7
370
-1
  6
CONTINUOUS
 10
151.6340769999999907
 20
226.2094030000000089
 30
0.0
 11
154.2340770000000134
 21
226.2094030000000089
 31
0.0
  0
LINE
  5
234
100
AcDbEntity
100
AcDbLine
  8
FORT
 62
7
370
-1
  6
CONTINUOUS
 10
154.934077000000002
 20
226.9094029999999975
 30
0.0
 11
154.2340770000000134
 21
226.2094030000000089
 31
0.0
  0
LINE
  5
235
100
AcDbEntity
100
AcDbLine
  8
FORT
 62
7
370
-1
  6
CONTINUOUS
 10
150.934077000000002
 20
226.9094029999999975
 30
0.0
 11
154.934077000000002
 21
226.9094029999999975
 31
0.0
  0
LINE
  5
236
100
AcDbEntity
100
AcDbLine
  8
FORT
 62
7
370
-1
  6
CONTINUOUS
 10
161.934077000000002
 20
228.5094029999999918
 30
0.0
 11
163.934077000000002
 21
230.5094029999999918
 31
0.0
  0
LINE
  5
237
100
AcDbEntity
100
AcDbLine
  8
FORT
 62
7
370
-1
  6
CONTINUOUS
 10
154.934077000000002
 20
228.5094029999999918
 30
0.0
 11
161.934077000000002
 21
228.5094029999999918
 31
0.0
  0
LINE
  5
238
100
AcDbEntity
100
AcDbLine
  8
FORT
 62
7
370
-1
  6
CONTINUOUS
 10
149.934077000000002
 20
231.7883899999999926
 30
0.0
 11
155.934077000000002
 21
231.7883899999999926
 31
0.0
  0
LINE
  5
239
100
AcDbEntity
100
AcDbLine
  8
FORT
 62
7
370
-1
  6
CONTINUOUS
 10
119.934077000000002
 20
243.5094029999999918
 30
0.0
 11
144.9550470000000075
 21
243.5094029999999918
 31
0.0
  0
LINE
  5
23A
100
AcDbEntity
100
AcDbLine
  8
FORT
 62
7
370
-1
  6
CONTINUOUS
 10
147.934077000000002
 20
241.5094029999999918
 30
0.0
 11
147.934077000000002
 21
246.8094030000000032
 31
0.0
  0
LINE
  5
23B
100
AcDbEntity
100
AcDbLine
  8
FORT
 62
7
370
-1
  6
CONTINUOUS
 10
157.934077000000002
 20
241.5094029999999918
 30
0.0
 11
157.934077000000002
 21
246.8094030000000032
 31
0.0
  0
LINE
  5
23C
100
AcDbEntity
100
AcDbLine
  8
FORT
 62
7
370
-1
  6
CONTINUOUS
 10
147.9654480000000092
 20
246.8094030000000032
 30
0.0
 11
152.1340769999999907
 21
246.8094030000000032
 31
0.0
  0
LINE
  5
23D
100
AcDbEntity
100
AcDbLine
  8
FORT
 62
7
370
-1
  6
CONTINUOUS
 10
153.7340770000000134
 20
246.8094030000000032
 30
0.0
 11
157.934077000000002
 21
246.8094030000000032
 31
0.0
  0
LINE
  5
23E
100
AcDbEntity
100
AcDbLine
  8
FORT
 62
7
370
-1
  6
CONTINUOUS
 10
152.1340769999999907
 20
244.8214480000000037
 30
0.0
 11
152.1340769999999907
 21
246.8094030000000032
 31
0.0
  0
LINE
  5
23F
100
AcDbEntity
100
AcDbLine
  8
FORT
 62
7
370
-1
  6
CONTINUOUS
 10
152.1340769999999907
 20
244.8214480000000037
 30
0.0
 11
153.7340770000000134
 21
244.8214480000000037
 31
0.0
  0
LINE
  5
240
100
AcDbEntity
100
AcDbLine
  8
FORT
 62
7
370
-1
  6
CONTINUOUS
 10
153.7340770000000134
 20
244.8214480000000037
 30
0.0
 11
153.7340770000000134
 21
246.8094030000000032
 31
0.0
  0
LINE
  5
241
100
AcDbEntity
100
AcDbLine
  8
FORT
 62
7
370
-1
  6
CONTINUOUS
 10
144.934077000000002
 20
241.5094029999999918
 30
0.0
 11
144.934077000000002
 21
243.5094029999999918
 31
0.0
  0
LINE
  5
242
100
AcDbEntity
100
AcDbLine
  8
FORT
 62
7
370
-1
  6
CONTINUOUS
 10
144.934077000000002
 20
241.5094029999999918
 30
0.0
 11
159.934077000000002
 21
241.5094029999999918
 31
0.0
  0
LINE
  5
243
100
AcDbEntity
100
AcDbLine
  8
FORT
 62
7
370
-1
  6
CONTINUOUS
 10
152.2840769999999964
 20
242.8094030000000032
 30
0.0
 11
153.5840770000000077
 21
241.5094029999999918
 31
0.0
  0
LINE
  5
244
100
AcDbEntity
100
AcDbLine
  8
FORT
 62
7
370
-1
  6
CONTINUOUS
 10
153.8840769999999907
 20
242.8094030000000032
 30
0.0
 11
155.184077000000002
 21
241.5094029999999918
 31
0.0
  0
LINE
  5
245
100
AcDbEntity
100
AcDbLine
  8
FORT
 62
7
370
-1
  6
CONTINUOUS
 10
155.4840770000000134
 20
242.8094030000000032
 30
0.0
 11
156.7840769999999964
 21
241.5094029999999918
 31
0.0
  0
LINE
  5
246
100
AcDbEntity
100
AcDbLine
  8
FORT
 62
7
370
-1
  6
CONTINUOUS
 10
157.0840770000000077
 20
242.8094030000000032
 30
0.0
 11
157.934077000000002
 21
241.9594030000000089
 31
0.0
  0
LINE
  5
247
100
AcDbEntity
100
AcDbLine
  8
FORT
 62
7
370
-1
  6
CONTINUOUS
 10
150.684077000000002
 20
242.8094030000000032
 30
0.0
 11
151.9840770000000134
 21
241.5094029999999918
 31
0.0
  0
LINE
  5
248
100
AcDbEntity
100
AcDbLine
  8
FORT
 62
7
370
-1
  6
CONTINUOUS
 10
149.0840770000000077
 20
242.8094030000000032
 30
0.0
 11
150.3840769999999907
 21
241.5094029999999918
 31
0.0
  0
LINE
  5
249
100
AcDbEntity
100
AcDbLine
  8
FORT
 62
7
370
-1
  6
CONTINUOUS
 10
147.934077000000002
 20
242.3594029999999862
 30
0.0
 11
148.7840769999999964
 21
241.5094029999999918
 31
0.0
  0
LINE
  5
24A
100
AcDbEntity
100
AcDbLine
  8
FORT
 62
7
370
-1
  6
CONTINUOUS
 10
119.934077000000002
 20
255.5094029999999918
 30
0.0
 11
119.934077000000002
 21
245.5094029999999918
 31
0.0
  0
LINE
  5
24B
100
AcDbEntity
100
AcDbLine
  8
FORT
 62
7
370
-1
  6
CONTINUOUS
 10
119.934077000000002
 20
241.5094029999999918
 30
0.0
 11
119.934077000000002
 21
236.5094029999999918
 31
0.0
  0
LINE
  5
24C
100
AcDbEntity
100
AcDbLine
  8
FORT
 62
7
370
-1
  6
CONTINUOUS
 10
119.934077000000002
 20
244.5094029999999918
 30
0.0
 11
119.934077000000002
 21
242.5094029999999918
 31
0.0
  0
LINE
  5
24D
100
AcDbEntity
100
AcDbLine
  8
FORT
 62
7
370
-1
  6
CONTINUOUS
 10
119.934077000000002
 20
250.8427360000000022
 30
0.0
 11
117.1340770000000049
 21
251.7760700000000043
 31
0.0
  0
LINE
  5
24E
100
AcDbEntity
100
AcDbLine
  8
FORT
 62
7
370
-1
  6
CONTINUOUS
 10
119.934077000000002
 20
250.8427360000000022
 30
0.0
 11
117.1340770000000049
 21
249.9094029999999975
 31
0.0
  0
MTEXT
  5
24F
100
AcDbEntity
100
AcDbMText
  8
TEXTE
 62
7
370
-1
  6
CONTINUOUS
 10
118.2617699999999985
 20
258.1969980000000078
 30
0.0
 40
5.0
 41
100.0
 71
7
 72
2
  1
A
  7
ISO9
 50
0.0
 73
1
 44
1.0
  0
CIRCLE
  5
250
100
AcDbEntity
100
AcDbCircle
  8
FORT
 62
7
370
-1
  6
CONTINUOUS
 10
155.917743999999999
 20
245.0706539999999904
 30
0.0
 40
0.25
  0
LINE
  5
251
100
AcDbEntity
100
AcDbLine
  8
FORT
 62
7
370
-1
  6
CONTINUOUS
 10
147.9654480000000092
 20
242.8094030000000032
 30
0.0
 11
157.934077000000002
 21
242.8094030000000032
 31
0.0
  0
LINE
  5
252
100
AcDbEntity
100
AcDbLine
  8
FORT
 62
7
370
-1
  6
CONTINUOUS
 10
160.0387660000000096
 20
244.03602699999999
 30
0.0
 11
157.934077000000002
 21
242.1312839999999937
 31
0.0
  0
LINE
  5
253
100
AcDbEntity
100
AcDbLine
  8
FORT
 62
7
370
-1
  6
CONTINUOUS
 10
159.3072760000000017
 20
244.6156520000000114
 30
0.0
 11
157.934077000000002
 21
242.1312839999999937
 31
0.0
  0
LWPOLYLINE
  5
254
  8
HACHURE
 62
5
370
-1
  6
CONTINUOUS
100
AcDbEntity
100
AcDbPolyline
 90
6
 70
1
 10
159.934077000000002
 20
241.5094029999999918
 10
155.934077000000002
 20
241.5094029999999918
 10
155.934077000000002
 20
231.7883899999999926
 10
155.2340770000000134
 20
231.088390000000004
 10
155.2340770000000134
 20
228.5094029999999918
 10
159.934077000000002
 20
228.5094029999999918
  0
INSERT
  5
255
100
AcDbEntity
100
AcDbBlockReference
  8
HACHURE
 62
256
370
-1
  6
ByLayer
  2
DESENS-G10
 10
0.0
 20
0.0
 30
0.0
  0
LINE
  5
256
100
AcDbEntity
100
AcDbLine
  8
FIN
 62
5
370
-1
  6
CONTINUOUS
 10
150.6340769999999907
 20
241.5094029999999918
 30
0.0
 11
150.6340769999999907
 21
231.088390000000004
 31
0.0
  0
LINE
  5
257
100
AcDbEntity
100
AcDbLine
  8
FIN
 62
5
370
-1
  6
CONTINUOUS
 10
155.2340770000000134
 20
231.088390000000004
 30
0.0
 11
155.2340770000000134
 21
241.5094029999999918
 31
0.0
  0
LINE
  5
258
100
AcDbEntity
100
AcDbLine
  8
FIN
 62
5
370
-1
  6
CONTINUOUS
 10
149.934077000000002
 20
228.5094029999999918
 30
0.0
 11
149.934077000000002
 21
231.7883899999999926
 31
0.0
  0
LINE
  5
259
100
AcDbEntity
100
AcDbLine
  8
FIN
 62
5
370
-1
  6
CONTINUOUS
 10
155.934077000000002
 20
231.7883899999999926
 30
0.0
 11
155.934077000000002
 21
228.5094029999999918
 31
0.0
  0
LINE
  5
25A
100
AcDbEntity
100
AcDbLine
  8
FORT
 62
7
370
-1
  6
CONTINUOUS
 10
160.0
 20
270.0
 30
0.0
 11
170.0
 21
270.0
 31
0.0
  0
LINE
  5
25B
100
AcDbEntity
100
AcDbLine
  8
FORT
 62
7
370
-1
  6
CONTINUOUS
 10
120.0
 20
270.0
 30
0.0
 11
130.0
 21
270.0
 31
0.0
  0
MTEXT
  5
25C
100
AcDbEntity
100
AcDbMText
  8
TEXTE
 62
7
370
-1
  6
CONTINUOUS
 10
123.0
 20
272.0
 30
0.0
 40
5.0
 41
100.0
 71
7
 72
2
  1
1
  7
ISO9
 50
0.0
 73
1
 44
1.0
  0
MTEXT
  5
25D
100
AcDbEntity
100
AcDbMText
  8
TEXTE
 62
7
370
-1
  6
CONTINUOUS
 10
163.0
 20
272.0
 30
0.0
 40
5.0
 41
100.0
 71
7
 72
2
  1
2
  7
ISO9
 50
0.0
 73
1
 44
1.0
  0
LINE
  5
25E
100
AcDbEntity
100
AcDbLine
  8
FORT
 62
7
370
-1
  6
CONTINUOUS
 10
198.934077000000002
 20
237.5094029999999918
 30
0.0
 11
216.934077000000002
 21
237.5094029999999918
 31
0.0
  0
ARC
  5
25F
100
AcDbEntity
  8
FORT
 62
7
370
-1
  6
CONTINUOUS
100
AcDbCircle
 10
198.934077000000002
 20
232.5094029999999918
 30
0.0
 40
5.0
100
AcDbArc
 50
90.0
 51
180.0
  0
ARC
  5
260
100
AcDbEntity
  8
FORT
 62
7
370
-1
  6
CONTINUOUS
100
AcDbCircle
 10
216.934077000000002
 20
232.5094029999999918
 30
0.0
 40
5.0
100
AcDbArc
 50
0.0
 51
90.0
  0
LINE
  5
261
100
AcDbEntity
100
AcDbLine
  8
FORT
 62
7
370
-1
  6
CONTINUOUS
 10
206.2459100000000092
 20
249.5094029999999918
 30
0.0
 11
206.2459100000000092
 21
239.5094029999999918
 31
0.0
  0
LINE
  5
262
100
AcDbEntity
100
AcDbLine
  8
FORT
 62
7
370
-1
  6
CONTINUOUS
 10
206.2459100000000092
 20
244.8427360000000022
 30
0.0
 11
203.4459099999999978
 21
243.9094029999999975
 31
0.0
  0
MTEXT
  5
263
100
AcDbEntity
100
AcDbMText
  8
TEXTE
 62
7
370
-1
  6
CONTINUOUS
 10
205.1298050000000046
 20
252.1708739999999977
 30
0.0
 40
5.0
 41
100.0
 71
7
 72
2
  1
D
  7
ISO9
 50
0.0
 73
1
 44
1.0
  0
LINE
  5
264
100
AcDbEntity
100
AcDbLine
  8
FORT
 62
7
370
-1
  6
CONTINUOUS
 10
206.2459100000000092
 20
238.5094029999999918
 30
0.0
 11
206.2459100000000092
 21
236.5094029999999918
 31
0.0
  0
LINE
  5
265
100
AcDbEntity
100
AcDbLine
  8
FORT
 62
7
370
-1
  6
CONTINUOUS
 10
206.2459100000000092
 20
235.5094029999999918
 30
0.0
 11
206.2459100000000092
 21
230.5094029999999918
 31
0.0
  0
LINE
  5
266
100
AcDbEntity
100
AcDbLine
  8
FORT
 62
7
370
-1
  6
CONTINUOUS
 10
196.8272990000000107
 20
244.8427360000000022
 30
0.0
 11
206.2459100000000092
 21
244.8427360000000022
 31
0.0
  0
LINE
  5
267
100
AcDbEntity
100
AcDbLine
  8
FORT
 62
7
370
-1
  6
CONTINUOUS
 10
206.2459100000000092
 20
244.8427360000000022
 30
0.0
 11
203.4459099999999978
 21
245.7760700000000043
 31
0.0
  0
LINE
  5
268
100
AcDbEntity
100
AcDbLine
  8
FORT
 62
7
370
-1
  6
CONTINUOUS
 10
220.0
 20
270.0
 30
0.0
 11
230.0
 21
270.0
 31
0.0
  0
LINE
  5
269
100
AcDbEntity
100
AcDbLine
  8
FORT
 62
7
370
-1
  6
CONTINUOUS
 10
180.0
 20
270.0
 30
0.0
 11
190.0
 21
270.0
 31
0.0
  0
MTEXT
  5
26A
100
AcDbEntity
100
AcDbMText
  8
TEXTE
 62
7
370
-1
  6
CONTINUOUS
 10
183.0
 20
272.0
 30
0.0
 40
5.0
 41
100.0
 71
7
 72
2
  1
3
  7
ISO9
 50
0.0
 73
1
 44
1.0
  0
MTEXT
  5
26B
100
AcDbEntity
100
AcDbMText
  8
TEXTE
 62
7
370
-1
  6
CONTINUOUS
 10
223.0
 20
272.0
 30
0.0
 40
5.0
 41
100.0
 71
7
 72
2
  1
4
  7
ISO9
 50
0.0
 73
1
 44
1.0
  0
LINE
  5
26C
100
AcDbEntity
100
AcDbLine
  8
FORT
 62
7
370
-1
  6
CONTINUOUS
 10
260.4446780000000103
 20
111.8492159999999984
 30
0.0
 11
260.4446780000000103
 21
149.7729280000000074
 31
0.0
  0
LINE
  5
26D
100
AcDbEntity
100
AcDbLine
  8
FORT
 62
7
370
-1
  6
CONTINUOUS
 10
281.4446780000000103
 20
110.8757300000000043
 30
0.0
 11
281.4446780000000103
 21
150.9562559999999962
 31
0.0
  0
LINE
  5
26E
100
AcDbEntity
100
AcDbLine
  8
FIN
 62
5
370
-1
  6
CONTINUOUS
 10
351.0002119999999763
 20
154.1090269999999975
 30
0.0
 11
387.9811940000000163
 21
130.0
 31
0.0
  0
LWPOLYLINE
  5
26F
  8
HACHURE
 62
5
370
-1
  6
CONTINUOUS
100
AcDbEntity
100
AcDbPolyline
 90
2
 70
1
 10
278.4446780000000103
 20
162.6181599999999889
 42
0.9999999999999999
 10
262.4446780000000103
 20
162.6181599999999889
 42
0.9999999999999999
  0
INSERT
  5
270
100
AcDbEntity
100
AcDbBlockReference
  8
HACHURE
 62
256
370
-1
  6
ByLayer
  2
DESENS-G11
 10
0.0
 20
0.0
 30
0.0
  0
MTEXT
  5
271
100
AcDbEntity
100
AcDbMText
  8
TEXTE
 62
7
370
-1
  6
CONTINUOUS
 10
267.4193940000000111
 20
43.1000000000000014
 30
0.0
 40
5.0
 41
100.0
 71
7
 72
2
  1
DESIGNATION
  7
ISO9
 50
0.0
 73
1
 44
1.0
  0
ARC
  5
272
100
AcDbEntity
  8
FORT
 62
7
370
-1
  6
CONTINUOUS
100
AcDbCircle
 10
271.4446780000000103
 20
110.8757300000000043
 30
0.0
 40
10.0
100
AcDbArc
 50
345.6645649999999819
 51
0.0
  0
ARC
  5
273
100
AcDbEntity
  8
FORT
 62
7
370
-1
  6
CONTINUOUS
100
AcDbCircle
 10
270.4446780000000103
 20
111.8492159999999984
 30
0.0
 40
10.0
100
AcDbArc
 50
180.0
 51
194.0362430000000131
  0
LINE
  5
274
100
AcDbEntity
100
AcDbLine
  8
FORT
 62
7
370
-1
  6
CONTINUOUS
 10
260.7432529999999815
 20
109.4238600000000048
 30
0.0
 11
262.1872139999999831
 21
103.6480179999999933
 31
0.0
  0
LINE
  5
275
100
AcDbEntity
100
AcDbLine
  8
FORT
 62
7
370
-1
  6
CONTINUOUS
 10
279.9137999999999806
 20
103.6277670000000057
 30
0.0
 11
281.1333060000000046
 21
108.399747000000005
 31
0.0
  0
ARC
  5
276
100
AcDbEntity
  8
FORT
 62
7
370
-1
  6
CONTINUOUS
100
AcDbCircle
 10
266.0677840000000174
 20
104.6181600000000032
 30
0.0
 40
4.0
100
AcDbArc
 50
194.0362430000000131
 51
270.0
  0
LINE
  5
277
100
AcDbEntity
100
AcDbLine
  8
FORT
 62
7
370
-1
  6
CONTINUOUS
 10
266.0677840000000174
 20
100.6181600000000032
 30
0.0
 11
276.0383489999999824
 21
100.6181600000000032
 31
0.0
  0
ARC
  5
278
100
AcDbEntity
  8
FORT
 62
7
370
-1
  6
CONTINUOUS
100
AcDbCircle
 10
276.0383489999999824
 20
104.6181600000000032
 30
0.0
 40
4.0
100
AcDbArc
 50
270.0
 51
345.6645649999999819
  0
LINE
  5
279
100
AcDbEntity
100
AcDbLine
  8
FORT
 62
7
370
-1
  6
CONTINUOUS
 10
397.9811940000000163
 20
130.0
 30
0.0
 11
387.9811940000000163
 21
130.0
 31
0.0
  0
MTEXT
  5
27A
100
AcDbEntity
100
AcDbMText
  8
TEXTE
 62
7
370
-1
  6
CONTINUOUS
 10
389.9811940000000163
 20
132.0
 30
0.0
 40
5.0
 41
100.0
 71
7
 72
2
  1
12
  7
ISO9
 50
0.0
 73
1
 44
1.0
  0
LINE
  5
27B
100
AcDbEntity
100
AcDbLine
  8
FORT
 62
7
370
-1
  6
CONTINUOUS
 10
323.7672670000000039
 20
150.5094029999999918
 30
0.0
 11
373.7672670000000039
 21
150.5094029999999918
 31
0.0
  0
LINE
  5
27C
100
AcDbEntity
100
AcDbLine
  8
FORT
 62
7
370
-1
  6
CONTINUOUS
 10
333.2672670000000039
 20
158.5094029999999918
 30
0.0
 11
364.2672670000000039
 21
158.5094029999999918
 31
0.0
  0
LINE
  5
27D
100
AcDbEntity
100
AcDbLine
  8
FORT
 62
7
370
-1
  6
CONTINUOUS
 10
337.7672670000000039
 20
188.5094029999999918
 30
0.0
 11
359.7672670000000039
 21
188.5094029999999918
 31
0.0
  0
LINE
  5
27E
100
AcDbEntity
100
AcDbLine
  8
FORT
 62
7
370
-1
  6
CONTINUOUS
 10
344.7672670000000039
 20
194.961748
 30
0.0
 11
352.7672670000000039
 21
194.961748
 31
0.0
  0
LINE
  5
27F
100
AcDbEntity
100
AcDbLine
  8
FORT
 62
7
370
-1
  6
CONTINUOUS
 10
339.7672670000000039
 20
226.5094029999999918
 30
0.0
 11
357.7672670000000039
 21
226.5094029999999918
 31
0.0
  0
LINE
  5
280
100
AcDbEntity
100
AcDbLine
  8
FORT
 62
7
370
-1
  6
CONTINUOUS
 10
339.7672670000000039
 20
218.5094029999999918
 30
0.0
 11
357.7672670000000039
 21
218.5094029999999918
 31
0.0
  0
LINE
  5
281
100
AcDbEntity
100
AcDbLine
  8
FORT
 62
7
370
-1
  6
CONTINUOUS
 10
342.7672670000000039
 20
243.5094029999999918
 30
0.0
 11
354.7672670000000039
 21
243.5094029999999918
 31
0.0
  0
LINE
  5
282
100
AcDbEntity
100
AcDbLine
  8
FORT
 62
7
370
-1
  6
CONTINUOUS
 10
343.7986379999999826
 20
246.8094030000000032
 30
0.0
 11
353.7672670000000039
 21
246.8094030000000032
 31
0.0
  0
ARC
  5
283
100
AcDbEntity
  8
FORT
 62
7
370
-1
  6
CONTINUOUS
100
AcDbCircle
 10
348.7672670000000039
 20
244.0094029999999918
 30
0.0
 40
3.5
100
AcDbArc
 50
53.1301020000000008
 51
126.8698980000000063
  0
LINE
  5
284
100
AcDbEntity
100
AcDbLine
  8
FORT
 62
7
370
-1
  6
CONTINUOUS
 10
350.7672670000000039
 20
211.0094029999999918
 30
0.0
 11
348.7672670000000039
 21
204.5094029999999918
 31
0.0
  0
CIRCLE
  5
285
100
AcDbEntity
100
AcDbCircle
  8
FORT
 62
7
370
-1
  6
CONTINUOUS
 10
350.8942739999999958
 20
213.3305290000000127
 30
0.0
 40
0.25
  0
LINE
  5
286
100
AcDbEntity
100
AcDbLine
  8
FORT
 62
7
370
-1
  6
CONTINUOUS
 10
350.7672670000000039
 20
234.0094029999999918
 30
0.0
 11
348.7672670000000039
 21
240.5094029999999918
 31
0.0
  0
LWPOLYLINE
  5
287
  8
HACHURE
 62
5
370
-1
  6
CONTINUOUS
100
AcDbEntity
100
AcDbPolyline
 90
14
 70
1
 10
355.7672670000000039
 20
169.5094029999999918
 10
355.7672670000000039
 20
177.5094029999999918
 42
-0.4142140000360098
 10
359.7672670000000039
 20
181.5094029999999918
 10
359.7672670000000039
 20
187.5094029999999918
 10
358.7672670000000039
 20
188.5094029999999918
 10
338.7672670000000039
 20
188.5094029999999918
 10
337.7672670000000039
 20
187.5094029999999918
 10
337.7672670000000039
 20
181.5094029999999918
 42
-0.4142140000192026
 10
341.7672670000000039
 20
177.5094029997376595
 10
341.7672670000000039
 20
169.5094029999999918
 42
-0.4142140000360097
 10
337.7672670000000039
 20
165.5094029999999918
 10
337.7672670000000039
 20
158.5094029999999918
 10
359.7672670000000039
 20
158.5094029999999918
 10
359.7672670000000039
 20
165.5094029999999918
 42
-0.4142140000360097
  0
INSERT
  5
288
100
AcDbEntity
100
AcDbBlockReference
  8
HACHURE
 62
256
370
-1
  6
ByLayer
  2
DESENS-G12
 10
0.0
 20
0.0
 30
0.0
  0
LWPOLYLINE
  5
289
  8
HACHURE
 62
5
370
-1
  6
CONTINUOUS
100
AcDbEntity
100
AcDbPolyline
 90
40
 70
1
 10
344.7672670000000039
 20
218.5094029999999918
 10
339.7672670000000039
 20
218.5094029999999918
 10
339.7672670000000039
 20
214.5094029999999918
 10
338.7646799999999985
 20
214.5094029999999918
 42
-0.1042730000000009
 10
337.8218560000000252
 20
210.4925269999999955
 10
324.7126769999999851
 20
182.5262789999999882
 42
0.1100249999592739
 10
323.7672669999999471
 20
178.2819400016095983
 10
323.7672670000000039
 20
158.5094029999999918
 10
328.2672670000000039
 20
158.5094029999999918
 10
328.2672670000000039
 20
166.8094030000000032
 10
328.9672669999999925
 20
167.5094029999999918
 10
328.9672669999999925
 20
175.5094029999999918
 10
330.7672670000000039
 20
176.5486329999999953
 10
332.5672670000000153
 20
175.5094029999999918
 10
332.5672670000000153
 20
167.5094029999999918
 10
333.2672670000000039
 20
166.8094030000000032
 10
333.2672670000000039
 20
158.5094029999999918
 10
337.7672670000000039
 20
158.5094029999999918
 10
337.7672670000000039
 20
188.5094029999999918
 10
359.7672670000000039
 20
188.5094029999999918
 10
359.7672670000000039
 20
158.5094029999999918
 10
364.2672670000000039
 20
158.5094029999999918
 10
364.2672670000000039
 20
166.8094030000000032
 10
364.9672669999999925
 20
167.5094029999999918
 10
364.9672669999999925
 20
175.5094029999999918
 10
366.7672670000000039
 20
176.5486329999999953
 10
368.5672670000000153
 20
175.5094029999999918
 10
368.5672670000000153
 20
167.5094029999999918
 10
369.2672670000000039
 20
166.8094030000000032
 10
369.2672670000000039
 20
158.5094029999999918
 10
373.7672670000000039
 20
158.5094029999999918
 10
373.7672670000000039
 20
178.2819399999999916
 42
0.1100249997772065
 10
372.8218559999999684
 20
182.5262789999999598
 10
359.7126769999999851
 20
210.4925269999999955
 42
-0.1042729999999993
 10
358.7698540000000094
 20
214.5094029999999634
 10
357.7672670000000039
 20
214.5094029999999918
 10
357.7672670000000039
 20
218.5094029999999918
 10
352.7672670000000039
 20
218.5094029999999918
 10
352.7672670000000039
 20
194.961748
 10
344.7672670000000039
 20
194.961748
  0
INSERT
  5
28A
100
AcDbEntity
100
AcDbBlockReference
  8
HACHURE
 62
256
370
-1
  6
ByLayer
  2
DESENS-G13
 10
0.0
 20
0.0
 30
0.0
  0
LWPOLYLINE
  5
28B
  8
HACHURE
 62
5
370
-1
  6
CONTINUOUS
100
AcDbEntity
100
AcDbPolyline
 90
7
 70
1
 10
352.7672670000000039
 20
234.0094029999999918
 10
350.7672670000000039
 20
234.0094029999999918
 10
348.7672670000000039
 20
240.5094029999999918
 10
346.7672670000000039
 20
234.0094029999999918
 10
344.7672670000000039
 20
234.0094029999999918
 10
344.7672670000000039
 20
226.5094029999999918
 10
352.7672670000000039
 20
226.5094029999999918
  0
INSERT
  5
28C
100
AcDbEntity
100
AcDbBlockReference
  8
HACHURE
 62
256
370
-1
  6
ByLayer
  2
DESENS-G14
 10
0.0
 20
0.0
 30
0.0
  0
LWPOLYLINE
  5
28D
  8
HACHURE
 62
5
370
-1
  6
CONTINUOUS
100
AcDbEntity
100
AcDbPolyline
 90
7
 70
1
 10
352.7672670000000039
 20
218.5094029999999918
 10
344.7672670000000039
 20
218.5094029999999918
 10
344.7672670000000039
 20
211.0094029999999918
 10
346.7672670000000039
 20
211.0094029999999918
 10
348.7672670000000039
 20
204.5094029999999918
 10
350.7672670000000039
 20
211.0094029999999918
 10
352.7672670000000039
 20
211.0094029999999918
  0
INSERT
  5
28E
100
AcDbEntity
100
AcDbBlockReference
  8
HACHURE
 62
256
370
-1
  6
ByLayer
  2
DESENS-G15
 10
0.0
 20
0.0
 30
0.0
  0
LWPOLYLINE
  5
28F
  8
HACHURE
 62
5
370
-1
  6
CONTINUOUS
100
AcDbEntity
100
AcDbPolyline
 90
8
 70
1
 10
361.2672670000000039
 20
155.5094029999999918
 10
364.2672670000000039
 20
155.5094029999999918
 10
364.2672670000000039
 20
158.5094029999999918
 10
333.2672670000000039
 20
158.5094029999999918
 10
333.2672670000000039
 20
155.5094029999999918
 10
336.2672670000000039
 20
155.5094029999999918
 10
336.2672670000000039
 20
150.5094029999999918
 10
361.2672670000000039
 20
150.5094029999999918
  0
INSERT
  5
290
100
AcDbEntity
100
AcDbBlockReference
  8
HACHURE
 62
256
370
-1
  6
ByLayer
  2
DESENS-G16
 10
0.0
 20
0.0
 30
0.0
  0
MTEXT
  5
291
100
AcDbEntity
100
AcDbMText
  8
TEXTE
 62
7
370
-1
  6
CONTINUOUS
 10
343.7872330000000147
 20
265.2542770000000019
 30
0.0
 40
5.0
 41
100.0
 71
7
 72
2
  1
A-A
  7
ISO9
 50
0.0
 73
1
 44
1.0
  0
ARC
  5
292
100
AcDbEntity
  8
FORT
 62
7
370
-1
  6
CONTINUOUS
100
AcDbCircle
 10
220.934077000000002
 20
222.5094029999999918
 30
0.0
 40
70.0
100
AcDbArc
 50
340.5287789999999859
 51
19.4712209999999999
  0
LINE
  5
293
100
AcDbEntity
100
AcDbLine
  8
FORT
 62
7
370
-1
  6
CONTINUOUS
 10
258.934077000000002
 20
231.5094029999999918
 30
0.0
 11
258.934077000000002
 21
213.5094029999999918
 31
0.0
  0
LINE
  5
294
100
AcDbEntity
100
AcDbLine
  8
FORT
 62
7
370
-1
  6
CONTINUOUS
 10
282.934077000000002
 20
217.2594029999999918
 30
0.0
 11
282.934077000000002
 21
227.7594029999999918
 31
0.0
  0
LINE
  5
295
100
AcDbEntity
100
AcDbLine
  8
FORT
 62
7
370
-1
  6
CONTINUOUS
 10
283.8340769999999793
 20
226.6094029999999862
 30
0.0
 11
283.8340769999999793
 21
218.4094029999999975
 31
0.0
  0
LINE
  5
296
100
AcDbEntity
100
AcDbLine
  8
FORT
 62
7
370
-1
  6
CONTINUOUS
 10
251.934077000000002
 20
228.7544010000000014
 30
0.0
 11
251.934077000000002
 21
216.2644050000000107
 31
0.0
  0
LINE
  5
297
100
AcDbEntity
100
AcDbLine
  8
FORT
 62
7
370
-1
  6
CONTINUOUS
 10
265.9215060000000221
 20
226.7149210000000039
 30
0.0
 11
266.4302809999999795
 21
223.922269
 31
0.0
  0
LINE
  5
298
100
AcDbEntity
100
AcDbLine
  8
FORT
 62
7
370
-1
  6
CONTINUOUS
 10
265.0433150000000069
 20
226.3989770000000021
 30
0.0
 11
266.4302809999999795
 21
223.922269
 31
0.0
  0
LINE
  5
299
100
AcDbEntity
100
AcDbLine
  8
FORT
 62
7
370
-1
  6
CONTINUOUS
 10
336.7672670000000039
 20
226.5094029999999918
 30
0.0
 11
336.7672670000000039
 21
218.5094029999999918
 31
0.0
  0
LINE
  5
29A
100
AcDbEntity
100
AcDbLine
  8
FORT
 62
7
370
-1
  6
CONTINUOUS
 10
335.7672670000000039
 20
225.5094029999999918
 30
0.0
 11
335.7672670000000039
 21
219.5094029999999918
 31
0.0
  0
LINE
  5
29B
100
AcDbEntity
100
AcDbLine
  8
FORT
 62
7
370
-1
  6
CONTINUOUS
 10
339.7672670000000039
 20
230.5094029999999918
 30
0.0
 11
339.7672670000000039
 21
214.5094029999999918
 31
0.0
  0
ARC
  5
29C
100
AcDbEntity
  8
FORT
 62
7
370
-1
  6
CONTINUOUS
100
AcDbCircle
 10
327.2672670000000039
 20
222.5094029999999918
 30
0.0
 40
3.5
100
AcDbArc
 50
92.5690120000000007
 51
267.4309880000000135
  0
LINE
  5
29D
100
AcDbEntity
100
AcDbLine
  8
FORT
 62
7
370
-1
  6
CONTINUOUS
 10
338.7672670000000039
 20
214.736865999999992
 30
0.0
 11
338.7672670000000039
 21
239.5094029999999918
 31
0.0
  0
LINE
  5
29E
100
AcDbEntity
100
AcDbLine
  8
FIN
 62
5
370
-1
  6
CONTINUOUS
 10
251.934077000000002
 20
216.2644050000000107
 30
0.0
 11
258.4142630000000054
 21
227.8269050000000107
 31
0.0
  0
LINE
  5
29F
100
AcDbEntity
100
AcDbLine
  8
FIN
 62
5
370
-1
  6
CONTINUOUS
 10
251.934077000000002
 20
228.7544010000000014
 30
0.0
 11
258.4142630000000054
 21
217.1919010000000014
 31
0.0
  0
LINE
  5
2A0
100
AcDbEntity
100
AcDbLine
  8
FIN
 62
3
370
-1
  6
CONTINUOUS
 10
266.934077000000002
 20
214.8168039999999905
 30
0.0
 11
266.934077000000002
 21
230.2020019999999931
 31
0.0
  0
LINE
  5
2A1
100
AcDbEntity
100
AcDbLine
  8
FIN
 62
5
370
-1
  6
CONTINUOUS
 10
250.0
 20
270.0
 30
0.0
 11
266.4302809999999795
 21
223.922269
 31
0.0
  0
MTEXT
  5
2A2
100
AcDbEntity
100
AcDbMText
  8
TEXTE
 62
7
370
-1
  6
CONTINUOUS
 10
266.0225320000000124
 20
186.5208450000000084
 30
0.0
 40
5.0
 41
100.0
 71
7
 72
2
  1
D-D
  7
ISO9
 50
0.0
 73
1
 44
1.0
  0
ARC
  5
2A3
100
AcDbEntity
  8
FORT
 62
7
370
-1
  6
CONTINUOUS
100
AcDbCircle
 10
270.4446780000000103
 20
162.6181599999999889
 30
0.0
 40
15.0
100
AcDbArc
 50
322.136353999999983
 51
222.5368980000000079
  0
ARC
  5
2A4
100
AcDbEntity
  8
FORT
 62
7
370
-1
  6
CONTINUOUS
100
AcDbCircle
 10
285.4446780000000103
 20
150.9562559999999962
 30
0.0
 40
4.0
100
AcDbArc
 50
142.1363540000000114
 51
180.0
  0
ARC
  5
2A5
100
AcDbEntity
  8
FORT
 62
7
370
-1
  6
CONTINUOUS
100
AcDbCircle
 10
256.4446780000000103
 20
149.7729280000000074
 30
0.0
 40
4.0
100
AcDbArc
 50
0.0
 51
42.5368980000000008
  0
CIRCLE
  5
2A6
100
AcDbEntity
100
AcDbCircle
  8
FORT
 62
7
370
-1
  6
CONTINUOUS
 10
270.4446780000000103
 20
162.6181599999999889
 30
0.0
 40
8.0
  0
LWPOLYLINE
  5
2A7
  8
HACHURE
 62
5
370
-1
  6
CONTINUOUS
100
AcDbEntity
100
AcDbPolyline
 90
2
 70
1
 10
278.4446780000000103
 20
162.6181599999999889
 42
0.9999999999999999
 10
262.4446780000000103
 20
162.6181599999999889
 42
0.9999999999999999
  0
INSERT
  5
2A8
100
AcDbEntity
100
AcDbBlockReference
  8
HACHURE
 62
256
370
-1
  6
ByLayer
  2
DESENS-G17
 10
0.0
 20
0.0
 30
0.0
  0
ARC
  5
2A9
100
AcDbEntity
  8
FIN
 62
5
370
-1
  6
CONTINUOUS
100
AcDbCircle
 10
270.4446780000000103
 20
162.6181599999999889
 30
0.0
 40
6.7999999999999998
100
AcDbArc
 50
0.0
 51
270.0
  0
LINE
  5
2AA
100
AcDbEntity
100
AcDbLine
  8
FORT
 62
7
370
-1
  6
CONTINUOUS
 10
233.7674110000000098
 20
207.5109860000000026
 30
0.0
 11
233.7674110000000098
 21
198.0923750000000041
 31
0.0
  0
LINE
  5
2AB
100
AcDbEntity
100
AcDbLine
  8
FORT
 62
7
370
-1
  6
CONTINUOUS
 10
233.7674110000000098
 20
198.0923750000000041
 30
0.0
 11
232.8340770000000077
 21
200.892374999999987
 31
0.0
  0
LINE
  5
2AC
100
AcDbEntity
100
AcDbLine
  8
FORT
 62
7
370
-1
  6
CONTINUOUS
 10
233.7674110000000098
 20
198.0923750000000041
 30
0.0
 11
234.700743999999986
 21
200.892374999999987
 31
0.0
  0
MTEXT
  5
2AD
100
AcDbEntity
100
AcDbMText
  8
TEXTE
 62
7
370
-1
  6
CONTINUOUS
 10
244.0321629999999971
 20
195.6550180000000125
 30
0.0
 40
5.0
 41
100.0
 71
9
 72
2
  1
C
  7
ISO9
 50
0.0
 73
1
 44
1.0
  0
ARC
  5
2AE
100
AcDbEntity
  8
FORT
 62
7
370
-1
  6
CONTINUOUS
100
AcDbCircle
 10
282.5128770000000031
 20
200.0094029999999918
 30
0.0
 40
2.5
100
AcDbArc
 50
185.9116799999999898
 51
270.0
  0
ARC
  5
2AF
100
AcDbEntity
  8
FORT
 62
7
370
-1
  6
CONTINUOUS
100
AcDbCircle
 10
284.5736880000000042
 20
200.0094029999999918
 30
0.0
 40
2.5
100
AcDbArc
 50
270.0
 51
340.5287789999999859
  0
LINE
  5
2B0
100
AcDbEntity
100
AcDbLine
  8
FORT
 62
7
370
-1
  6
CONTINUOUS
 10
282.5128770000000031
 20
197.5094029999999918
 30
0.0
 11
284.5736880000000042
 21
197.5094029999999918
 31
0.0
  0
LINE
  5
2B1
100
AcDbEntity
100
AcDbLine
  8
FORT
 62
7
370
-1
  6
CONTINUOUS
 10
258.934077000000002
 20
213.5094029999999918
 30
0.0
 11
277.0410810000000197
 21
210.602751000000012
 31
0.0
  0
ARC
  5
2B2
100
AcDbEntity
  8
FORT
 62
7
370
-1
  6
CONTINUOUS
100
AcDbCircle
 10
276.6448379999999929
 20
208.1343530000000044
 30
0.0
 40
2.5
100
AcDbArc
 50
5.9116799999999996
 51
80.8803199999999975
  0
LINE
  5
2B3
100
AcDbEntity
100
AcDbLine
  8
FORT
 62
7
370
-1
  6
CONTINUOUS
 10
279.1315430000000219
 20
208.3918409999999994
 30
0.0
 11
280.0261729999999716
 21
199.7519149999999968
 31
0.0
  0
LINE
  5
2B4
100
AcDbEntity
100
AcDbLine
  8
FORT
 62
7
370
-1
  6
CONTINUOUS
 10
282.934077000000002
 20
217.2594029999999918
 30
0.0
 11
290.7369249999999852
 21
217.2594029999999918
 31
0.0
  0
CIRCLE
  5
2B5
100
AcDbEntity
100
AcDbCircle
  8
FORT
 62
7
370
-1
  6
CONTINUOUS
 10
266.934077000000002
 20
222.5094029999999918
 30
0.0
 40
1.5
  0
LINE
  5
2B6
100
AcDbEntity
100
AcDbLine
  8
FORT
 62
7
370
-1
  6
CONTINUOUS
 10
266.3272049999999922
 20
221.1376500000000078
 30
0.0
 11
266.6104119999999966
 21
221.7778010000000108
 31
0.0
  0
LINE
  5
2B7
100
AcDbEntity
100
AcDbLine
  8
FORT
 62
7
370
-1
  6
CONTINUOUS
 10
267.2577420000000075
 20
221.7778010000000108
 30
0.0
 11
267.5409490000000119
 21
221.1376500000000078
 31
0.0
  0
ARC
  5
2B8
100
AcDbEntity
  8
FORT
 62
7
370
-1
  6
CONTINUOUS
100
AcDbCircle
 10
266.934077000000002
 20
222.5094029999999918
 30
0.0
 40
0.8
100
AcDbArc
 50
293.8649030000000266
 51
246.1350969999999734
  0
LINE
  5
2B9
100
AcDbEntity
100
AcDbLine
  8
FORT
 62
7
370
-1
  6
CONTINUOUS
 10
258.934077000000002
 20
217.5094029999999918
 30
0.0
 11
282.934077000000002
 21
217.5094029999999918
 31
0.0
  0
LINE
  5
2BA
100
AcDbEntity
100
AcDbLine
  8
FORT
 62
7
370
-1
  6
CONTINUOUS
 10
282.934077000000002
 20
217.5094029999999918
 30
0.0
 11
283.8340769999999793
 21
218.4094029999999975
 31
0.0
  0
LINE
  5
2BB
100
AcDbEntity
100
AcDbLine
  8
FORT
 62
7
370
-1
  6
CONTINUOUS
 10
258.934077000000002
 20
215.7094030000000089
 30
0.0
 11
257.7340770000000134
 21
214.5094029999999918
 31
0.0
  0
LINE
  5
2BC
100
AcDbEntity
100
AcDbLine
  8
FORT
 62
7
370
-1
  6
CONTINUOUS
 10
257.7340770000000134
 20
214.5094029999999918
 30
0.0
 11
257.7340770000000134
 21
216.2644050000000107
 31
0.0
  0
LINE
  5
2BD
100
AcDbEntity
100
AcDbLine
  8
FORT
 62
7
370
-1
  6
CONTINUOUS
 10
251.934077000000002
 20
216.2644050000000107
 30
0.0
 11
257.7340770000000134
 21
216.2644050000000107
 31
0.0
  0
LINE
  5
2BE
100
AcDbEntity
100
AcDbLine
  8
FORT
 62
7
370
-1
  6
CONTINUOUS
 10
257.7340770000000134
 20
216.2644050000000107
 30
0.0
 11
258.934077000000002
 21
217.9007159999999885
 31
0.0
  0
LWPOLYLINE
  5
2BF
  8
HACHURE
 62
5
370
-1
  6
CONTINUOUS
100
AcDbEntity
100
AcDbPolyline
 90
11
 70
1
 10
290.7369249999999852
 20
217.2594029999999918
 10
282.934077000000002
 20
217.2594029999999918
 10
282.934077000000002
 20
217.5094029999999918
 10
258.934077000000002
 20
217.5094029999999918
 10
258.934077000000002
 20
213.5094029999999918
 10
277.0410810000000197
 20
210.602751000000012
 42
-0.3393020000000001
 10
279.1315430000000219
 20
208.3918409999999994
 10
280.0261729999999716
 20
199.7519149999999968
 42
0.3843060000000045
 10
282.5128770000000031
 20
197.5094029999999634
 10
284.5736880000000042
 20
197.5094029999999918
 42
0.3178370000000025
 10
286.9307099999999764
 20
199.1760700000000099
 42
0.0662880000000001
  0
INSERT
  5
2C0
100
AcDbEntity
100
AcDbBlockReference
  8
HACHURE
 62
256
370
-1
  6
ByLayer
  2
DESENS-G18
 10
0.0
 20
0.0
 30
0.0
  0
LINE
  5
2C1
100
AcDbEntity
100
AcDbLine
  8
FIN
 62
5
370
-1
  6
CONTINUOUS
 10
258.934077000000002
 20
218.4094029999999975
 30
0.0
 11
283.8340769999999793
 21
218.4094029999999975
 31
0.0
  0
LINE
  5
2C2
100
AcDbEntity
100
AcDbLine
  8
FORT
 62
7
370
-1
  6
CONTINUOUS
 10
337.7672670000000039
 20
188.5094029999999918
 30
0.0
 11
337.7672670000000039
 21
158.5094029999999918
 31
0.0
  0
LINE
  5
2C3
100
AcDbEntity
100
AcDbLine
  8
FORT
 62
7
370
-1
  6
CONTINUOUS
 10
324.7126769999999851
 20
182.5262789999999882
 30
0.0
 11
337.8218560000000252
 21
210.4925269999999955
 31
0.0
  0
LINE
  5
2C4
100
AcDbEntity
100
AcDbLine
  8
FORT
 62
7
370
-1
  6
CONTINUOUS
 10
328.2672670000000039
 20
155.5094029999999918
 30
0.0
 11
328.2672670000000039
 21
166.8094030000000032
 31
0.0
  0
LINE
  5
2C5
100
AcDbEntity
100
AcDbLine
  8
FORT
 62
7
370
-1
  6
CONTINUOUS
 10
333.2672670000000039
 20
155.5094029999999918
 30
0.0
 11
333.2672670000000039
 21
166.8094030000000032
 31
0.0
  0
LINE
  5
2C6
100
AcDbEntity
100
AcDbLine
  8
FORT
 62
7
370
-1
  6
CONTINUOUS
 10
323.7672670000000039
 20
150.5094029999999918
 30
0.0
 11
323.7672670000000039
 21
178.2819399999999916
 31
0.0
  0
LINE
  5
2C7
100
AcDbEntity
100
AcDbLine
  8
FORT
 62
7
370
-1
  6
CONTINUOUS
 10
326.5172670000000039
 20
151.5094029999999918
 30
0.0
 11
326.5172670000000039
 21
155.5094029999999918
 31
0.0
  0
LINE
  5
2C8
100
AcDbEntity
100
AcDbLine
  8
FORT
 62
7
370
-1
  6
CONTINUOUS
 10
335.0172670000000039
 20
151.5094029999999918
 30
0.0
 11
335.0172670000000039
 21
155.5094029999999918
 31
0.0
  0
ARC
  5
2C9
100
AcDbEntity
  8
FORT
 62
7
370
-1
  6
CONTINUOUS
100
AcDbCircle
 10
327.5172670000000039
 20
151.5094029999999918
 30
0.0
 40
1.0
100
AcDbArc
 50
180.0
 51
270.0
  0
ARC
  5
2CA
100
AcDbEntity
  8
FORT
 62
7
370
-1
  6
CONTINUOUS
100
AcDbCircle
 10
334.0172670000000039
 20
151.5094029999999918
 30
0.0
 40
1.0
100
AcDbArc
 50
270.0
 51
0.0
  0
LINE
  5
2CB
100
AcDbEntity
100
AcDbLine
  8
FORT
 62
7
370
-1
  6
CONTINUOUS
 10
323.7672670000000039
 20
158.5094029999999918
 30
0.0
 11
328.2672670000000039
 21
158.5094029999999918
 31
0.0
  0
ARC
  5
2CC
100
AcDbEntity
  8
FORT
 62
7
370
-1
  6
CONTINUOUS
100
AcDbCircle
 10
337.7672670000000039
 20
169.5094029999999918
 30
0.0
 40
4.0
100
AcDbArc
 50
270.0
 51
0.0
  0
ARC
  5
2CD
100
AcDbEntity
  8
FORT
 62
7
370
-1
  6
CONTINUOUS
100
AcDbCircle
 10
337.7672670000000039
 20
177.5094029999999918
 30
0.0
 40
4.0
100
AcDbArc
 50
0.0
 51
90.0
  0
LINE
  5
2CE
100
AcDbEntity
100
AcDbLine
  8
FORT
 62
7
370
-1
  6
CONTINUOUS
 10
341.7672670000000039
 20
169.5094029999999918
 30
0.0
 11
341.7672670000000039
 21
177.5094029999999918
 31
0.0
  0
ARC
  5
2CF
100
AcDbEntity
  8
FORT
 62
7
370
-1
  6
CONTINUOUS
100
AcDbCircle
 10
333.7672670000000039
 20
178.2819399999999916
 30
0.0
 40
10.0
100
AcDbArc
 50
154.8851650000000006
 51
180.0
  0
LINE
  5
2D0
100
AcDbEntity
100
AcDbLine
  8
FORT
 62
7
370
-1
  6
CONTINUOUS
 10
325.2672670000000039
 20
150.5094029999999918
 30
0.0
 11
325.2672670000000039
 21
155.5094029999999918
 31
0.0
  0
LINE
  5
2D1
100
AcDbEntity
100
AcDbLine
  8
FORT
 62
7
370
-1
  6
CONTINUOUS
 10
336.2672670000000039
 20
150.5094029999999918
 30
0.0
 11
336.2672670000000039
 21
155.5094029999999918
 31
0.0
  0
LINE
  5
2D2
100
AcDbEntity
100
AcDbLine
  8
FORT
 62
7
370
-1
  6
CONTINUOUS
 10
328.9672669999999925
 20
175.5094029999999918
 30
0.0
 11
330.7672670000000039
 21
176.5486329999999953
 31
0.0
  0
LINE
  5
2D3
100
AcDbEntity
100
AcDbLine
  8
FORT
 62
7
370
-1
  6
CONTINUOUS
 10
332.5672670000000153
 20
175.5094029999999918
 30
0.0
 11
330.7672670000000039
 21
176.5486329999999953
 31
0.0
  0
LINE
  5
2D4
100
AcDbEntity
100
AcDbLine
  8
FORT
 62
7
370
-1
  6
CONTINUOUS
 10
328.9672669999999925
 20
167.5094029999999918
 30
0.0
 11
328.2672670000000039
 21
166.8094030000000032
 31
0.0
  0
LINE
  5
2D5
100
AcDbEntity
100
AcDbLine
  8
FORT
 62
7
370
-1
  6
CONTINUOUS
 10
332.5672670000000153
 20
167.5094029999999918
 30
0.0
 11
333.2672670000000039
 21
166.8094030000000032
 31
0.0
  0
LINE
  5
2D6
100
AcDbEntity
100
AcDbLine
  8
FORT
 62
7
370
-1
  6
CONTINUOUS
 10
328.9672669999999925
 20
167.5094029999999918
 30
0.0
 11
328.9672669999999925
 21
175.5094029999999918
 31
0.0
  0
LINE
  5
2D7
100
AcDbEntity
100
AcDbLine
  8
FORT
 62
7
370
-1
  6
CONTINUOUS
 10
332.5672670000000153
 20
167.5094029999999918
 30
0.0
 11
332.5672670000000153
 21
175.5094029999999918
 31
0.0
  0
LINE
  5
2D8
100
AcDbEntity
100
AcDbLine
  8
FORT
 62
7
370
-1
  6
CONTINUOUS
 10
328.9672669999999925
 20
167.5094029999999918
 30
0.0
 11
332.5672670000000153
 21
167.5094029999999918
 31
0.0
  0
LINE
  5
2D9
100
AcDbEntity
100
AcDbLine
  8
FORT
 62
7
370
-1
  6
CONTINUOUS
 10
328.2672670000000039
 20
166.8094030000000032
 30
0.0
 11
333.2672670000000039
 21
166.8094030000000032
 31
0.0
  0
LINE
  5
2DA
100
AcDbEntity
100
AcDbLine
  8
FORT
 62
7
370
-1
  6
CONTINUOUS
 10
328.2672670000000039
 20
171.3094030000000032
 30
0.0
 11
333.2672670000000039
 21
171.3094030000000032
 31
0.0
  0
LINE
  5
2DB
100
AcDbEntity
100
AcDbLine
  8
FORT
 62
7
370
-1
  6
CONTINUOUS
 10
328.9672669999999925
 20
175.5094029999999918
 30
0.0
 11
332.5672670000000153
 21
175.5094029999999918
 31
0.0
  0
LINE
  5
2DC
100
AcDbEntity
100
AcDbLine
  8
FORT
 62
7
370
-1
  6
CONTINUOUS
 10
325.2672670000000039
 20
155.5094029999999918
 30
0.0
 11
336.2672670000000039
 21
155.5094029999999918
 31
0.0
  0
LWPOLYLINE
  5
2DD
  8
HACHURE
 62
5
370
-1
  6
CONTINUOUS
100
AcDbEntity
100
AcDbPolyline
 90
6
 70
1
 10
328.2672670000000039
 20
158.5094029999999918
 10
323.7672670000000039
 20
158.5094029999999918
 10
323.7672670000000039
 20
150.5094029999999918
 10
325.2672670000000039
 20
150.5094029999999918
 10
325.2672670000000039
 20
155.5094029999999918
 10
328.2672670000000039
 20
155.5094029999999918
  0
INSERT
  5
2DE
100
AcDbEntity
100
AcDbBlockReference
  8
HACHURE
 62
256
370
-1
  6
ByLayer
  2
DESENS-G19
 10
0.0
 20
0.0
 30
0.0
  0
LINE
  5
2DF
100
AcDbEntity
100
AcDbLine
  8
FIN
 62
5
370
-1
  6
CONTINUOUS
 10
328.9672669999999925
 20
155.5094029999999918
 30
0.0
 11
328.9672669999999925
 21
167.5094029999999918
 31
0.0
  0
LINE
  5
2E0
100
AcDbEntity
100
AcDbLine
  8
FIN
 62
5
370
-1
  6
CONTINUOUS
 10
332.5672670000000153
 20
155.5094029999999918
 30
0.0
 11
332.5672670000000153
 21
167.5094029999999918
 31
0.0
  0
LINE
  5
2E1
100
AcDbEntity
100
AcDbLine
  8
FIN
 62
5
370
-1
  6
CONTINUOUS
 10
328.2672670000000039
 20
166.8094030000000032
 30
0.0
 11
328.2672670000000039
 21
171.3094030000000032
 31
0.0
  0
LINE
  5
2E2
100
AcDbEntity
100
AcDbLine
  8
FIN
 62
5
370
-1
  6
CONTINUOUS
 10
333.2672670000000039
 20
166.8094030000000032
 30
0.0
 11
333.2672670000000039
 21
171.3094030000000032
 31
0.0
  0
LINE
  5
2E3
100
AcDbEntity
100
AcDbLine
  8
FORT
 62
7
370
-1
  6
CONTINUOUS
 10
346.7672670000000039
 20
211.0094029999999918
 30
0.0
 11
348.7672670000000039
 21
204.5094029999999918
 31
0.0
  0
LINE
  5
2E4
100
AcDbEntity
100
AcDbLine
  8
FORT
 62
7
370
-1
  6
CONTINUOUS
 10
344.7672670000000039
 20
218.5094029999999918
 30
0.0
 11
344.7672670000000039
 21
194.961748
 31
0.0
  0
LINE
  5
2E5
100
AcDbEntity
100
AcDbLine
  8
FORT
 62
7
370
-1
  6
CONTINUOUS
 10
337.7672670000000039
 20
187.5094029999999918
 30
0.0
 11
338.7672670000000039
 21
188.5094029999999918
 31
0.0
  0
LINE
  5
2E6
100
AcDbEntity
100
AcDbLine
  8
FORT
 62
7
370
-1
  6
CONTINUOUS
 10
338.7672670000000039
 20
219.0094029999999918
 30
0.0
 11
339.7672670000000039
 21
219.0094029999999918
 31
0.0
  0
LINE
  5
2E7
100
AcDbEntity
100
AcDbLine
  8
FORT
 62
7
370
-1
  6
CONTINUOUS
 10
336.7672670000000039
 20
218.5094029999999918
 30
0.0
 11
338.7672670000000039
 21
218.5094029999999918
 31
0.0
  0
LINE
  5
2E8
100
AcDbEntity
100
AcDbLine
  8
FORT
 62
7
370
-1
  6
CONTINUOUS
 10
335.7672670000000039
 20
219.5094029999999918
 30
0.0
 11
336.7672670000000039
 21
218.5094029999999918
 31
0.0
  0
LINE
  5
2E9
100
AcDbEntity
100
AcDbLine
  8
FORT
 62
7
370
-1
  6
CONTINUOUS
 10
338.7672670000000039
 20
217.0094029999999918
 30
0.0
 11
339.7672670000000039
 21
217.0094029999999918
 31
0.0
  0
LINE
  5
2EA
100
AcDbEntity
100
AcDbLine
  8
FORT
 62
7
370
-1
  6
CONTINUOUS
 10
338.7646799999999985
 20
214.5094029999999918
 30
0.0
 11
339.7672670000000039
 21
214.5094029999999918
 31
0.0
  0
LINE
  5
2EB
100
AcDbEntity
100
AcDbLine
  8
FORT
 62
7
370
-1
  6
CONTINUOUS
 10
344.7672670000000039
 20
211.0094029999999918
 30
0.0
 11
346.7672670000000039
 21
211.0094029999999918
 31
0.0
  0
ARC
  5
2EC
100
AcDbEntity
  8
FORT
 62
7
370
-1
  6
CONTINUOUS
100
AcDbCircle
 10
324.5494840000000067
 20
198.9298970000000111
 30
0.0
 40
20.2456430000000012
100
AcDbArc
 50
45.7323090000000008
 51
82.7330999999999932
  0
ARC
  5
2ED
100
AcDbEntity
  8
FORT
 62
7
370
-1
  6
CONTINUOUS
100
AcDbCircle
 10
328.7672670000000039
 20
214.736865999999992
 30
0.0
 40
10.0
100
AcDbArc
 50
334.8851649999999722
 51
0.0
  0
LINE
  5
2EE
100
AcDbEntity
100
AcDbLine
  8
FIN
 62
5
370
-1
  6
CONTINUOUS
 10
270.0
 20
270.0
 30
0.0
 11
283.6159289999999942
 21
243.7772950000000094
 31
0.0
  0
LINE
  5
2EF
100
AcDbEntity
100
AcDbLine
  8
FORT
 62
7
370
-1
  6
CONTINUOUS
 10
279.1315430000000219
 20
236.6269650000000127
 30
0.0
 11
280.0261729999999716
 21
245.2668909999999869
 31
0.0
  0
LINE
  5
2F0
100
AcDbEntity
100
AcDbLine
  8
FORT
 62
7
370
-1
  6
CONTINUOUS
 10
282.934077000000002
 20
227.7594029999999918
 30
0.0
 11
290.7369249999999852
 21
227.7594029999999918
 31
0.0
  0
LINE
  5
2F1
100
AcDbEntity
100
AcDbLine
  8
FORT
 62
7
370
-1
  6
CONTINUOUS
 10
258.934077000000002
 20
227.5094029999999918
 30
0.0
 11
282.934077000000002
 21
227.5094029999999918
 31
0.0
  0
LINE
  5
2F2
100
AcDbEntity
100
AcDbLine
  8
FORT
 62
7
370
-1
  6
CONTINUOUS
 10
282.934077000000002
 20
227.5094029999999918
 30
0.0
 11
283.8340769999999793
 21
226.6094029999999862
 31
0.0
  0
LINE
  5
2F3
100
AcDbEntity
100
AcDbLine
  8
FORT
 62
7
370
-1
  6
CONTINUOUS
 10
257.7340770000000134
 20
230.5094029999999918
 30
0.0
 11
258.934077000000002
 21
229.3094030000000032
 31
0.0
  0
LINE
  5
2F4
100
AcDbEntity
100
AcDbLine
  8
FORT
 62
7
370
-1
  6
CONTINUOUS
 10
257.7340770000000134
 20
228.7544010000000014
 30
0.0
 11
257.7340770000000134
 21
230.5094029999999918
 31
0.0
  0
LINE
  5
2F5
100
AcDbEntity
100
AcDbLine
  8
FORT
 62
7
370
-1
  6
CONTINUOUS
 10
251.934077000000002
 20
228.7544010000000014
 30
0.0
 11
257.7340770000000134
 21
228.7544010000000014
 31
0.0
  0
LINE
  5
2F6
100
AcDbEntity
100
AcDbLine
  8
FORT
 62
7
370
-1
  6
CONTINUOUS
 10
257.7340770000000134
 20
228.7544010000000014
 30
0.0
 11
258.934077000000002
 21
227.1180899999999951
 31
0.0
  0
LINE
  5
2F7
100
AcDbEntity
100
AcDbLine
  8
FORT
 62
7
370
-1
  6
CONTINUOUS
 10
258.934077000000002
 20
231.5094029999999918
 30
0.0
 11
277.0410810000000197
 21
234.4160550000000001
 31
0.0
  0
ARC
  5
2F8
100
AcDbEntity
  8
FORT
 62
7
370
-1
  6
CONTINUOUS
100
AcDbCircle
 10
276.6448379999999929
 20
236.8844530000000077
 30
0.0
 40
2.5
100
AcDbArc
 50
279.1196800000000167
 51
354.0883200000000102
  0
ARC
  5
2F9
100
AcDbEntity
  8
FORT
 62
7
370
-1
  6
CONTINUOUS
100
AcDbCircle
 10
284.5736880000000042
 20
245.0094029999999918
 30
0.0
 40
2.5
100
AcDbArc
 50
19.4712209999999999
 51
90.0
  0
LINE
  5
2FA
100
AcDbEntity
100
AcDbLine
  8
FORT
 62
7
370
-1
  6
CONTINUOUS
 10
282.5128770000000031
 20
247.5094029999999918
 30
0.0
 11
284.5736880000000042
 21
247.5094029999999918
 31
0.0
  0
ARC
  5
2FB
100
AcDbEntity
  8
FORT
 62
7
370
-1
  6
CONTINUOUS
100
AcDbCircle
 10
282.5128770000000031
 20
245.0094029999999918
 30
0.0
 40
2.5
100
AcDbArc
 50
90.0
 51
174.0883200000000102
  0
CIRCLE
  5
2FC
100
AcDbEntity
100
AcDbCircle
  8
FORT
 62
7
370
-1
  6
CONTINUOUS
 10
283.6159289999999942
 20
243.7772950000000094
 30
0.0
 40
0.25
  0
CIRCLE
  5
2FD
100
AcDbEntity
100
AcDbCircle
  8
FORT
 62
7
370
-1
  6
CONTINUOUS
 10
233.8196649999999863
 20
226.3189419999999927
 30
0.0
 40
0.25
  0
LWPOLYLINE
  5
2FE
  8
HACHURE
 62
5
370
-1
  6
CONTINUOUS
100
AcDbEntity
100
AcDbPolyline
 90
11
 70
1
 10
286.9307100000000332
 20
245.8427360000000306
 42
0.317837000000003
 10
284.5736880000000042
 20
247.5094029999999918
 10
282.5128770000000031
 20
247.5094029999999918
 42
0.3843060000000044
 10
280.0261729999999716
 20
245.2668909999999869
 10
279.1315430000000219
 20
236.6269650000000127
 42
-0.3393020000000001
 10
277.0410810000000197
 20
234.4160550000000001
 10
258.934077000000002
 20
231.5094029999999918
 10
258.934077000000002
 20
227.5094029999999918
 10
282.934077000000002
 20
227.5094029999999918
 10
282.934077000000002
 20
227.7594029999999918
 10
290.7369249999999852
 20
227.7594029999999918
 42
0.066288
  0
INSERT
  5
2FF
100
AcDbEntity
100
AcDbBlockReference
  8
HACHURE
 62
256
370
-1
  6
ByLayer
  2
DESENS-G20
 10
0.0
 20
0.0
 30
0.0
  0
LINE
  5
300
100
AcDbEntity
100
AcDbLine
  8
FIN
 62
5
370
-1
  6
CONTINUOUS
 10
258.934077000000002
 20
226.6094029999999862
 30
0.0
 11
283.8340769999999793
 21
226.6094029999999862
 31
0.0
  0
LINE
  5
301
100
AcDbEntity
100
AcDbLine
  8
FORT
 62
7
370
-1
  6
CONTINUOUS
 10
240.0
 20
270.0
 30
0.0
 11
250.0
 21
270.0
 31
0.0
  0
LINE
  5
302
100
AcDbEntity
100
AcDbLine
  8
FORT
 62
7
370
-1
  6
CONTINUOUS
 10
260.0
 20
270.0
 30
0.0
 11
270.0
 21
270.0
 31
0.0
  0
MTEXT
  5
303
100
AcDbEntity
100
AcDbMText
  8
TEXTE
 62
7
370
-1
  6
CONTINUOUS
 10
243.0
 20
272.0
 30
0.0
 40
5.0
 41
100.0
 71
7
 72
2
  1
5
  7
ISO9
 50
0.0
 73
1
 44
1.0
  0
MTEXT
  5
304
100
AcDbEntity
100
AcDbMText
  8
TEXTE
 62
7
370
-1
  6
CONTINUOUS
 10
263.0
 20
272.0
 30
0.0
 40
5.0
 41
100.0
 71
7
 72
2
  1
6
  7
ISO9
 50
0.0
 73
1
 44
1.0
  0
LINE
  5
305
100
AcDbEntity
100
AcDbLine
  8
FIN
 62
5
370
-1
  6
CONTINUOUS
 10
310.0
 20
270.0
 30
0.0
 11
338.7672670000000039
 21
226.9280269999999859
 31
0.0
  0
LINE
  5
306
100
AcDbEntity
100
AcDbLine
  8
FORT
 62
7
370
-1
  6
CONTINUOUS
 10
346.7672670000000039
 20
234.0094029999999918
 30
0.0
 11
348.7672670000000039
 21
240.5094029999999918
 31
0.0
  0
LINE
  5
307
100
AcDbEntity
100
AcDbLine
  8
FORT
 62
7
370
-1
  6
CONTINUOUS
 10
344.7672670000000039
 20
226.5094029999999918
 30
0.0
 11
344.7672670000000039
 21
243.5094029999999918
 31
0.0
  0
ARC
  5
308
100
AcDbEntity
  8
FORT
 62
7
370
-1
  6
CONTINUOUS
100
AcDbCircle
 10
342.7672670000000039
 20
239.5094029999999918
 30
0.0
 40
4.0
100
AcDbArc
 50
90.0
 51
180.0
  0
LINE
  5
309
100
AcDbEntity
100
AcDbLine
  8
FORT
 62
7
370
-1
  6
CONTINUOUS
 10
338.7672670000000039
 20
226.0094029999999918
 30
0.0
 11
339.7672670000000039
 21
226.0094029999999918
 31
0.0
  0
LINE
  5
30A
100
AcDbEntity
100
AcDbLine
  8
FORT
 62
7
370
-1
  6
CONTINUOUS
 10
336.7672670000000039
 20
226.5094029999999918
 30
0.0
 11
338.7672670000000039
 21
226.5094029999999918
 31
0.0
  0
LINE
  5
30B
100
AcDbEntity
100
AcDbLine
  8
FORT
 62
7
370
-1
  6
CONTINUOUS
 10
335.7672670000000039
 20
225.5094029999999918
 30
0.0
 11
336.7672670000000039
 21
226.5094029999999918
 31
0.0
  0
LINE
  5
30C
100
AcDbEntity
100
AcDbLine
  8
FORT
 62
7
370
-1
  6
CONTINUOUS
 10
338.7672670000000039
 20
230.5094029999999918
 30
0.0
 11
339.7672670000000039
 21
230.5094029999999918
 31
0.0
  0
LINE
  5
30D
100
AcDbEntity
100
AcDbLine
  8
FORT
 62
7
370
-1
  6
CONTINUOUS
 10
338.7672670000000039
 20
228.0094029999999918
 30
0.0
 11
339.7672670000000039
 21
228.0094029999999918
 31
0.0
  0
LINE
  5
30E
100
AcDbEntity
100
AcDbLine
  8
FORT
 62
7
370
-1
  6
CONTINUOUS
 10
344.7672670000000039
 20
234.0094029999999918
 30
0.0
 11
346.7672670000000039
 21
234.0094029999999918
 31
0.0
  0
LINE
  5
30F
100
AcDbEntity
100
AcDbLine
  8
FORT
 62
7
370
-1
  6
CONTINUOUS
 10
343.7986379999999826
 20
243.5094029999999918
 30
0.0
 11
343.7986379999999826
 21
246.8094030000000032
 31
0.0
  0
ARC
  5
310
100
AcDbEntity
  8
FORT
 62
7
370
-1
  6
CONTINUOUS
100
AcDbCircle
 10
324.5494840000000067
 20
246.088909000000001
 30
0.0
 40
20.2456430000000012
100
AcDbArc
 50
277.266900000000021
 51
314.6089129999999727
  0
LINE
  5
311
100
AcDbEntity
100
AcDbLine
  8
FORT
 62
7
370
-1
  6
CONTINUOUS
 10
336.8129670000000147
 20
228.9867820000000052
 30
0.0
 11
338.7672670000000039
 21
226.9280269999999859
 31
0.0
  0
LINE
  5
312
100
AcDbEntity
100
AcDbLine
  8
FORT
 62
7
370
-1
  6
CONTINUOUS
 10
337.5862750000000005
 20
229.5093090000000018
 30
0.0
 11
338.7672670000000039
 21
226.9280269999999859
 31
0.0
  0
LWPOLYLINE
  5
313
  8
HACHURE
 62
5
370
-1
  6
CONTINUOUS
100
AcDbEntity
100
AcDbPolyline
 90
7
 70
1
 10
344.7672670000000039
 20
243.5094029999999918
 10
342.7672670000000039
 20
243.5094029999999918
 42
0.4142140000192026
 10
338.7672670000000039
 20
239.5094029997376595
 10
338.7672670000000039
 20
230.5094029999999918
 10
339.7672670000000039
 20
230.5094029999999918
 10
339.7672670000000039
 20
226.5094029999999918
 10
344.7672670000000039
 20
226.5094029999999918
  0
INSERT
  5
314
100
AcDbEntity
100
AcDbBlockReference
  8
HACHURE
 62
256
370
-1
  6
ByLayer
  2
DESENS-G21
 10
0.0
 20
0.0
 30
0.0
  0
LWPOLYLINE
  5
315
  8
HACHURE
 62
5
370
-1
  6
CONTINUOUS
100
AcDbEntity
100
AcDbPolyline
 90
4
 70
1
 10
339.7672670000000039
 20
228.0094029999999918
 10
338.7672670000000039
 20
228.0094029999999918
 10
338.7672670000000039
 20
226.0094029999999918
 10
339.7672670000000039
 20
226.0094029999999918
  0
INSERT
  5
316
100
AcDbEntity
100
AcDbBlockReference
  8
HACHURE
 62
256
370
-1
  6
ByLayer
  2
DESENS-G22
 10
0.0
 20
0.0
 30
0.0
  0
LINE
  5
317
100
AcDbEntity
100
AcDbLine
  8
FORT
 62
7
370
-1
  6
CONTINUOUS
 10
300.0
 20
270.0
 30
0.0
 11
310.0
 21
270.0
 31
0.0
  0
MTEXT
  5
318
100
AcDbEntity
100
AcDbMText
  8
TEXTE
 62
7
370
-1
  6
CONTINUOUS
 10
303.0
 20
272.0
 30
0.0
 40
5.0
 41
100.0
 71
7
 72
2
  1
7
  7
ISO9
 50
0.0
 73
1
 44
1.0
  0
ARC
  5
319
100
AcDbEntity
  8
FORT
 62
7
370
-1
  6
CONTINUOUS
100
AcDbCircle
 10
370.2672670000000039
 20
222.5094029999999918
 30
0.0
 40
3.5
100
AcDbArc
 50
272.5690119999999865
 51
87.4309879999999993
  0
LINE
  5
31A
100
AcDbEntity
100
AcDbLine
  8
FORT
 62
7
370
-1
  6
CONTINUOUS
 10
361.7672670000000039
 20
216.5094029999999918
 30
0.0
 11
361.7672670000000039
 21
228.5094029999999918
 31
0.0
  0
LINE
  5
31B
100
AcDbEntity
100
AcDbLine
  8
FORT
 62
7
370
-1
  6
CONTINUOUS
 10
357.7672670000000039
 20
214.5094029999999918
 30
0.0
 11
357.7672670000000039
 21
230.5094029999999918
 31
0.0
  0
LINE
  5
31C
100
AcDbEntity
100
AcDbLine
  8
FORT
 62
7
370
-1
  6
CONTINUOUS
 10
359.7672670000000039
 20
158.5094029999999918
 30
0.0
 11
359.7672670000000039
 21
188.5094029999999918
 31
0.0
  0
LINE
  5
31D
100
AcDbEntity
100
AcDbLine
  8
FORT
 62
7
370
-1
  6
CONTINUOUS
 10
372.8218560000000252
 20
182.5262789999999882
 30
0.0
 11
359.7126769999999851
 21
210.4925269999999955
 31
0.0
  0
LINE
  5
31E
100
AcDbEntity
100
AcDbLine
  8
FORT
 62
7
370
-1
  6
CONTINUOUS
 10
373.7672670000000039
 20
150.5094029999999918
 30
0.0
 11
373.7672670000000039
 21
178.2819399999999916
 31
0.0
  0
LINE
  5
31F
100
AcDbEntity
100
AcDbLine
  8
FORT
 62
7
370
-1
  6
CONTINUOUS
 10
369.2672670000000039
 20
155.5094029999999918
 30
0.0
 11
369.2672670000000039
 21
166.8094030000000032
 31
0.0
  0
LINE
  5
320
100
AcDbEntity
100
AcDbLine
  8
FORT
 62
7
370
-1
  6
CONTINUOUS
 10
364.2672670000000039
 20
155.5094029999999918
 30
0.0
 11
364.2672670000000039
 21
166.8094030000000032
 31
0.0
  0
LINE
  5
321
100
AcDbEntity
100
AcDbLine
  8
FORT
 62
7
370
-1
  6
CONTINUOUS
 10
369.2672670000000039
 20
158.5094029999999918
 30
0.0
 11
373.7672670000000039
 21
158.5094029999999918
 31
0.0
  0
LINE
  5
322
100
AcDbEntity
100
AcDbLine
  8
FORT
 62
7
370
-1
  6
CONTINUOUS
 10
371.0172670000000039
 20
151.5094029999999918
 30
0.0
 11
371.0172670000000039
 21
155.5094029999999918
 31
0.0
  0
LINE
  5
323
100
AcDbEntity
100
AcDbLine
  8
FORT
 62
7
370
-1
  6
CONTINUOUS
 10
362.5172670000000039
 20
151.5094029999999918
 30
0.0
 11
362.5172670000000039
 21
155.5094029999999918
 31
0.0
  0
ARC
  5
324
100
AcDbEntity
  8
FORT
 62
7
370
-1
  6
CONTINUOUS
100
AcDbCircle
 10
370.0172670000000039
 20
151.5094029999999918
 30
0.0
 40
1.0
100
AcDbArc
 50
270.0
 51
0.0
  0
ARC
  5
325
100
AcDbEntity
  8
FORT
 62
7
370
-1
  6
CONTINUOUS
100
AcDbCircle
 10
363.5172670000000039
 20
151.5094029999999918
 30
0.0
 40
1.0
100
AcDbArc
 50
180.0
 51
270.0
  0
ARC
  5
326
100
AcDbEntity
  8
FORT
 62
7
370
-1
  6
CONTINUOUS
100
AcDbCircle
 10
359.7672670000000039
 20
169.5094029999999918
 30
0.0
 40
4.0
100
AcDbArc
 50
180.0
 51
270.0
  0
ARC
  5
327
100
AcDbEntity
  8
FORT
 62
7
370
-1
  6
CONTINUOUS
100
AcDbCircle
 10
359.7672670000000039
 20
177.5094029999999918
 30
0.0
 40
4.0
100
AcDbArc
 50
90.0
 51
180.0
  0
LINE
  5
328
100
AcDbEntity
100
AcDbLine
  8
FORT
 62
7
370
-1
  6
CONTINUOUS
 10
355.7672670000000039
 20
169.5094029999999918
 30
0.0
 11
355.7672670000000039
 21
177.5094029999999918
 31
0.0
  0
ARC
  5
329
100
AcDbEntity
  8
FORT
 62
7
370
-1
  6
CONTINUOUS
100
AcDbCircle
 10
363.7672670000000039
 20
178.2819399999999916
 30
0.0
 40
10.0
100
AcDbArc
 50
0.0
 51
25.1148349999999994
  0
LINE
  5
32A
100
AcDbEntity
100
AcDbLine
  8
FORT
 62
7
370
-1
  6
CONTINUOUS
 10
397.9811940000000163
 20
170.0
 30
0.0
 11
387.9811940000000163
 21
170.0
 31
0.0
  0
MTEXT
  5
32B
100
AcDbEntity
100
AcDbMText
  8
TEXTE
 62
7
370
-1
  6
CONTINUOUS
 10
389.9811940000000163
 20
172.0
 30
0.0
 40
5.0
 41
100.0
 71
7
 72
2
  1
11
  7
ISO9
 50
0.0
 73
1
 44
1.0
  0
CIRCLE
  5
32C
100
AcDbEntity
100
AcDbCircle
  8
FORT
 62
7
370
-1
  6
CONTINUOUS
 10
367.6424200000000155
 20
162.4356769999999983
 30
0.0
 40
0.25
  0
CIRCLE
  5
32D
100
AcDbEntity
100
AcDbCircle
  8
FORT
 62
7
370
-1
  6
CONTINUOUS
 10
351.0002119999999763
 20
154.1090269999999975
 30
0.0
 40
0.25
  0
LINE
  5
32E
100
AcDbEntity
100
AcDbLine
  8
FORT
 62
7
370
-1
  6
CONTINUOUS
 10
361.2672670000000039
 20
150.5094029999999918
 30
0.0
 11
361.2672670000000039
 21
155.5094029999999918
 31
0.0
  0
LINE
  5
32F
100
AcDbEntity
100
AcDbLine
  8
FORT
 62
7
370
-1
  6
CONTINUOUS
 10
372.2672670000000039
 20
150.5094029999999918
 30
0.0
 11
372.2672670000000039
 21
155.5094029999999918
 31
0.0
  0
LINE
  5
330
100
AcDbEntity
100
AcDbLine
  8
FORT
 62
7
370
-1
  6
CONTINUOUS
 10
361.2672670000000039
 20
155.5094029999999918
 30
0.0
 11
372.2672670000000039
 21
155.5094029999999918
 31
0.0
  0
LINE
  5
331
100
AcDbEntity
100
AcDbLine
  8
FORT
 62
7
370
-1
  6
CONTINUOUS
 10
368.5672670000000153
 20
175.5094029999999918
 30
0.0
 11
366.7672670000000039
 21
176.5486329999999953
 31
0.0
  0
LINE
  5
332
100
AcDbEntity
100
AcDbLine
  8
FORT
 62
7
370
-1
  6
CONTINUOUS
 10
364.9672669999999925
 20
175.5094029999999918
 30
0.0
 11
366.7672670000000039
 21
176.5486329999999953
 31
0.0
  0
LINE
  5
333
100
AcDbEntity
100
AcDbLine
  8
FORT
 62
7
370
-1
  6
CONTINUOUS
 10
368.5672670000000153
 20
167.5094029999999918
 30
0.0
 11
369.2672670000000039
 21
166.8094030000000032
 31
0.0
  0
LINE
  5
334
100
AcDbEntity
100
AcDbLine
  8
FORT
 62
7
370
-1
  6
CONTINUOUS
 10
364.9672669999999925
 20
167.5094029999999918
 30
0.0
 11
364.2672670000000039
 21
166.8094030000000032
 31
0.0
  0
LINE
  5
335
100
AcDbEntity
100
AcDbLine
  8
FORT
 62
7
370
-1
  6
CONTINUOUS
 10
368.5672670000000153
 20
167.5094029999999918
 30
0.0
 11
368.5672670000000153
 21
175.5094029999999918
 31
0.0
  0
LINE
  5
336
100
AcDbEntity
100
AcDbLine
  8
FORT
 62
7
370
-1
  6
CONTINUOUS
 10
364.9672669999999925
 20
167.5094029999999918
 30
0.0
 11
364.9672669999999925
 21
175.5094029999999918
 31
0.0
  0
LINE
  5
337
100
AcDbEntity
100
AcDbLine
  8
FORT
 62
7
370
-1
  6
CONTINUOUS
 10
369.2672670000000039
 20
166.8094030000000032
 30
0.0
 11
364.2672670000000039
 21
166.8094030000000032
 31
0.0
  0
LINE
  5
338
100
AcDbEntity
100
AcDbLine
  8
FORT
 62
7
370
-1
  6
CONTINUOUS
 10
368.5672670000000153
 20
167.5094029999999918
 30
0.0
 11
364.9672669999999925
 21
167.5094029999999918
 31
0.0
  0
LINE
  5
339
100
AcDbEntity
100
AcDbLine
  8
FORT
 62
7
370
-1
  6
CONTINUOUS
 10
369.2672670000000039
 20
171.3094030000000032
 30
0.0
 11
364.2672670000000039
 21
171.3094030000000032
 31
0.0
  0
LINE
  5
33A
100
AcDbEntity
100
AcDbLine
  8
FORT
 62
7
370
-1
  6
CONTINUOUS
 10
368.5672670000000153
 20
175.5094029999999918
 30
0.0
 11
364.9672669999999925
 21
175.5094029999999918
 31
0.0
  0
LWPOLYLINE
  5
33B
  8
HACHURE
 62
5
370
-1
  6
CONTINUOUS
100
AcDbEntity
100
AcDbPolyline
 90
6
 70
1
 10
373.7672670000000039
 20
158.5094029999999918
 10
369.2672670000000039
 20
158.5094029999999918
 10
369.2672670000000039
 20
155.5094029999999918
 10
372.2672670000000039
 20
155.5094029999999918
 10
372.2672670000000039
 20
150.5094029999999918
 10
373.7672670000000039
 20
150.5094029999999918
  0
INSERT
  5
33C
100
AcDbEntity
100
AcDbBlockReference
  8
HACHURE
 62
256
370
-1
  6
ByLayer
  2
DESENS-G23
 10
0.0
 20
0.0
 30
0.0
  0
LINE
  5
33D
100
AcDbEntity
100
AcDbLine
  8
FIN
 62
5
370
-1
  6
CONTINUOUS
 10
368.5672670000000153
 20
155.5094029999999918
 30
0.0
 11
368.5672670000000153
 21
167.5094029999999918
 31
0.0
  0
LINE
  5
33E
100
AcDbEntity
100
AcDbLine
  8
FIN
 62
5
370
-1
  6
CONTINUOUS
 10
364.9672669999999925
 20
155.5094029999999918
 30
0.0
 11
364.9672669999999925
 21
167.5094029999999918
 31
0.0
  0
LINE
  5
33F
100
AcDbEntity
100
AcDbLine
  8
FIN
 62
5
370
-1
  6
CONTINUOUS
 10
369.2672670000000039
 20
166.8094030000000032
 30
0.0
 11
369.2672670000000039
 21
171.3094030000000032
 31
0.0
  0
LINE
  5
340
100
AcDbEntity
100
AcDbLine
  8
FIN
 62
5
370
-1
  6
CONTINUOUS
 10
364.2672670000000039
 20
166.8094030000000032
 30
0.0
 11
364.2672670000000039
 21
171.3094030000000032
 31
0.0
  0
LINE
  5
341
100
AcDbEntity
100
AcDbLine
  8
FIN
 62
5
370
-1
  6
CONTINUOUS
 10
367.6424200000000155
 20
162.4356769999999983
 30
0.0
 11
387.9811940000000163
 21
170.0
 31
0.0
  0
LINE
  5
342
100
AcDbEntity
100
AcDbLine
  8
FORT
 62
7
370
-1
  6
CONTINUOUS
 10
352.7672670000000039
 20
218.5094029999999918
 30
0.0
 11
352.7672670000000039
 21
194.961748
 31
0.0
  0
LINE
  5
343
100
AcDbEntity
100
AcDbLine
  8
FORT
 62
7
370
-1
  6
CONTINUOUS
 10
358.7672670000000039
 20
188.5094029999999918
 30
0.0
 11
359.7672670000000039
 21
187.5094029999999918
 31
0.0
  0
LINE
  5
344
100
AcDbEntity
100
AcDbLine
  8
FORT
 62
7
370
-1
  6
CONTINUOUS
 10
350.7672670000000039
 20
211.0094029999999918
 30
0.0
 11
352.7672670000000039
 21
211.0094029999999918
 31
0.0
  0
LINE
  5
345
100
AcDbEntity
100
AcDbLine
  8
FORT
 62
7
370
-1
  6
CONTINUOUS
 10
357.7672670000000039
 20
216.5094029999999918
 30
0.0
 11
361.7672670000000039
 21
216.5094029999999918
 31
0.0
  0
LINE
  5
346
100
AcDbEntity
100
AcDbLine
  8
FORT
 62
7
370
-1
  6
CONTINUOUS
 10
357.7672670000000039
 20
214.5094029999999918
 30
0.0
 11
358.7698540000000094
 21
214.5094029999999918
 31
0.0
  0
LINE
  5
347
100
AcDbEntity
100
AcDbLine
  8
FORT
 62
7
370
-1
  6
CONTINUOUS
 10
397.9811940000000163
 20
210.0
 30
0.0
 11
387.9811940000000163
 21
210.0
 31
0.0
  0
LINE
  5
348
100
AcDbEntity
100
AcDbLine
  8
FORT
 62
7
370
-1
  6
CONTINUOUS
 10
397.9811940000000163
 20
190.0
 30
0.0
 11
387.9811940000000163
 21
190.0
 31
0.0
  0
MTEXT
  5
349
100
AcDbEntity
100
AcDbMText
  8
TEXTE
 62
7
370
-1
  6
CONTINUOUS
 10
390.9811940000000163
 20
212.0
 30
0.0
 40
5.0
 41
100.0
 71
7
 72
2
  1
9
  7
ISO9
 50
0.0
 73
1
 44
1.0
  0
MTEXT
  5
34A
100
AcDbEntity
100
AcDbMText
  8
TEXTE
 62
7
370
-1
  6
CONTINUOUS
 10
389.9811940000000163
 20
192.0
 30
0.0
 40
5.0
 41
100.0
 71
7
 72
2
  1
10
  7
ISO9
 50
0.0
 73
1
 44
1.0
  0
CIRCLE
  5
34B
100
AcDbEntity
100
AcDbCircle
  8
FORT
 62
7
370
-1
  6
CONTINUOUS
 10
365.3942279999999982
 20
187.1306629999999984
 30
0.0
 40
0.25
  0
ARC
  5
34C
100
AcDbEntity
  8
FORT
 62
7
370
-1
  6
CONTINUOUS
100
AcDbCircle
 10
368.7672670000000039
 20
214.736865999999992
 30
0.0
 40
10.0
100
AcDbArc
 50
180.0
 51
205.1148349999999994
  0
LINE
  5
34D
100
AcDbEntity
100
AcDbLine
  8
FORT
 62
7
370
-1
  6
CONTINUOUS
 10
358.7672670000000039
 20
214.736865999999992
 30
0.0
 11
358.7672670000000039
 21
216.5094029999999918
 31
0.0
  0
ARC
  5
34E
100
AcDbEntity
  8
FORT
 62
7
370
-1
  6
CONTINUOUS
100
AcDbCircle
 10
372.9850490000000036
 20
198.9298970000000111
 30
0.0
 40
20.2456430000000012
100
AcDbArc
 50
97.2669000000000068
 51
134.2676910000000134
  0
LINE
  5
34F
100
AcDbEntity
100
AcDbLine
  8
FIN
 62
5
370
-1
  6
CONTINUOUS
 10
365.3942279999999982
 20
187.1306629999999984
 30
0.0
 11
387.9811940000000163
 21
190.0
 31
0.0
  0
LINE
  5
350
100
AcDbEntity
100
AcDbLine
  8
FIN
 62
5
370
-1
  6
CONTINUOUS
 10
350.8942739999999958
 20
213.3305290000000127
 30
0.0
 11
387.9811940000000163
 21
210.0
 31
0.0
  0
LINE
  5
351
100
AcDbEntity
100
AcDbLine
  8
FORT
 62
7
370
-1
  6
CONTINUOUS
 10
352.7672670000000039
 20
226.5094029999999918
 30
0.0
 11
352.7672670000000039
 21
243.5094029999999918
 31
0.0
  0
ARC
  5
352
100
AcDbEntity
  8
FORT
 62
7
370
-1
  6
CONTINUOUS
100
AcDbCircle
 10
354.7672670000000039
 20
239.5094029999999918
 30
0.0
 40
4.0
100
AcDbArc
 50
0.0
 51
90.0
  0
LINE
  5
353
100
AcDbEntity
100
AcDbLine
  8
FORT
 62
7
370
-1
  6
CONTINUOUS
 10
350.7672670000000039
 20
234.0094029999999918
 30
0.0
 11
352.7672670000000039
 21
234.0094029999999918
 31
0.0
  0
LINE
  5
354
100
AcDbEntity
100
AcDbLine
  8
FORT
 62
7
370
-1
  6
CONTINUOUS
 10
358.7672670000000039
 20
228.5094029999999918
 30
0.0
 11
358.7672670000000039
 21
239.5094029999999918
 31
0.0
  0
LINE
  5
355
100
AcDbEntity
100
AcDbLine
  8
FORT
 62
7
370
-1
  6
CONTINUOUS
 10
357.7672670000000039
 20
228.5094029999999918
 30
0.0
 11
361.7672670000000039
 21
228.5094029999999918
 31
0.0
  0
LINE
  5
356
100
AcDbEntity
100
AcDbLine
  8
FORT
 62
7
370
-1
  6
CONTINUOUS
 10
357.7672670000000039
 20
230.5094029999999918
 30
0.0
 11
358.7672670000000039
 21
230.5094029999999918
 31
0.0
  0
LINE
  5
357
100
AcDbEntity
100
AcDbLine
  8
FORT
 62
7
370
-1
  6
CONTINUOUS
 10
353.7672670000000039
 20
243.5094029999999918
 30
0.0
 11
353.7672670000000039
 21
246.8094030000000032
 31
0.0
  0
LINE
  5
358
100
AcDbEntity
100
AcDbLine
  8
FORT
 62
7
370
-1
  6
CONTINUOUS
 10
397.9811940000000163
 20
230.0
 30
0.0
 11
387.9811940000000163
 21
230.0
 31
0.0
  0
MTEXT
  5
359
100
AcDbEntity
100
AcDbMText
  8
TEXTE
 62
7
370
-1
  6
CONTINUOUS
 10
390.9811940000000163
 20
232.0
 30
0.0
 40
5.0
 41
100.0
 71
7
 72
2
  1
8
  7
ISO9
 50
0.0
 73
1
 44
1.0
  0
CIRCLE
  5
35A
100
AcDbEntity
100
AcDbCircle
  8
FORT
 62
7
370
-1
  6
CONTINUOUS
 10
359.8559880000000248
 20
225.7129199999999969
 30
0.0
 40
0.25
  0
ARC
  5
35B
100
AcDbEntity
  8
FORT
 62
7
370
-1
  6
CONTINUOUS
100
AcDbCircle
 10
372.9850490000000036
 20
246.088909000000001
 30
0.0
 40
20.2456430000000012
100
AcDbArc
 50
225.3910869999999989
 51
262.733099999999979
  0
LWPOLYLINE
  5
35C
  8
HACHURE
 62
5
370
-1
  6
CONTINUOUS
100
AcDbEntity
100
AcDbPolyline
 90
7
 70
1
 10
358.7672670000000039
 20
239.5094029997376595
 42
0.4142140000192026
 10
354.7672670000000039
 20
243.5094029999999634
 10
352.7672670000000039
 20
243.5094029999999918
 10
352.7672670000000039
 20
226.5094029999999918
 10
357.7672670000000039
 20
226.5094029999999918
 10
357.7672670000000039
 20
230.5094029999999918
 10
358.7672670000000039
 20
230.5094029999999918
  0
INSERT
  5
35D
100
AcDbEntity
100
AcDbBlockReference
  8
HACHURE
 62
256
370
-1
  6
ByLayer
  2
DESENS-G24
 10
0.0
 20
0.0
 30
0.0
  0
LINE
  5
35E
100
AcDbEntity
100
AcDbLine
  8
FIN
 62
5
370
-1
  6
CONTINUOUS
 10
359.8559880000000248
 20
225.7129199999999969
 30
0.0
 11
387.9811940000000163
 21
230.0
 31
0.0
  0
LINE
  5
35F
100
AcDbEntity
100
AcDbLine
  8
FORT
 62
7
370
-1
  6
CONTINUOUS
 10
410.0
 20
41.0
 30
0.0
 11
410.0
 21
287.0
 31
0.0
  0
LINE
  5
360
100
AcDbEntity
100
AcDbLine
  8
FORT
 62
7
370
-1
  6
CONTINUOUS
 10
10.0
 20
10.0
 30
0.0
 11
220.0
 21
10.0
 31
0.0
  0
LINE
  5
361
100
AcDbEntity
100
AcDbLine
  8
RENFORCE
 62
256
370
-1
  6
ByLayer
 10
220.0
 20
41.0
 30
0.0
 11
220.0
 21
10.0
 31
0.0
  0
LINE
  5
362
100
AcDbEntity
100
AcDbLine
  8
RENFORCE
 62
256
370
-1
  6
ByLayer
 10
410.0
 20
41.0
 30
0.0
 11
410.0
 21
10.0
 31
0.0
  0
LINE
  5
363
100
AcDbEntity
100
AcDbLine
  8
RENFORCE
 62
7
370
-1
  6
CONTINUOUS
 10
220.0
 20
10.0
 30
0.0
 11
410.0
 21
10.0
 31
0.0
  0
LINE
  5
364
100
AcDbEntity
100
AcDbLine
  8
RENFORCE
 62
7
370
-1
  6
CONTINUOUS
 10
220.0
 20
41.0
 30
0.0
 11
410.0
 21
41.0
 31
0.0
  0
LINE
  5
365
100
AcDbEntity
100
AcDbLine
  8
FIN
 62
256
370
-1
  6
ByLayer
 10
235.0
 20
41.0
 30
0.0
 11
235.0
 21
90.5
 31
0.0
  0
LINE
  5
366
100
AcDbEntity
100
AcDbLine
  8
FIN
 62
256
370
-1
  6
ByLayer
 10
250.0
 20
41.0
 30
0.0
 11
250.0
 21
90.5
 31
0.0
  0
LINE
  5
367
100
AcDbEntity
100
AcDbLine
  8
FIN
 62
256
370
-1
  6
ByLayer
 10
329.8880679999999757
 20
41.0
 30
0.0
 11
329.8880679999999757
 21
90.5
 31
0.0
  0
LINE
  5
368
100
AcDbEntity
100
AcDbLine
  8
FIN
 62
256
370
-1
  6
ByLayer
 10
365.3301220000000171
 20
41.0
 30
0.0
 11
365.3301220000000171
 21
90.5
 31
0.0
  0
LINE
  5
369
100
AcDbEntity
100
AcDbLine
  8
FIN
 62
256
370
-1
  6
ByLayer
 10
220.0
 20
90.5
 30
0.0
 11
220.0
 21
41.0
 31
0.0
  0
LINE
  5
36A
100
AcDbEntity
100
AcDbLine
  8
FIN
 62
5
370
-1
  6
CONTINUOUS
 10
220.0
 20
20.5
 30
0.0
 11
410.0
 21
20.5
 31
0.0
  0
LINE
  5
36B
100
AcDbEntity
100
AcDbLine
  8
AXE
 62
256
370
-1
  6
ByLayer
 10
96.2712719999999962
 20
222.5094029999999918
 30
0.0
 11
300.3747710000000097
 21
222.5094029999999918
 31
0.0
  0
LINE
  5
36C
100
AcDbEntity
100
AcDbLine
  8
AXE
 62
256
370
-1
  6
ByLayer
 10
81.6767930000000035
 20
109.8947959999999995
 30
0.0
 11
122.8795939999999973
 21
133.6832449999999994
 31
0.0
  0
LINE
  5
36D
100
AcDbEntity
100
AcDbLine
  8
AXE
 62
256
370
-1
  6
ByLayer
 10
93.5863159999999965
 20
136.8437930000000051
 30
0.0
 11
110.9700710000000043
 21
106.7342479999999938
 31
0.0
  0
ARC
  5
36E
100
AcDbEntity
  8
AXE
 62
256
370
-1
  6
ByLayer
100
AcDbCircle
 10
94.934077000000002
 20
222.5094029999999918
 30
0.0
 40
44.0
100
AcDbArc
 50
115.5466729999999842
 51
245.5556520000000091
  0
LINE
  5
36F
100
AcDbEntity
100
AcDbLine
  8
AXE
 62
256
370
-1
  6
ByLayer
 10
48.0221560000000025
 20
195.424792999999994
 30
0.0
 11
65.6357629999999972
 21
205.5940129999999897
 31
0.0
  0
LINE
  5
370
100
AcDbEntity
100
AcDbLine
  8
AXE
 62
256
370
-1
  6
ByLayer
 10
35.4730739999999969
 20
256.8392289999999889
 30
0.0
 11
78.1848449999999957
 21
232.1795769999999948
 31
0.0
  0
LINE
  5
371
100
AcDbEntity
100
AcDbLine
  8
AXE
 62
256
370
-1
  6
ByLayer
 10
152.934077000000002
 20
252.1579199999999901
 30
0.0
 11
152.934077000000002
 21
223.9981659999999977
 31
0.0
  0
LINE
  5
372
100
AcDbEntity
100
AcDbLine
  8
AXE
 62
256
370
-1
  6
ByLayer
 10
270.4446780000000103
 20
95.6287300000000045
 30
0.0
 11
270.4446780000000103
 21
182.7350020000000086
 31
0.0
  0
LINE
  5
373
100
AcDbEntity
100
AcDbLine
  8
AXE
 62
256
370
-1
  6
ByLayer
 10
348.7672670000000039
 20
140.0883090000000095
 30
0.0
 11
348.7672670000000039
 21
255.5413739999999905
 31
0.0
  0
LINE
  5
374
100
AcDbEntity
100
AcDbLine
  8
AXE
 62
256
370
-1
  6
ByLayer
 10
330.7672670000000039
 20
180.7528279999999938
 30
0.0
 11
330.7672670000000039
 21
146.6106049999999925
 31
0.0
  0
LINE
  5
375
100
AcDbEntity
100
AcDbLine
  8
AXE
 62
256
370
-1
  6
ByLayer
 10
366.7672670000000039
 20
146.6106049999999925
 30
0.0
 11
366.7672670000000039
 21
180.7528279999999938
 31
0.0
  0
LINE
  5
376
100
AcDbEntity
100
AcDbLine
  8
AXE
 62
256
370
-1
  6
ByLayer
 10
315.7352950000000078
 20
222.5094029999999918
 30
0.0
 11
381.7992380000000026
 21
222.5094029999999918
 31
0.0
  0
LINE
  5
377
100
AcDbEntity
100
AcDbLine
  8
AXE
 62
256
370
-1
  6
ByLayer
 10
250.3278359999999907
 20
162.6181599999999889
 30
0.0
 11
290.5615210000000275
 21
162.6181599999999889
 31
0.0
  0
ARC
  5
378
100
AcDbEntity
  8
INTERROMPU
 62
256
370
-1
  6
ByLayer
100
AcDbCircle
 10
56.8289589999999976
 20
244.5094029999999918
 30
0.0
 40
18.0
100
AcDbArc
 50
22.5126789999999986
 51
277.4873210000000086
  0
ARC
  5
379
100
AcDbEntity
  8
INTERROMPU
 62
256
370
-1
  6
ByLayer
100
AcDbCircle
 10
56.8289589999999976
 20
244.5094029999999918
 30
0.0
 40
11.5
100
AcDbArc
 50
10.2623759999999997
 51
289.7376239999999825
  0
ARC
  5
37A
100
AcDbEntity
  8
INTERROMPU
 62
256
370
-1
  6
ByLayer
100
AcDbCircle
 10
26.0123880000000014
 20
222.5094029999999918
 30
0.0
 40
60.0
100
AcDbArc
 50
31.4782350000000015
 51
54.5932209999999998
  0
ARC
  5
37B
100
AcDbEntity
  8
INTERROMPU
 62
256
370
-1
  6
ByLayer
100
AcDbCircle
 10
56.8289589999999976
 20
200.5094029999999918
 30
0.0
 40
18.0
100
AcDbArc
 50
82.5126790000000057
 51
337.4873210000000086
  0
ARC
  5
37C
100
AcDbEntity
  8
INTERROMPU
 62
256
370
-1
  6
ByLayer
100
AcDbCircle
 10
56.8289589999999976
 20
200.5094029999999918
 30
0.0
 40
11.5
100
AcDbArc
 50
70.2623760000000033
 51
349.7376239999999825
  0
ARC
  5
37D
100
AcDbEntity
  8
INTERROMPU
 62
256
370
-1
  6
ByLayer
100
AcDbCircle
 10
26.0123880000000014
 20
222.5094029999999918
 30
0.0
 40
60.0
100
AcDbArc
 50
302.934504000000004
 51
328.5150689999999827
  0
CIRCLE
  5
37E
100
AcDbEntity
100
AcDbCircle
  8
INTERROMPU
 62
256
370
-1
  6
ByLayer
 10
56.8289589999999976
 20
200.5094029999999918
 30
0.0
 40
4.0
  0
CIRCLE
  5
37F
100
AcDbEntity
100
AcDbCircle
  8
INTERROMPU
 62
256
370
-1
  6
ByLayer
 10
56.8289589999999976
 20
244.5094029999999918
 30
0.0
 40
4.0
  0
ARC
  5
380
100
AcDbEntity
  8
INTERROMPU
 62
256
370
-1
  6
ByLayer
100
AcDbCircle
 10
119.934077000000002
 20
222.5094029999999918
 30
0.0
 40
11.5
100
AcDbArc
 50
209.5918460000000039
 51
150.4081539999999961
  0
ARC
  5
381
100
AcDbEntity
  8
INTERROMPU
 62
256
370
-1
  6
ByLayer
100
AcDbCircle
 10
119.934077000000002
 20
222.5094029999999918
 30
0.0
 40
18.0
100
AcDbArc
 50
49.8203659999999999
 51
119.4001969999999915
  0
ARC
  5
382
100
AcDbEntity
  8
INTERROMPU
 62
256
370
-1
  6
ByLayer
100
AcDbCircle
 10
119.934077000000002
 20
222.5094029999999918
 30
0.0
 40
18.0
100
AcDbArc
 50
236.2510110000000054
 51
336.1147339999999986
  0
ARC
  5
383
100
AcDbEntity
  8
INTERROMPU
 62
256
370
-1
  6
ByLayer
100
AcDbCircle
 10
101.0853479999999962
 20
230.2424139999999966
 30
0.0
 40
40.0
100
AcDbArc
 50
282.7805960000000027
 51
333.5358249999999884
  0
LINE
  5
384
100
AcDbEntity
100
AcDbLine
  8
INTERROMPU
 62
256
370
-1
  6
ByLayer
 10
328.4578660000000241
 20
150.5094029999999918
 30
0.0
 11
328.4578660000000241
 21
153.7712740000000053
 31
0.0
  0
LINE
  5
385
100
AcDbEntity
100
AcDbLine
  8
INTERROMPU
 62
256
370
-1
  6
ByLayer
 10
329.6125660000000153
 20
150.5094029999999918
 30
0.0
 11
329.6125660000000153
 21
153.7712740000000053
 31
0.0
  0
LINE
  5
386
100
AcDbEntity
100
AcDbLine
  8
INTERROMPU
 62
256
370
-1
  6
ByLayer
 10
331.9219669999999951
 20
150.5094029999999918
 30
0.0
 11
331.9219669999999951
 21
153.7712740000000053
 31
0.0
  0
LINE
  5
387
100
AcDbEntity
100
AcDbLine
  8
INTERROMPU
 62
256
370
-1
  6
ByLayer
 10
333.0766679999999837
 20
150.5094029999999918
 30
0.0
 11
333.0766679999999837
 21
153.7712740000000053
 31
0.0
  0
LINE
  5
388
100
AcDbEntity
100
AcDbLine
  8
INTERROMPU
 62
256
370
-1
  6
ByLayer
 10
328.4578660000000241
 20
153.7712740000000053
 30
0.0
 11
333.0766679999999837
 21
153.7712740000000053
 31
0.0
  0
LINE
  5
389
100
AcDbEntity
100
AcDbLine
  8
INTERROMPU
 62
256
370
-1
  6
ByLayer
 10
369.0766679999999837
 20
150.5094029999999918
 30
0.0
 11
369.0766679999999837
 21
153.7712740000000053
 31
0.0
  0
LINE
  5
38A
100
AcDbEntity
100
AcDbLine
  8
INTERROMPU
 62
256
370
-1
  6
ByLayer
 10
367.9219669999999951
 20
150.5094029999999918
 30
0.0
 11
367.9219669999999951
 21
153.7712740000000053
 31
0.0
  0
LINE
  5
38B
100
AcDbEntity
100
AcDbLine
  8
INTERROMPU
 62
256
370
-1
  6
ByLayer
 10
365.6125660000000153
 20
150.5094029999999918
 30
0.0
 11
365.6125660000000153
 21
153.7712740000000053
 31
0.0
  0
LINE
  5
38C
100
AcDbEntity
100
AcDbLine
  8
INTERROMPU
 62
256
370
-1
  6
ByLayer
 10
364.4578660000000241
 20
150.5094029999999918
 30
0.0
 11
364.4578660000000241
 21
153.7712740000000053
 31
0.0
  0
LINE
  5
38D
100
AcDbEntity
100
AcDbLine
  8
INTERROMPU
 62
256
370
-1
  6
ByLayer
 10
369.0766679999999837
 20
153.7712740000000053
 30
0.0
 11
364.4578660000000241
 21
153.7712740000000053
 31
0.0
  0
LINE
  5
38E
100
AcDbEntity
100
AcDbLine
  8
FIN
 62
256
370
-1
  6
ByLayer
 10
20.0
 20
10.0
 30
0.0
 11
20.0
 21
100.0
 31
0.0
  0
LINE
  5
38F
100
AcDbEntity
100
AcDbLine
  8
FIN
 62
256
370
-1
  6
ByLayer
 10
34.9515269999999987
 20
100.0
 30
0.0
 11
34.9515269999999987
 21
10.0
 31
0.0
  0
LINE
  5
390
100
AcDbEntity
100
AcDbLine
  8
FIN
 62
256
370
-1
  6
ByLayer
 10
49.9515269999999987
 20
100.0
 30
0.0
 11
49.9515269999999987
 21
10.0
 31
0.0
  0
LINE
  5
391
100
AcDbEntity
100
AcDbLine
  8
FIN
 62
256
370
-1
  6
ByLayer
 10
163.5703609999999912
 20
10.0
 30
0.0
 11
163.5703609999999912
 21
100.0
 31
0.0
  0
LINE
  5
392
100
AcDbEntity
100
AcDbLine
  8
FIN
 62
256
370
-1
  6
ByLayer
 10
210.0
 20
10.0
 30
0.0
 11
210.0
 21
100.0
 31
0.0
  0
LINE
  5
393
100
AcDbEntity
100
AcDbLine
  8
FORT
 62
7
370
-1
  6
CONTINUOUS
 10
176.0647912314990435
 20
112.7993497893738066
 30
0.0
 11
176.0647912314990435
 21
124.7993497893738066
 31
0.0
  0
LINE
  5
394
100
AcDbEntity
100
AcDbLine
  8
FORT
 62
7
370
-1
  6
CONTINUOUS
 10
204.0647912314990435
 20
114.4224557893737995
 30
0.0
 11
204.0647912314990435
 21
123.1762447893738113
 31
0.0
  0
LWPOLYLINE
  5
395
  8
HACHURE
 62
5
370
-1
  6
CONTINUOUS
100
AcDbEntity
100
AcDbPolyline
 90
12
 70
1
 10
204.0647912314990435
 20
123.1762447890433521
 42
0.3441510000230992
 10
201.0349342314990508
 20
127.0568147893737887
 10
195.2590912314990419
 20
128.5007747893737928
 42
0.061321
 10
192.8337352314990483
 20
128.7993497893737924
 10
180.0647912314990435
 20
128.7993497893738208
 42
0.4142140000192046
 10
176.0647912314990435
 20
124.7993497891115453
 10
176.0647912314990435
 20
112.7993497893738066
 42
0.4142140000360076
 10
180.0647912314990435
 20
108.7993497893738066
 10
192.8337352314990483
 20
108.7993497893738066
 42
0.0613210000000001
 10
195.2590912314990419
 20
109.0979247893738062
 10
201.0349342314990508
 20
110.5418857893738078
 42
0.344151000023099
 10
204.0647912314990435
 20
114.4224557897042445
  0
INSERT
  5
396
100
AcDbEntity
100
AcDbBlockReference
  8
HACHURE
 62
256
370
-1
  6
ByLayer
  2
DESENS-G8
 10
-17.8692857685009585
 20
6.0281927893738043
 30
0.0
  0
ARC
  5
397
100
AcDbEntity
  8
FORT
 62
7
370
-1
  6
CONTINUOUS
100
AcDbCircle
 10
200.0647912314990435
 20
114.4224557893737995
 30
0.0
 40
4.0
100
AcDbArc
 50
284.0362430000000131
 51
360.0
  0
LINE
  5
398
100
AcDbEntity
100
AcDbLine
  8
FORT
 62
7
370
-1
  6
CONTINUOUS
 10
195.2590912314990419
 20
109.0979247893738062
 30
0.0
 11
201.0349342314990508
 21
110.5418857893738078
 31
0.0
  0
ARC
  5
399
100
AcDbEntity
  8
FORT
 62
7
370
-1
  6
CONTINUOUS
100
AcDbCircle
 10
192.8337352314990483
 20
118.7993497893738066
 30
0.0
 40
10.0
100
AcDbArc
 50
270.0
 51
284.0362430000000131
  0
LINE
  5
39A
100
AcDbEntity
100
AcDbLine
  8
FORT
 62
7
370
-1
  6
CONTINUOUS
 10
180.0647912314990435
 20
108.7993497893738066
 30
0.0
 11
192.8337352314990483
 21
108.7993497893738066
 31
0.0
  0
ARC
  5
39B
100
AcDbEntity
  8
FORT
 62
7
370
-1
  6
CONTINUOUS
100
AcDbCircle
 10
180.0647912314990435
 20
112.7993497893738066
 30
0.0
 40
4.0
100
AcDbArc
 50
180.0
 51
270.0
  0
ARC
  5
39C
100
AcDbEntity
  8
FORT
 62
7
370
-1
  6
CONTINUOUS
100
AcDbCircle
 10
200.0647912314990435
 20
123.1762447893738113
 30
0.0
 40
4.0
100
AcDbArc
 50
360.0
 51
75.9637570000000011
  0
LINE
  5
39D
100
AcDbEntity
100
AcDbLine
  8
FORT
 62
7
370
-1
  6
CONTINUOUS
 10
195.2590912314990419
 20
128.5007747893737928
 30
0.0
 11
201.0349342314990508
 21
127.0568147893738029
 31
0.0
  0
ARC
  5
39E
100
AcDbEntity
  8
FORT
 62
7
370
-1
  6
CONTINUOUS
100
AcDbCircle
 10
192.8337352314990483
 20
118.7993497893738066
 30
0.0
 40
10.0
100
AcDbArc
 50
75.9637570000000011
 51
90.0
  0
LINE
  5
39F
100
AcDbEntity
100
AcDbLine
  8
FORT
 62
7
370
-1
  6
CONTINUOUS
 10
180.0647912314990435
 20
128.7993497893738208
 30
0.0
 11
192.8337352314990483
 21
128.7993497893738208
 31
0.0
  0
ARC
  5
3A0
100
AcDbEntity
  8
FORT
 62
7
370
-1
  6
CONTINUOUS
100
AcDbCircle
 10
180.0647912314990435
 20
124.7993497893738066
 30
0.0
 40
4.0
100
AcDbArc
 50
90.0
 51
180.0
  0
MTEXT
  5
3A1
100
AcDbEntity
100
AcDbMText
  8
TEXTE
 62
7
370
-1
  6
CONTINUOUS
 10
183.5839942314990481
 20
132.8101297893738035
 30
0.0
 40
5.0
 41
100.0
 71
7
 72
2
  1
C-C
  7
ISO9
 50
0.0
 73
1
 44
1.0
  0
LINE
  5
3A2
100
AcDbEntity
100
AcDbLine
  8
AXE
 62
256
370
-1
  6
ByLayer
 10
211.0745072314990409
 20
118.7993497893738066
 30
0.0
 11
170.0398192314990524
 21
118.7993497893738066
 31
0.0
  0
LINE
  5
3A3
100
AcDbEntity
100
AcDbLine
  8
FIN
 62
256
370
-1
  6
ByLayer
 10
220.0
 20
50.0
 30
0.0
 11
410.0
 21
50.0
 31
0.0
  0
LINE
  5
3A4
100
AcDbEntity
100
AcDbLine
  8
FIN
 62
5
370
-1
  6
CONTINUOUS
 10
20.0
 20
55.0
 30
0.0
 11
209.9030539999999974
 21
55.0
 31
0.0
  0
LINE
  5
3A5
100
AcDbEntity
100
AcDbLine
  8
FIN
 62
5
370
-1
  6
CONTINUOUS
 10
20.0
 20
64.0
 30
0.0
 11
209.9030539999999974
 21
64.0
 31
0.0
  0
LINE
  5
3A6
100
AcDbEntity
100
AcDbLine
  8
FIN
 62
5
370
-1
  6
CONTINUOUS
 10
20.0
 20
73.0
 30
0.0
 11
209.9030539999999974
 21
73.0
 31
0.0
  0
LINE
  5
3A7
100
AcDbEntity
100
AcDbLine
  8
FIN
 62
5
370
-1
  6
CONTINUOUS
 10
20.0
 20
82.0
 30
0.0
 11
209.9030539999999974
 21
82.0
 31
0.0
  0
LINE
  5
3A8
100
AcDbEntity
100
AcDbLine
  8
FIN
 62
5
370
-1
  6
CONTINUOUS
 10
20.0
 20
91.0
 30
0.0
 11
209.9030539999999974
 21
91.0
 31
0.0
  0
LINE
  5
3A9
100
AcDbEntity
100
AcDbLine
  8
FIN
 62
5
370
-1
  6
CONTINUOUS
 10
20.0
 20
37.0
 30
0.0
 11
209.9515269999999987
 21
37.0
 31
0.0
  0
LINE
  5
3AA
100
AcDbEntity
100
AcDbLine
  8
FIN
 62
5
370
-1
  6
CONTINUOUS
 10
20.0
 20
28.0
 30
0.0
 11
209.9515269999999987
 21
28.0
 31
0.0
  0
LINE
  5
3AB
100
AcDbEntity
100
AcDbLine
  8
FIN
 62
256
370
-1
  6
ByLayer
 10
20.0
 20
19.0
 30
0.0
 11
209.9515269999999987
 21
19.0
 31
0.0
  0
MTEXT
  5
3AC
100
AcDbEntity
100
AcDbMText
  8
TEXTE
 62
7
370
-1
  6
CONTINUOUS
 10
132.8273069846297858
 20
12.0
 30
0.0
 40
5.0
 41
100.0
 71
7
 72
2
  1
MATIERE
  7
ISO9
 50
0.0
 73
1
 44
1.0
  0
MTEXT
  5
3AD
100
AcDbEntity
100
AcDbMText
  8
TEXTE
 62
7
370
-1
  6
CONTINUOUS
 10
332.8757809846297846
 20
43.0
 30
0.0
 40
5.0
 41
100.0
 71
7
 72
2
  1
MATIERE
  7
ISO9
 50
0.0
 73
1
 44
1.0
  0
MTEXT
  5
3AE
100
AcDbEntity
100
AcDbMText
  8
TEXTE
 62
7
370
-1
  6
CONTINUOUS
 10
22.0
 20
12.0
 30
0.0
 40
5.0
 41
100.0
 71
7
 72
2
  1
REP
  7
ISO9
 50
0.0
 73
1
 44
1.0
  0
MTEXT
  5
3AF
100
AcDbEntity
100
AcDbMText
  8
TEXTE
 62
7
370
-1
  6
CONTINUOUS
 10
39.0
 20
12.0
 30
0.0
 40
5.0
 41
100.0
 71
7
 72
2
  1
NB
  7
ISO9
 50
0.0
 73
1
 44
1.0
  0
MTEXT
  5
3B0
100
AcDbEntity
100
AcDbMText
  8
TEXTE
 62
7
370
-1
  6
CONTINUOUS
 10
222.0
 20
43.0
 30
0.0
 40
5.0
 41
100.0
 71
7
 72
2
  1
REP
  7
ISO9
 50
0.0
 73
1
 44
1.0
  0
MTEXT
  5
3B1
100
AcDbEntity
100
AcDbMText
  8
TEXTE
 62
7
370
-1
  6
CONTINUOUS
 10
239.0
 20
43.0
 30
0.0
 40
5.0
 41
100.0
 71
7
 72
2
  1
NB
  7
ISO9
 50
0.0
 73
1
 44
1.0
  0
LINE
  5
3B2
100
AcDbEntity
100
AcDbLine
  8
AXE
 62
256
370
-1
  6
ByLayer
 10
152.934077000000002
 20
156.3887190000000089
 30
0.0
 11
152.934077000000002
 21
182.5094029999999918
 31
0.0
  0
LINE
  5
3B3
100
AcDbEntity
100
AcDbLine
  8
AXE
 62
256
370
-1
  6
ByLayer
 10
116.934077000000002
 20
146.6106049999999925
 30
0.0
 11
116.934077000000002
 21
182.5094029999999918
 31
0.0
  0
LINE
  5
3B4
100
AcDbEntity
100
AcDbLine
  8
AXE
 62
256
370
-1
  6
ByLayer
 10
119.934077000000002
 20
197.1817039999999963
 30
0.0
 11
119.934077000000002
 21
236.5094029999999918
 31
0.0
  0
MTEXT
  5
3B5
100
AcDbEntity
100
AcDbMText
  8
TEXTE
 62
7
370
-1
  6
CONTINUOUS
 10
179.5897759051233891
 20
12.0
 30
0.0
 40
5.0
 41
100.0
 71
7
 72
2
  1
OBS.
  7
ISO9
 50
0.0
 73
1
 44
1.0
  0
MTEXT
  5
3B6
100
AcDbEntity
100
AcDbMText
  8
TEXTE
 62
7
370
-1
  6
CONTINUOUS
 10
381.3495369051233865
 20
43.0
 30
0.0
 40
5.0
 41
100.0
 71
7
 72
2
  1
OBS.
  7
ISO9
 50
0.0
 73
1
 44
1.0
  0
MTEXT
  5
3B7
100
AcDbEntity
100
AcDbMText
  8
TEXTE
 62
7
370
70
  6
CONTINUOUS
 10
231.0037869999999884
 20
11.9279770000000003
 30
0.0
 40
7.0
 41
100.0
 71
7
 72
2
  1
A3
  7
ISO9
 50
0.0
 73
1
 44
1.0
  0
LINE
  5
3B8
100
AcDbEntity
100
AcDbLine
  8
FIN
 62
256
370
-1
  6
ByLayer
 10
220.0
 20
31.0
 30
0.0
 11
260.0
 21
31.0
 31
0.0
  0
LINE
  5
3B9
100
AcDbEntity
100
AcDbLine
  8
AXE
 62
256
370
-1
  6
ByLayer
 10
223.0
 20
26.0
 30
0.0
 11
257.0
 21
26.0
 31
0.0
  0
CIRCLE
  5
3BA
100
AcDbEntity
100
AcDbCircle
  8
FORT
 62
256
370
-1
  6
ByLayer
 10
249.4912073672424526
 20
26.0
 30
0.0
 40
3.0
  0
CIRCLE
  5
3BB
100
AcDbEntity
100
AcDbCircle
  8
FORT
 62
256
370
-1
  6
ByLayer
 10
249.4912073672424526
 20
26.0
 30
0.0
 40
1.4142135623730951
  0
LINE
  5
3BC
100
AcDbEntity
100
AcDbLine
  8
AXE
 62
256
370
-1
  6
ByLayer
 10
249.4912073672424526
 20
30.0
 30
0.0
 11
249.4912073672424526
 21
22.0
 31
0.0
  0
LINE
  5
3BD
100
AcDbEntity
100
AcDbLine
  8
FORT
 62
256
370
-1
  6
ByLayer
 10
227.4912073672424526
 20
27.4142135623730958
 30
0.0
 11
227.4912073672424526
 21
24.5857864376269042
 31
0.0
  0
LINE
  5
3BE
100
AcDbEntity
100
AcDbLine
  8
FORT
 62
256
370
-1
  6
ByLayer
 10
239.4912073672424526
 20
29.0
 30
0.0
 11
239.4912073672424526
 21
23.0
 31
0.0
  0
LINE
  5
3BF
100
AcDbEntity
100
AcDbLine
  8
FORT
 62
256
370
-1
  6
ByLayer
 10
239.4912073672424526
 20
29.0
 30
0.0
 11
227.4912073672424526
 21
27.4142135623730958
 31
0.0
  0
LINE
  5
3C0
100
AcDbEntity
100
AcDbLine
  8
FORT
 62
256
370
-1
  6
ByLayer
 10
239.4912073672424526
 20
23.0
 30
0.0
 11
227.4912073672424526
 21
24.5857864376269042
 31
0.0
  0
LINE
  5
3C1
100
AcDbEntity
100
AcDbLine
  8
FIN
 62
5
370
-1
  6
CONTINUOUS
 10
260.0
 20
10.5
 30
0.0
 11
260.0
 21
41.0
 31
0.0
  0
MTEXT
  5
3C2
100
AcDbEntity
100
AcDbMText
  8
TEXTE
 62
7
370
-1
  6
CONTINUOUS
 10
227.8377560742163439
 20
33.4474042646982994
 30
0.0
 40
5.0
 41
100.0
 71
7
 72
2
  1
Ech.\~1:1
  7
ISO9
 50
0.0
 73
1
 44
1.0
  0
MTEXT
  5
3C3
100
AcDbEntity
100
AcDbMText
  8
TEXTE
 62
7
370
-1
  6
CONTINUOUS
 10
274.1359612125236822
 20
12.6947080000000003
 30
0.0
 40
5.0
 41
100.0
 71
7
 72
2
  1
Dessin\~d'ensemble\~et\~nomenclature
  7
ISO9
 50
0.0
 73
1
 44
1.0
  0
MTEXT
  5
3C4
100
AcDbEntity
100
AcDbMText
  8
TEXTE
 62
7
370
70
  6
CONTINUOUS
 10
299.2677879696394712
 20
27.0
 30
0.0
 40
7.0
 41
100.0
 71
7
 72
2
  1
COUPE-TUBE
  7
ISO9
 50
0.0
 73
1
 44
1.0
  0
MTEXT
  5
3C5
100
AcDbEntity
100
AcDbMText
  8
TEXTE
 62
7
370
35
  6
CONTINUOUS
 10
226.0
 20
52.0
 30
0.0
 40
3.5
 41
100.0
 71
7
 72
2
  1
1
  7
ISO9
 50
0.0
 73
1
 44
1.0
  0
MTEXT
  5
3C6
100
AcDbEntity
100
AcDbMText
  8
TEXTE
 62
7
370
35
  6
CONTINUOUS
 10
241.0
 20
52.0
 30
0.0
 40
3.5
 41
100.0
 71
7
 72
2
  1
1
  7
ISO9
 50
0.0
 73
1
 44
1.0
  0
MTEXT
  5
3C7
100
AcDbEntity
100
AcDbMText
  8
TEXTE
 62
7
370
35
  6
CONTINUOUS
 10
253.0
 20
52.0
 30
0.0
 40
3.5
 41
100.0
 71
7
 72
2
  1
Corps
  7
ISO9
 50
0.0
 73
1
 44
1.0
  0
MTEXT
  5
3C8
100
AcDbEntity
100
AcDbMText
  8
TEXTE
 62
7
370
35
  6
CONTINUOUS
 10
332.8880679999999757
 20
52.0
 30
0.0
 40
3.5
 41
100.0
 71
7
 72
2
  1
GE\~295
  7
ISO9
 50
0.0
 73
1
 44
1.0
  0
MTEXT
  5
3C9
100
AcDbEntity
100
AcDbMText
  8
TEXTE
 62
7
370
35
  6
CONTINUOUS
 10
368.3301220000000171
 20
52.0
 30
0.0
 40
3.5
 41
100.0
 71
7
 72
2
  1
Moul\U+00e9
  7
normallatin2
 50
0.0
 73
1
 44
1.0
  0
MTEXT
  5
3CA
100
AcDbEntity
100
AcDbMText
  8
TEXTE
 62
7
370
35
  6
CONTINUOUS
 10
226.0
 20
61.0
 30
0.0
 40
3.5
 41
100.0
 71
7
 72
2
  1
2
  7
ISO9
 50
0.0
 73
1
 44
1.0
  0
MTEXT
  5
3CB
100
AcDbEntity
100
AcDbMText
  8
TEXTE
 62
7
370
35
  6
CONTINUOUS
 10
241.0
 20
61.0
 30
0.0
 40
3.5
 41
100.0
 71
7
 72
2
  1
1
  7
ISO9
 50
0.0
 73
1
 44
1.0
  0
MTEXT
  5
3CC
100
AcDbEntity
100
AcDbMText
  8
TEXTE
 62
7
370
35
  6
CONTINUOUS
 10
253.0484730000000013
 20
61.0
 30
0.0
 40
3.5
 41
100.0
 71
7
 72
2
  1
Vis\~a\~t\U+00e9ton\~long,\~C\~S,\~M6
  7
normallatin2
 50
0.0
 73
1
 44
1.0
  0
MTEXT
  5
3CD
100
AcDbEntity
100
AcDbMText
  8
TEXTE
 62
7
370
35
  6
CONTINUOUS
 10
226.0
 20
70.0
 30
0.0
 40
3.5
 41
100.0
 71
7
 72
2
  1
3
  7
ISO9
 50
0.0
 73
1
 44
1.0
  0
MTEXT
  5
3CE
100
AcDbEntity
100
AcDbMText
  8
TEXTE
 62
7
370
35
  6
CONTINUOUS
 10
241.0
 20
70.0
 30
0.0
 40
3.5
 41
100.0
 71
7
 72
2
  1
1
  7
ISO9
 50
0.0
 73
1
 44
1.0
  0
MTEXT
  5
3CF
100
AcDbEntity
100
AcDbMText
  8
TEXTE
 62
7
370
35
  6
CONTINUOUS
 10
226.0
 20
79.0
 30
0.0
 40
3.5
 41
100.0
 71
7
 72
2
  1
4
  7
ISO9
 50
0.0
 73
1
 44
1.0
  0
MTEXT
  5
3D0
100
AcDbEntity
100
AcDbMText
  8
TEXTE
 62
7
370
35
  6
CONTINUOUS
 10
241.0
 20
79.0
 30
0.0
 40
3.5
 41
100.0
 71
7
 72
2
  1
1
  7
ISO9
 50
0.0
 73
1
 44
1.0
  0
MTEXT
  5
3D1
100
AcDbEntity
100
AcDbMText
  8
TEXTE
 62
7
370
35
  6
CONTINUOUS
 10
253.0
 20
79.0
 30
0.0
 40
3.5
 41
100.0
 71
7
 72
2
  1
Vis\~de\~manoeuvre
  7
ISO9
 50
0.0
 73
1
 44
1.0
  0
MTEXT
  5
3D2
100
AcDbEntity
100
AcDbMText
  8
TEXTE
 62
7
370
35
  6
CONTINUOUS
 10
332.8880679999999757
 20
79.0
 30
0.0
 40
3.5
 41
100.0
 71
7
 72
2
  1
C\~40
  7
ISO9
 50
0.0
 73
1
 44
1.0
  0
MTEXT
  5
3D3
100
AcDbEntity
100
AcDbMText
  8
TEXTE
 62
7
370
35
  6
CONTINUOUS
 10
26.0
 20
21.0
 30
0.0
 40
3.5
 41
100.0
 71
7
 72
2
  1
5
  7
ISO9
 50
0.0
 73
1
 44
1.0
  0
MTEXT
  5
3D4
100
AcDbEntity
100
AcDbMText
  8
TEXTE
 62
7
370
35
  6
CONTINUOUS
 10
40.9515269999999987
 20
21.0
 30
0.0
 40
3.5
 41
100.0
 71
7
 72
2
  1
1
  7
ISO9
 50
0.0
 73
1
 44
1.0
  0
MTEXT
  5
3D5
100
AcDbEntity
100
AcDbMText
  8
TEXTE
 62
7
370
35
  6
CONTINUOUS
 10
52.9515269999999987
 20
21.0
 30
0.0
 40
3.5
 41
100.0
 71
7
 72
2
  1
Goupille\~\U+00e9lastique\~3x20
  7
normallatin2
 50
0.0
 73
1
 44
1.0
  0
MTEXT
  5
3D6
100
AcDbEntity
100
AcDbMText
  8
TEXTE
 62
7
370
35
  6
CONTINUOUS
 10
26.0
 20
30.0
 30
0.0
 40
3.5
 41
100.0
 71
7
 72
2
  1
6
  7
ISO9
 50
0.0
 73
1
 44
1.0
  0
MTEXT
  5
3D7
100
AcDbEntity
100
AcDbMText
  8
TEXTE
 62
7
370
35
  6
CONTINUOUS
 10
40.9515269999999987
 20
30.0
 30
0.0
 40
3.5
 41
100.0
 71
7
 72
2
  1
1
  7
ISO9
 50
0.0
 73
1
 44
1.0
  0
MTEXT
  5
3D8
100
AcDbEntity
100
AcDbMText
  8
TEXTE
 62
7
370
35
  6
CONTINUOUS
 10
52.9515269999999987
 20
30.0
 30
0.0
 40
3.5
 41
100.0
 71
7
 72
2
  1
Ecrou\~a\~croisillon\~M10
  7
normallatin1
 50
0.0
 73
1
 44
1.0
  0
MTEXT
  5
3D9
100
AcDbEntity
100
AcDbMText
  8
TEXTE
 62
7
370
35
  6
CONTINUOUS
 10
26.0
 20
43.2220367277509538
 30
0.0
 40
3.5
 41
100.0
 71
7
 72
2
  1
7
  7
ISO9
 50
0.0
 73
1
 44
1.0
  0
MTEXT
  5
3DA
100
AcDbEntity
100
AcDbMText
  8
TEXTE
 62
7
370
35
  6
CONTINUOUS
 10
40.9515269999999987
 20
43.2220367277509538
 30
0.0
 40
3.5
 41
100.0
 71
7
 72
2
  1
3
  7
ISO9
 50
0.0
 73
1
 44
1.0
  0
MTEXT
  5
3DB
100
AcDbEntity
100
AcDbMText
  8
TEXTE
 62
7
370
35
  6
CONTINUOUS
 10
25.9515269999999987
 20
57.0
 30
0.0
 40
3.5
 41
100.0
 71
7
 72
2
  1
8
  7
ISO9
 50
0.0
 73
1
 44
1.0
  0
MTEXT
  5
3DC
100
AcDbEntity
100
AcDbMText
  8
TEXTE
 62
7
370
35
  6
CONTINUOUS
 10
40.9030539999999974
 20
57.0
 30
0.0
 40
3.5
 41
100.0
 71
7
 72
2
  1
3
  7
ISO9
 50
0.0
 73
1
 44
1.0
  0
MTEXT
  5
3DD
100
AcDbEntity
100
AcDbMText
  8
TEXTE
 62
7
370
35
  6
CONTINUOUS
 10
52.9030539999999974
 20
57.0
 30
0.0
 40
3.5
 41
100.0
 71
7
 72
2
  1
Axe
  7
ISO9
 50
0.0
 73
1
 44
1.0
  0
MTEXT
  5
3DE
100
AcDbEntity
100
AcDbMText
  8
TEXTE
 62
7
370
35
  6
CONTINUOUS
 10
25.9515269999999987
 20
66.0
 30
0.0
 40
3.5
 41
100.0
 71
7
 72
2
  1
9
  7
ISO9
 50
0.0
 73
1
 44
1.0
  0
MTEXT
  5
3DF
100
AcDbEntity
100
AcDbMText
  8
TEXTE
 62
7
370
35
  6
CONTINUOUS
 10
40.9030539999999974
 20
66.0
 30
0.0
 40
3.5
 41
100.0
 71
7
 72
2
  1
3
  7
ISO9
 50
0.0
 73
1
 44
1.0
  0
MTEXT
  5
3E0
100
AcDbEntity
100
AcDbMText
  8
TEXTE
 62
7
370
35
  6
CONTINUOUS
 10
52.9030539999999974
 20
66.0
 30
0.0
 40
3.5
 41
100.0
 71
7
 72
2
  1
Molette
  7
ISO9
 50
0.0
 73
1
 44
1.0
  0
MTEXT
  5
3E1
100
AcDbEntity
100
AcDbMText
  8
TEXTE
 62
7
370
35
  6
CONTINUOUS
 10
166.5218879999999899
 20
66.0
 30
0.0
 40
3.5
 41
100.0
 71
7
 72
2
  1
Trait.\~thermique
  7
ISO9
 50
0.0
 73
1
 44
1.0
  0
MTEXT
  5
3E2
100
AcDbEntity
100
AcDbMText
  8
TEXTE
 62
7
370
35
  6
CONTINUOUS
 10
23.9515269999999987
 20
75.0
 30
0.0
 40
3.5
 41
100.0
 71
7
 72
2
  1
10
  7
ISO9
 50
0.0
 73
1
 44
1.0
  0
MTEXT
  5
3E3
100
AcDbEntity
100
AcDbMText
  8
TEXTE
 62
7
370
35
  6
CONTINUOUS
 10
40.9030539999999974
 20
75.0
 30
0.0
 40
3.5
 41
100.0
 71
7
 72
2
  1
1
  7
ISO9
 50
0.0
 73
1
 44
1.0
  0
MTEXT
  5
3E4
100
AcDbEntity
100
AcDbMText
  8
TEXTE
 62
7
370
35
  6
CONTINUOUS
 10
52.9030539999999974
 20
75.0
 30
0.0
 40
3.5
 41
100.0
 71
7
 72
2
  1
Chariot
  7
ISO9
 50
0.0
 73
1
 44
1.0
  0
MTEXT
  5
3E5
100
AcDbEntity
100
AcDbMText
  8
TEXTE
 62
7
370
35
  6
CONTINUOUS
 10
166.5218879999999899
 20
75.0
 30
0.0
 40
3.5
 41
100.0
 71
7
 72
2
  1
Moul\U+00e9
  7
normallatin2
 50
0.0
 73
1
 44
1.0
  0
MTEXT
  5
3E6
100
AcDbEntity
100
AcDbMText
  8
TEXTE
 62
7
370
35
  6
CONTINUOUS
 10
23.9515269999999987
 20
84.0
 30
0.0
 40
3.5
 41
100.0
 71
7
 72
2
  1
11
  7
ISO9
 50
0.0
 73
1
 44
1.0
  0
MTEXT
  5
3E7
100
AcDbEntity
100
AcDbMText
  8
TEXTE
 62
7
370
35
  6
CONTINUOUS
 10
40.9030539999999974
 20
84.0
 30
0.0
 40
3.5
 41
100.0
 71
7
 72
2
  1
4
  7
ISO9
 50
0.0
 73
1
 44
1.0
  0
MTEXT
  5
3E8
100
AcDbEntity
100
AcDbMText
  8
TEXTE
 62
7
370
35
  6
CONTINUOUS
 10
52.9030539999999974
 20
84.0
 30
0.0
 40
3.5
 41
100.0
 71
7
 72
2
  1
Vis\~C\~HC,\~M5-12
  7
ISO9
 50
0.0
 73
1
 44
1.0
  0
MTEXT
  5
3E9
100
AcDbEntity
100
AcDbMText
  8
TEXTE
 62
7
370
35
  6
CONTINUOUS
 10
23.9515269999999987
 20
93.0
 30
0.0
 40
3.5
 41
100.0
 71
7
 72
2
  1
12
  7
ISO9
 50
0.0
 73
1
 44
1.0
  0
MTEXT
  5
3EA
100
AcDbEntity
100
AcDbMText
  8
TEXTE
 62
7
370
35
  6
CONTINUOUS
 10
40.9030539999999974
 20
93.0
 30
0.0
 40
3.5
 41
100.0
 71
7
 72
2
  1
1
  7
ISO9
 50
0.0
 73
1
 44
1.0
  0
MTEXT
  5
3EB
100
AcDbEntity
100
AcDbMText
  8
TEXTE
 62
7
370
35
  6
CONTINUOUS
 10
52.9030539999999974
 20
93.0
 30
0.0
 40
3.5
 41
100.0
 71
7
 72
2
  1
Plaquette
  7
ISO9
 50
0.0
 73
1
 44
1.0
  0
MTEXT
  5
3EC
100
AcDbEntity
100
AcDbMText
  8
TEXTE
 62
7
370
35
  6
CONTINUOUS
 10
52.9515269999999987
 20
41.6129841337917483
 30
0.0
 40
3.5
 41
100.0
 71
7
 72
2
  1
Anneau\~\U+00e9lastique\~pour\~arbre,\P8x0,8
  7
normallatin2
 50
0.0
 73
1
 44
1.0
  0
MTEXT
  5
3ED
100
AcDbEntity
100
AcDbMText
  8
TEXTE
 62
7
370
35
  6
CONTINUOUS
 10
253.0
 20
70.0
 30
0.0
 40
3.5
 41
100.0
 71
7
 72
2
  1
Rondelle\~a\~dents,\~DEC\~6
  7
ISO9
 50
0.0
 73
1
 44
1.0
  0
LINE
  5
3EE
100
AcDbEntity
100
AcDbLine
  8
TEXTE
 62
256
370
35
  6
ByLayer
 10
69.3957507136513101
 20
32.8692950680144165
 30
0.0
 11
68.4475979713047451
 21
33.5916971574213221
 31
0.0
  0
LINE
  5
3EF
100
AcDbEntity
100
AcDbLine
  8
TEXTE
 62
256
370
35
  6
ByLayer
 10
264.0483356592292239
 20
63.8692954572560936
 30
0.0
 11
263.1001829168826589
 21
64.5916975466629992
 31
0.0
  0
LINE
  5
3F0
100
AcDbEntity
100
AcDbLine
  8
TEXTE
 62
256
370
35
  6
ByLayer
 10
276.4443014914290302
 20
72.8692954572561007
 30
0.0
 11
275.4961487490824652
 21
73.5916975466629992
 31
0.0
  0
LINE
  5
3F1
100
AcDbEntity
100
AcDbLine
  8
FIN
 62
256
370
-1
  6
ByLayer
 10
130.3163071167361977
 20
100.0
 30
0.0
 11
130.3163071167361977
 21
10.0
 31
0.0
  0
MTEXT
  5
3F2
100
AcDbEntity
100
AcDbMText
  8
TEXTE
 62
7
370
35
  6
CONTINUOUS
 10
133.2678341167361964
 20
57.0
 30
0.0
 40
3.5
 41
100.0
 71
7
 72
2
  1
C\~40
  7
ISO9
 50
0.0
 73
1
 44
1.0
  0
MTEXT
  5
3F3
100
AcDbEntity
100
AcDbMText
  8
TEXTE
 62
7
370
35
  6
CONTINUOUS
 10
133.2678341167361964
 20
66.0
 30
0.0
 40
3.5
 41
100.0
 71
7
 72
2
  1
C\~60
  7
ISO9
 50
0.0
 73
1
 44
1.0
  0
MTEXT
  5
3F4
100
AcDbEntity
100
AcDbMText
  8
TEXTE
 62
7
370
35
  6
CONTINUOUS
 10
133.2678341167361964
 20
75.0
 30
0.0
 40
3.5
 41
100.0
 71
7
 72
2
  1
GE\~295
  7
ISO9
 50
0.0
 73
1
 44
1.0
  0
MTEXT
  5
3F5
100
AcDbEntity
100
AcDbMText
  8
TEXTE
 62
7
370
35
  6
CONTINUOUS
 10
133.2678341167361964
 20
93.0
 30
0.0
 40
3.5
 41
100.0
 71
7
 72
2
  1
S\~275
  7
ISO9
 50
0.0
 73
1
 44
1.0
  0
ENDSEC
  0
SECTION
  2
OBJECTS
  0
DICTIONARY
  5
C
100
AcDbDictionary
280
0
281
1
  3
ACAD_GROUP
350
D
  3
ACAD_LAYOUT
350
1A
  3
ACAD_MLINESTYLE
350
17
  3
ACAD_PLOTSETTINGS
350
19
  3
ACAD_PLOTSTYLENAME
350
E
  3
AcDbVariableDictionary
350
3F6
  0
DICTIONARY
  5
D
100
AcDbDictionary
280
0
281
1
  0
ACDBDICTIONARYWDFLT
  5
E
100
AcDbDictionary
281
1
  3
Normal
350
F
100
AcDbDictionaryWithDefault
340
F
  0
ACDBPLACEHOLDER
  5
F
  0
DICTIONARY
  5
17
100
AcDbDictionary
280
0
281
1
  3
Standard
350
18
  0
MLINESTYLE
  5
18
100
AcDbMlineStyle
  2
STANDARD
 70
0
  3

 62
256
 51
90.0
 52
90.0
 71
2
 49
0.5
 62
256
  6
BYLAYER
 49
-0.5
 62
256
  6
BYLAYER
  0
DICTIONARY
  5
19
100
AcDbDictionary
280
0
281
1
  0
DICTIONARY
  5
1A
100
AcDbDictionary
281
1
  3
Layout1
350
1E
  3
Layout2
350
26
  3
Model
350
22
  0
LAYOUT
  5
1E
100
AcDbPlotSettings
  1

  2
C:\Program Files\AutoCAD 2002\plotters\DWF ePlot (optimized for plotting).pc3
  4

  6

 40
0.0
 41
0.0
 42
0.0
 43
0.0
 44
0.0
 45
0.0
 46
0.0
 47
0.0
 48
0.0
 49
0.0
140
0.0
141
0.0
142
1.0
143
1.0
 70
688
 72
0
 73
0
 74
5
  7

 75
16
147
1.0
148
0.0
149
0.0
100
AcDbLayout
  1
Layout1
 70
1
 71
1
 10
0.0
 20
0.0
 11
420.0
 21
297.0
 12
0.0
 22
0.0
 32
0.0
 14
100000000000000000000.0
 24
100000000000000000000.0
 34
100000000000000000000.0
 15
-100000000000000000000.0
 25
-100000000000000000000.0
 35
-100000000000000000000.0
146
0.0
 13
0.0
 23
0.0
 33
0.0
 16
1.0
 26
0.0
 36
0.0
 17
0.0
 27
1.0
 37
0.0
 76
0
330
1B
  0
LAYOUT
  5
22
100
AcDbPlotSettings
  1

  2
C:\Program Files\AutoCAD 2002\plotters\DWF ePlot (optimized for plotting).pc3
  4

  6

 40
0.0
 41
0.0
 42
0.0
 43
0.0
 44
0.0
 45
0.0
 46
0.0
 47
0.0
 48
0.0
 49
0.0
140
0.0
141
0.0
142
1.0
143
1.0
 70
1712
 72
0
 73
0
 74
0
  7

 75
0
147
1.0
148
0.0
149
0.0
100
AcDbLayout
  1
Model
 70
1
 71
0
 10
0.0
 20
0.0
 11
12.0
 21
9.0
 12
0.0
 22
0.0
 32
0.0
 14
0.0
 24
0.0
 34
0.0
 15
0.0
 25
0.0
 35
0.0
146
0.0
 13
0.0
 23
0.0
 33
0.0
 16
1.0
 26
0.0
 36
0.0
 17
0.0
 27
1.0
 37
0.0
 76
0
330
1F
  0
LAYOUT
  5
26
100
AcDbPlotSettings
  1

  2
C:\Program Files\AutoCAD 2002\plotters\DWF ePlot (optimized for plotting).pc3
  4

  6

 40
0.0
 41
0.0
 42
0.0
 43
0.0
 44
0.0
 45
0.0
 46
0.0
 47
0.0
 48
0.0
 49
0.0
140
0.0
141
0.0
142
1.0
143
1.0
 70
688
 72
0
 73
0
 74
5
  7

 75
16
147
1.0
148
0.0
149
0.0
100
AcDbLayout
  1
Layout2
 70
1
 71
2
 10
0.0
 20
0.0
 11
12.0
 21
9.0
 12
0.0
 22
0.0
 32
0.0
 14
0.0
 24
0.0
 34
0.0
 15
0.0
 25
0.0
 35
0.0
146
0.0
 13
0.0
 23
0.0
 33
0.0
 16
1.0
 26
0.0
 36
0.0
 17
0.0
 27
1.0
 37
0.0
 76
0
330
23
  0
DICTIONARY
  5
3F6
100
AcDbDictionary
281
1
  3
DIMASSOC
350
3F8
  3
HIDETEXT
350
3F7
  0
DICTIONARYVAR
  5
3F7
100
DictionaryVariables
280
0
  1
2
  0
DICTIONARYVAR
  5
3F8
100
DictionaryVariables
280
0
  1
1
  0
ENDSEC
  0
EOF
