999
dxflib 2.2.0.0
  0
SECTION
  2
HEADER
  9
$ACADVER
  1
AC1015
  9
$HANDSEED
  5
FFFF
  9
$EXTMAX
 10
297.0
 20
420.0
 30
0.0
  9
$VIEWSIZE
 40
9.0
  9
$DIMALTD
 70
2
  9
$LIMCHECK
 70
0
  9
$SNAPISOPAIR
 70
0
  9
$DIMTXT
 40
0.18
  9
$DIMALTF
 40
25.3999999999999986
  9
$VIEWCTR
 10
6.0
 20
4.5
  9
$PDMODE
 70
0
  9
$CELTYPE
  6
CONTINUOUS
  9
$DIMSHO
 70
1
  9
$DIMTAD
 70
0
  9
$FASTZOOM
 70
1
  9
$AXISUNIT
 10
0.0
 20
0.0
 30
0.0
  9
$DIMTIH
 70
1
  9
$SNAPUNIT
 10
5.0
 20
5.0
 30
0.0
  9
$SKPOLY
 70
0
  9
$REGENMODE
 70
1
  9
$DIMDLE
 40
0.0
  9
$SNAPSTYLE
 70
0
  9
$TEXTSTYLE
  7
STANDARD
  9
$AXISMODE
 70
0
  9
$SKETCHINC
 40
0.1
  9
$SNAPANG
 50
0.0
  9
$VIEWDIR
 10
0.0
 20
0.0
 30
1.0
  9
$DIMDLI
 40
0.38
  9
$TDUSRTIMER
 40
0.0
  9
$ANGBASE
 50
0.0
  9
$DIMASO
 70
1
  9
$SPLFRAME
 70
0
  9
$SNAPMODE
 70
0
  9
$USRTIMER
 70
1
  9
$DIMASZ
 40
0.18
  9
$GRIDUNIT
 10
5.0
 20
5.0
  9
$INSBASE
 10
0.0
 20
0.0
 30
0.0
  9
$SPLINESEGS
 70
10
  9
$CHAMFERA
 40
0.0
  9
$CHAMFERB
 40
0.0
  9
$QTEXTMODE
 70
0
  9
$DRAGMODE
 70
2
  9
$ATTMODE
 70
1
  9
$USERI1
 70
0
  9
$BLIPMODE
 70
1
  9
$USERI2
 70
0
  9
$AUNITS
 70
0
  9
$USERI3
 70
0
  9
$USERI4
 70
0
  9
$USERI5
 70
0
  9
$DIMALT
 70
0
  9
$DIMSTYLE
  2
Standard
  9
$DIMCEN
 40
0.09
  9
$MENU
  1
acad
  9
$TDUPDATE
 40
0.0
  9
$COORDS
 70
2
  9
$DIMTSZ
 40
0.0
  9
$PLIMMAX
 10
297.0
 20
420.0
  9
$DIMADEC
 70
0
  9
$ATTREQ
 70
1
  9
$TRACEWID
 40
0.05
  9
$DIMSE1
 70
0
  9
$PINSBASE
 10
0.0
 20
0.0
 30
0.0
  9
$DIMSE2
 70
0
  9
$USERR1
 40
0.0
  9
$ATTDIA
 70
0
  9
$USERR2
 40
0.0
  9
$ANGDIR
 70
0
  9
$USERR3
 40
0.0
  9
$USERR4
 40
0.0
  9
$GRIDMODE
 70
0
  9
$USERR5
 40
0.0
  9
$DIMLIM
 70
0
  9
$DIMAUNIT
 70
0
  9
$PLINEWID
 40
0.0
  9
$DIMLUNIT
 70
2
  9
$FILLETRAD
 40
1.0
  9
$AUPREC
 70
0
  9
$CECOLOR
 62
5
  9
$TDCREATE
 40
0.0
  9
$SNAPBASE
 10
0.0
 20
0.0
 30
0.0
  9
$DIMEXE
 40
0.18
  9
$LIMMIN
 10
-19.446314000000001
 20
-6.4948449999999998
  9
$THICKNESS
 40
0.0
  9
$PDSIZE
 40
0.0
  9
$CLAYER
  8
FIN
  9
$ELEVATION
 40
0.0
  9
$DIMEXO
 40
0.0625
  9
$ORTHOMODE
 70
0
  9
$INSUNITS
 70
4
  9
$LIMMAX
 10
673.9078530000000455
 20
426.494844999999998
  9
$DIMTM
 40
0.0
  9
$DIMRND
 40
0.0
  9
$LUNITS
 70
2
  9
$DIMTP
 40
0.0
  9
$TEXTSIZE
 40
0.2
  9
$DIMGAP
 40
0.625
  9
$OSMODE
 70
0
  9
$DIMLFAC
 40
1.0
  9
$LTSCALE
 40
0.3
  9
$FILLMODE
 70
1
  9
$DIMTOH
 70
1
  9
$DIMSCALE
 40
1.0
  9
$PLIMMIN
 10
0.0
 20
0.0
  9
$DIMTOL
 70
0
  9
$EXTMIN
 10
0.0
 20
0.0
 30
0.0
  9
$DIMZIN
 70
0
  9
$TDINDWG
 40
0.0
  9
$LUPREC
 70
4
  0
ENDSEC
  0
SECTION
  2
TABLES
  0
TABLE
  2
VPORT
  5
8
100
AcDbSymbolTable
 70
1
  0
VPORT
  5
30
100
AcDbSymbolTableRecord
100
AcDbViewportTableRecord
  2
*Active
 70
0
 10
0.0
 20
0.0
 11
1.0
 21
1.0
 12
286.3055555555554861
 22
148.5
 13
0.0
 23
0.0
 14
10.0
 24
10.0
 15
10.0
 25
10.0
 16
0.0
 26
0.0
 36
1.0
 17
0.0
 27
0.0
 37
0.0
 40
297.0
 41
1.92798353909465
 42
50.0
 43
0.0
 44
0.0
 50
0.0
 51
0.0
 71
0
 72
100
 73
1
 74
3
 75
1
 76
1
 77
0
 78
0
281
0
 65
1
110
0.0
120
0.0
130
0.0
111
1.0
121
0.0
131
0.0
112
0.0
122
1.0
132
0.0
 79
0
146
0.0
  0
ENDTAB
  0
TABLE
  2
LTYPE
  5
5
100
AcDbSymbolTable
 70
21
  0
LTYPE
  5
14
100
AcDbSymbolTableRecord
100
AcDbLinetypeTableRecord
  2
ByBlock
 70
0
  3

 72
65
 73
0
 40
0.0
  0
LTYPE
  5
15
100
AcDbSymbolTableRecord
100
AcDbLinetypeTableRecord
  2
ByLayer
 70
0
  3

 72
65
 73
0
 40
0.0
  0
LTYPE
  5
16
100
AcDbSymbolTableRecord
100
AcDbLinetypeTableRecord
  2
CONTINUOUS
 70
0
  3
Solid line
 72
65
 73
0
 40
0.0
  0
LTYPE
  5
31
100
AcDbSymbolTableRecord
100
AcDbLinetypeTableRecord
  2
DOT
 70
0
  3
Dot . . . . . . . . . . . . . . . . . . . . . .
 72
65
 73
2
 40
6.3499999999999996
 49
0.0
 74
0
 49
-6.3499999999999996
 74
0
  0
LTYPE
  5
32
100
AcDbSymbolTableRecord
100
AcDbLinetypeTableRecord
  2
DOT2
 70
0
  3
Dot (.5x) .....................................
 72
65
 73
2
 40
3.1749999999999998
 49
0.0
 74
0
 49
-3.1749999999999998
 74
0
  0
LTYPE
  5
33
100
AcDbSymbolTableRecord
100
AcDbLinetypeTableRecord
  2
DOTX2
 70
0
  3
Dot (2x) .  .  .  .  .  .  .  .  .  .  .  .  .
 72
65
 73
2
 40
12.6999999999999993
 49
0.0
 74
0
 49
-12.6999999999999993
 74
0
  0
LTYPE
  5
34
100
AcDbSymbolTableRecord
100
AcDbLinetypeTableRecord
  2
DASHED
 70
0
  3
Dashed __ __ __ __ __ __ __ __ __ __ __ __ __ _
 72
65
 73
2
 40
19.0500000000000007
 49
12.6999999999999993
 74
0
 49
-6.3499999999999996
 74
0
  0
LTYPE
  5
35
100
AcDbSymbolTableRecord
100
AcDbLinetypeTableRecord
  2
DASHED2
 70
0
  3
Dashed (.5x) _ _ _ _ _ _ _ _ _ _ _ _ _ _ _ _ _
 72
65
 73
2
 40
9.5250000000000004
 49
6.3499999999999996
 74
0
 49
-3.1749999999999998
 74
0
  0
LTYPE
  5
36
100
AcDbSymbolTableRecord
100
AcDbLinetypeTableRecord
  2
DASHEDX2
 70
0
  3
Dashed (2x) ____  ____  ____  ____  ____  ___
 72
65
 73
2
 40
38.1000000000000014
 49
25.3999999999999986
 74
0
 49
-12.6999999999999993
 74
0
  0
LTYPE
  5
37
100
AcDbSymbolTableRecord
100
AcDbLinetypeTableRecord
  2
DASHDOT
 70
0
  3
Dash dot __ . __ . __ . __ . __ . __ . __ . __
 72
65
 73
4
 40
25.3999999999999986
 49
12.6999999999999993
 74
0
 49
-6.3499999999999996
 74
0
 49
0.0
 74
0
 49
-6.3499999999999996
 74
0
  0
LTYPE
  5
38
100
AcDbSymbolTableRecord
100
AcDbLinetypeTableRecord
  2
DASHDOT2
 70
0
  3
Dash dot (.5x) _._._._._._._._._._._._._._._.
 72
65
 73
4
 40
12.6999999999999993
 49
6.3499999999999996
 74
0
 49
-3.1749999999999998
 74
0
 49
0.0
 74
0
 49
-3.1749999999999998
 74
0
  0
LTYPE
  5
39
100
AcDbSymbolTableRecord
100
AcDbLinetypeTableRecord
  2
DASHDOTX2
 70
0
  3
Dash dot (2x) ____  .  ____  .  ____  .  ___
 72
65
 73
4
 40
50.7999999999999972
 49
25.3999999999999986
 74
0
 49
-12.6999999999999993
 74
0
 49
0.0
 74
0
 49
-12.6999999999999993
 74
0
  0
LTYPE
  5
3A
100
AcDbSymbolTableRecord
100
AcDbLinetypeTableRecord
  2
DIVIDE
 70
0
  3
Divide ____ . . ____ . . ____ . . ____ . . ____
 72
65
 73
6
 40
31.75
 49
12.6999999999999993
 74
0
 49
-6.3499999999999996
 74
0
 49
0.0
 74
0
 49
-6.3499999999999996
 74
0
 49
0.0
 74
0
 49
-6.3499999999999996
 74
0
  0
LTYPE
  5
3B
100
AcDbSymbolTableRecord
100
AcDbLinetypeTableRecord
  2
DIVIDE2
 70
0
  3
Divide (.5x) __..__..__..__..__..__..__..__.._
 72
65
 73
6
 40
15.875
 49
6.3499999999999996
 74
0
 49
-3.1749999999999998
 74
0
 49
0.0
 74
0
 49
-3.1749999999999998
 74
0
 49
0.0
 74
0
 49
-3.1749999999999998
 74
0
  0
LTYPE
  5
3C
100
AcDbSymbolTableRecord
100
AcDbLinetypeTableRecord
  2
DIVIDEX2
 70
0
  3
Divide (2x) ________  .  .  ________  .  .  _
 72
65
 73
6
 40
63.5
 49
25.3999999999999986
 74
0
 49
-12.6999999999999993
 74
0
 49
0.0
 74
0
 49
-12.6999999999999993
 74
0
 49
0.0
 74
0
 49
-12.6999999999999993
 74
0
  0
LTYPE
  5
3D
100
AcDbSymbolTableRecord
100
AcDbLinetypeTableRecord
  2
CENTER
 70
0
  3
Center ____ _ ____ _ ____ _ ____ _ ____ _ ____
 72
65
 73
4
 40
50.7999999999999972
 49
31.75
 74
0
 49
-6.3499999999999996
 74
0
 49
6.3499999999999996
 74
0
 49
-6.3499999999999996
 74
0
  0
LTYPE
  5
3E
100
AcDbSymbolTableRecord
100
AcDbLinetypeTableRecord
  2
CENTER2
 70
0
  3
Center (.5x) ___ _ ___ _ ___ _ ___ _ ___ _ ___
 72
65
 73
4
 40
28.5749999999999993
 49
19.0500000000000007
 74
0
 49
-3.1749999999999998
 74
0
 49
3.1749999999999998
 74
0
 49
-3.1749999999999998
 74
0
  0
LTYPE
  5
3F
100
AcDbSymbolTableRecord
100
AcDbLinetypeTableRecord
  2
CENTERX2
 70
0
  3
Center (2x) ________  __  ________  __  _____
 72
65
 73
4
 40
101.5999999999999943
 49
63.5
 74
0
 49
-12.6999999999999993
 74
0
 49
12.6999999999999993
 74
0
 49
-12.6999999999999993
 74
0
  0
LTYPE
  5
40
100
AcDbSymbolTableRecord
100
AcDbLinetypeTableRecord
  2
BORDER
 70
0
  3
Border __ __ . __ __ . __ __ . __ __ . __ __ .
 72
65
 73
6
 40
44.4500000000000028
 49
12.6999999999999993
 74
0
 49
-6.3499999999999996
 74
0
 49
12.6999999999999993
 74
0
 49
-6.3499999999999996
 74
0
 49
0.0
 74
0
 49
-6.3499999999999996
 74
0
  0
LTYPE
  5
41
100
AcDbSymbolTableRecord
100
AcDbLinetypeTableRecord
  2
BORDER2
 70
0
  3
Border (.5x) __.__.__.__.__.__.__.__.__.__.__.
 72
65
 73
6
 40
22.2250000000000014
 49
6.3499999999999996
 74
0
 49
-3.1749999999999998
 74
0
 49
6.3499999999999996
 74
0
 49
-3.1749999999999998
 74
0
 49
0.0
 74
0
 49
-3.1749999999999998
 74
0
  0
LTYPE
  5
42
100
AcDbSymbolTableRecord
100
AcDbLinetypeTableRecord
  2
BORDERX2
 70
0
  3
Border (2x) ____  ____  .  ____  ____  .  ___
 72
65
 73
6
 40
88.9000000000000057
 49
25.3999999999999986
 74
0
 49
-12.6999999999999993
 74
0
 49
25.3999999999999986
 74
0
 49
-12.6999999999999993
 74
0
 49
0.0
 74
0
 49
-12.6999999999999993
 74
0
  0
ENDTAB
  0
TABLE
  2
LAYER
  5
2
100
AcDbSymbolTable
 70
7
  0
LAYER
  5
10
100
AcDbSymbolTableRecord
100
AcDbLayerTableRecord
  2
0
 70
0
 62
7
  6
CONTINUOUS
290
1
390
F
  0
LAYER
  5
43
100
AcDbSymbolTableRecord
100
AcDbLayerTableRecord
  2
FORT
 70
0
 62
7
  6
CONTINUOUS
290
1
370
50
390
F
  0
LAYER
  5
44
100
AcDbSymbolTableRecord
100
AcDbLayerTableRecord
  2
FIN
 70
0
 62
7
  6
CONTINUOUS
290
1
370
25
390
F
  0
LAYER
  5
45
100
AcDbSymbolTableRecord
100
AcDbLayerTableRecord
  2
TEXTE
 70
0
 62
7
  6
CONTINUOUS
290
1
370
50
390
F
  0
LAYER
  5
46
100
AcDbSymbolTableRecord
100
AcDbLayerTableRecord
  2
HACHURE
 70
0
 62
7
  6
CONTINUOUS
290
1
390
F
  0
LAYER
  5
47
100
AcDbSymbolTableRecord
100
AcDbLayerTableRecord
  2
RENFORCE
 70
0
 62
7
  6
CONTINUOUS
290
1
370
70
390
F
  0
LAYER
  5
48
100
AcDbSymbolTableRecord
100
AcDbLayerTableRecord
  2
AXE
 70
0
 62
3
  6
CENTER
290
1
370
25
390
F
  0
ENDTAB
  0
TABLE
  2
STYLE
  5
3
100
AcDbSymbolTable
 70
1
  0
STYLE
  5
11
100
AcDbSymbolTableRecord
100
AcDbTextStyleTableRecord
  2
Standard
 70
0
 40
0.0
 41
0.75
 50
0.0
 71
0
 42
2.5
  3
txt
  4

  0
ENDTAB
  0
TABLE
  2
VIEW
  5
6
100
AcDbSymbolTable
 70
0
  0
ENDTAB
  0
TABLE
  2
UCS
  5
7
100
AcDbSymbolTable
 70
0
  0
ENDTAB
  0
TABLE
  2
APPID
  5
9
100
AcDbSymbolTable
 70
1
  0
APPID
  5
12
100
AcDbSymbolTableRecord
100
AcDbRegAppTableRecord
  2
ACAD
 70
0
  0
ENDTAB
  0
TABLE
  2
DIMSTYLE
  5
A
100
AcDbSymbolTable
 70
1
100
AcDbDimStyleTable
 71
0
  0
DIMSTYLE
105
27
100
AcDbSymbolTableRecord
100
AcDbDimStyleTableRecord
  2
Standard
 41
0.18
 42
0.0625
 43
3.75
 44
0.18
 70
0
 73
0
 74
0
 77
1
 78
8
140
0.18
141
2.5
143
0.03937007874016
147
0.625
171
3
172
1
271
2
272
2
274
3
278
44
283
0
284
8
340
11
  0
ENDTAB
  0
TABLE
  2
BLOCK_RECORD
  5
1
100
AcDbSymbolTable
 70
1
  0
BLOCK_RECORD
  5
1F
100
AcDbSymbolTableRecord
100
AcDbBlockTableRecord
  2
*Model_Space
340
22
  0
BLOCK_RECORD
  5
1B
100
AcDbSymbolTableRecord
100
AcDbBlockTableRecord
  2
*Paper_Space
340
1E
  0
BLOCK_RECORD
  5
23
100
AcDbSymbolTableRecord
100
AcDbBlockTableRecord
  2
*Paper_Space0
340
26
  0
ENDTAB
  0
ENDSEC
  0
SECTION
  2
BLOCKS
  0
BLOCK
  5
20
100
AcDbEntity
  8
0
100
AcDbBlockBegin
  2
*Model_Space
 70
0
 10
0.0
 20
0.0
 30
0.0
  3
*Model_Space
  1

  0
ENDBLK
  5
21
100
AcDbEntity
  8
0
100
AcDbBlockEnd
  0
BLOCK
  5
1C
100
AcDbEntity
 67
1
  8
0
100
AcDbBlockBegin
  2
*Paper_Space
 70
0
 10
0.0
 20
0.0
 30
0.0
  3
*Paper_Space
  1

  0
ENDBLK
  5
1D
100
AcDbEntity
 67
1
  8
0
100
AcDbBlockEnd
  0
BLOCK
  5
24
100
AcDbEntity
  8
0
100
AcDbBlockBegin
  2
*Paper_Space0
 70
0
 10
0.0
 20
0.0
 30
0.0
  3
*Paper_Space0
  1

  0
ENDBLK
  5
25
100
AcDbEntity
  8
0
100
AcDbBlockEnd
  0
ENDSEC
  0
SECTION
  2
ENTITIES
  0
LINE
  5
49
100
AcDbEntity
100
AcDbLine
  8
FORT
 62
7
370
-1
  6
CONTINUOUS
 10
72.1431900000000041
 20
171.5853669999999909
 30
0.0
 11
96.1821410000000014
 21
171.5853669999999909
 31
0.0
  0
MTEXT
  5
4A
100
AcDbEntity
100
AcDbMText
  8
TEXTE
 62
7
370
-1
  6
CONTINUOUS
 10
87.0281710000000004
 20
152.4148409999999956
 30
0.0
 40
5.0
 41
100.0
 71
7
 72
2
  1
A
  7
iso9
 50
0.0
 73
1
 44
1.0
  0
LINE
  5
4B
100
AcDbEntity
100
AcDbLine
  8
FORT
 62
7
370
-1
  6
CONTINUOUS
 10
88.5115499999999997
 20
159.6876230000000021
 30
0.0
 11
88.5115499999999997
 21
169.6876230000000021
 31
0.0
  0
LINE
  5
4C
100
AcDbEntity
100
AcDbLine
  8
FORT
 62
7
370
-1
  6
CONTINUOUS
 10
88.5115499999999997
 20
170.6876230000000021
 30
0.0
 11
88.5115499999999997
 21
172.6876230000000021
 31
0.0
  0
LINE
  5
4D
100
AcDbEntity
100
AcDbLine
  8
FORT
 62
7
370
-1
  6
CONTINUOUS
 10
88.5115499999999997
 20
173.6876230000000021
 30
0.0
 11
88.5115499999999997
 21
177.5669389999999908
 31
0.0
  0
LINE
  5
4E
100
AcDbEntity
100
AcDbLine
  8
FORT
 62
7
370
-1
  6
CONTINUOUS
 10
88.5115499999999997
 20
164.3542889999999943
 30
0.0
 11
85.7115500000000026
 21
163.4209559999999897
 31
0.0
  0
LINE
  5
4F
100
AcDbEntity
100
AcDbLine
  8
FORT
 62
7
370
-1
  6
CONTINUOUS
 10
88.5115499999999997
 20
164.3542889999999943
 30
0.0
 11
85.7115500000000026
 21
165.2876229999999964
 31
0.0
  0
LINE
  5
50
100
AcDbEntity
100
AcDbLine
  8
FORT
 62
7
370
-1
  6
CONTINUOUS
 10
79.0929380000000037
 20
164.3542889999999943
 30
0.0
 11
88.5115499999999997
 21
164.3542889999999943
 31
0.0
  0
MTEXT
  5
51
100
AcDbEntity
100
AcDbMText
  8
TEXTE
 62
7
370
-1
  6
CONTINUOUS
 10
173.3127729999999929
 20
76.823640999999995
 30
0.0
 40
5.0
 41
100.0
 71
7
 72
2
  1
C-C
  7
iso9
 50
0.0
 73
1
 44
1.0
  0
MTEXT
  5
52
100
AcDbEntity
100
AcDbMText
  8
TEXTE
 62
7
370
-1
  6
CONTINUOUS
 10
173.3127729999999929
 20
151.0504449999999963
 30
0.0
 40
5.0
 41
100.0
 71
7
 72
2
  1
B-B
  7
iso9
 50
0.0
 73
1
 44
1.0
  0
LINE
  5
53
100
AcDbEntity
100
AcDbLine
  8
FORT
 62
7
370
-1
  6
CONTINUOUS
 10
171.0279209999999921
 20
171.5853669999999909
 30
0.0
 11
195.0668719999999894
 21
171.5853669999999909
 31
0.0
  0
LINE
  5
54
100
AcDbEntity
100
AcDbLine
  8
FORT
 62
7
370
-1
  6
CONTINUOUS
 10
150.3946420000000046
 20
214.2966839999999991
 30
0.0
 11
160.3946420000000046
 21
214.2966839999999991
 31
0.0
  0
LINE
  5
55
100
AcDbEntity
100
AcDbLine
  8
FORT
 62
7
370
-1
  6
CONTINUOUS
 10
150.3946420000000046
 20
365.3353670000000193
 30
0.0
 11
160.3946420000000046
 21
365.3353670000000193
 31
0.0
  0
LINE
  5
56
100
AcDbEntity
100
AcDbLine
  8
FORT
 62
7
370
-1
  6
CONTINUOUS
 10
155.0613079999999968
 20
214.2966839999999991
 30
0.0
 11
154.1279749999999922
 21
217.0966840000000104
 31
0.0
  0
LINE
  5
57
100
AcDbEntity
100
AcDbLine
  8
FORT
 62
7
370
-1
  6
CONTINUOUS
 10
155.0613079999999968
 20
214.2966839999999991
 30
0.0
 11
155.9946419999999989
 21
217.0966840000000104
 31
0.0
  0
LINE
  5
58
100
AcDbEntity
100
AcDbLine
  8
FORT
 62
7
370
-1
  6
CONTINUOUS
 10
155.0613079999999968
 20
223.7152949999999976
 30
0.0
 11
155.0613079999999968
 21
214.2966839999999991
 31
0.0
  0
MTEXT
  5
59
100
AcDbEntity
100
AcDbMText
  8
TEXTE
 62
7
370
-1
  6
CONTINUOUS
 10
144.8443839999999909
 20
211.567703999999992
 30
0.0
 40
5.0
 41
100.0
 71
7
 72
2
  1
C
  7
iso9
 50
0.0
 73
1
 44
1.0
  0
LINE
  5
5A
100
AcDbEntity
100
AcDbLine
  8
FORT
 62
7
370
-1
  6
CONTINUOUS
 10
155.0613079999999968
 20
374.7539790000000153
 30
0.0
 11
155.0613079999999968
 21
365.3353670000000193
 31
0.0
  0
CIRCLE
  5
5B
100
AcDbEntity
100
AcDbCircle
  8
FIN
 62
5
370
-1
  6
CONTINUOUS
 10
88.5115499999999997
 20
365.3353670000000193
 30
0.0
 40
10.0
  0
MTEXT
  5
5C
100
AcDbEntity
100
AcDbMText
  8
TEXTE
 62
7
370
-1
  6
CONTINUOUS
 10
144.8443839999999909
 20
362.6063869999999838
 30
0.0
 40
5.0
 41
100.0
 71
7
 72
2
  1
B
  7
iso9
 50
0.0
 73
1
 44
1.0
  0
LINE
  5
5D
100
AcDbEntity
100
AcDbLine
  8
FORT
 62
7
370
-1
  6
CONTINUOUS
 10
155.0613079999999968
 20
365.3353670000000193
 30
0.0
 11
154.1279749999999922
 21
368.1353669999999738
 31
0.0
  0
LINE
  5
5E
100
AcDbEntity
100
AcDbLine
  8
FORT
 62
7
370
-1
  6
CONTINUOUS
 10
155.0613079999999968
 20
365.3353670000000193
 30
0.0
 11
155.9946419999999989
 21
368.1353669999999738
 31
0.0
  0
LINE
  5
5F
100
AcDbEntity
100
AcDbLine
  8
FORT
 62
7
370
-1
  6
CONTINUOUS
 10
88.5115499999999997
 20
386.4594169999999735
 30
0.0
 11
88.5115499999999997
 21
384.4594169999999735
 31
0.0
  0
LINE
  5
60
100
AcDbEntity
100
AcDbLine
  8
FORT
 62
7
370
-1
  6
CONTINUOUS
 10
88.5115499999999997
 20
383.4594169999999735
 30
0.0
 11
88.5115499999999997
 21
379.5801010000000133
 31
0.0
  0
MTEXT
  5
61
100
AcDbEntity
100
AcDbMText
  8
TEXTE
 62
7
370
-1
  6
CONTINUOUS
 10
87.0281710000000004
 20
399.7321989999999801
 30
0.0
 40
5.0
 41
100.0
 71
7
 72
2
  1
A
  7
iso9
 50
0.0
 73
1
 44
1.0
  0
LINE
  5
62
100
AcDbEntity
100
AcDbLine
  8
FORT
 62
7
370
-1
  6
CONTINUOUS
 10
88.5115499999999997
 20
392.7927510000000098
 30
0.0
 11
85.7115500000000026
 21
393.7260840000000144
 31
0.0
  0
LINE
  5
63
100
AcDbEntity
100
AcDbLine
  8
FORT
 62
7
370
-1
  6
CONTINUOUS
 10
88.5115499999999997
 20
392.7927510000000098
 30
0.0
 11
85.7115500000000026
 21
391.8594170000000076
 31
0.0
  0
LINE
  5
64
100
AcDbEntity
100
AcDbLine
  8
FORT
 62
7
370
-1
  6
CONTINUOUS
 10
79.0929380000000037
 20
392.7927510000000098
 30
0.0
 11
88.5115499999999997
 21
392.7927510000000098
 31
0.0
  0
LINE
  5
65
100
AcDbEntity
100
AcDbLine
  8
FORT
 62
7
370
-1
  6
CONTINUOUS
 10
88.5115499999999997
 20
397.4594169999999735
 30
0.0
 11
88.5115499999999997
 21
387.4594169999999735
 31
0.0
  0
LINE
  5
66
100
AcDbEntity
100
AcDbLine
  8
FORT
 62
7
370
-1
  6
CONTINUOUS
 10
164.3946420000000046
 20
214.2966839999999991
 30
0.0
 11
168.2739579999999933
 21
214.2966839999999991
 31
0.0
  0
LINE
  5
67
100
AcDbEntity
100
AcDbLine
  8
FORT
 62
7
370
-1
  6
CONTINUOUS
 10
161.3946420000000046
 20
214.2966839999999991
 30
0.0
 11
163.3946420000000046
 21
214.2966839999999991
 31
0.0
  0
LINE
  5
68
100
AcDbEntity
100
AcDbLine
  8
FORT
 62
7
370
-1
  6
CONTINUOUS
 10
210.3979209999999966
 20
214.2966839999999991
 30
0.0
 11
206.5186040000000105
 21
214.2966839999999991
 31
0.0
  0
LINE
  5
69
100
AcDbEntity
100
AcDbLine
  8
FORT
 62
7
370
-1
  6
CONTINUOUS
 10
213.3979209999999966
 20
214.2966839999999991
 30
0.0
 11
211.3979209999999966
 21
214.2966839999999991
 31
0.0
  0
LINE
  5
6A
100
AcDbEntity
100
AcDbLine
  8
FORT
 62
7
370
-1
  6
CONTINUOUS
 10
219.731254000000007
 20
214.2966839999999991
 30
0.0
 11
220.6645870000000116
 21
217.0966840000000104
 31
0.0
  0
LINE
  5
6B
100
AcDbEntity
100
AcDbLine
  8
FORT
 62
7
370
-1
  6
CONTINUOUS
 10
219.731254000000007
 20
214.2966839999999991
 30
0.0
 11
218.7979210000000023
 21
217.0966840000000104
 31
0.0
  0
LINE
  5
6C
100
AcDbEntity
100
AcDbLine
  8
FORT
 62
7
370
-1
  6
CONTINUOUS
 10
219.731254000000007
 20
223.7152949999999976
 30
0.0
 11
219.731254000000007
 21
214.2966839999999991
 31
0.0
  0
LINE
  5
6D
100
AcDbEntity
100
AcDbLine
  8
FORT
 62
7
370
-1
  6
CONTINUOUS
 10
224.3979209999999966
 20
214.2966839999999991
 30
0.0
 11
214.3979209999999966
 21
214.2966839999999991
 31
0.0
  0
MTEXT
  5
6E
100
AcDbEntity
100
AcDbMText
  8
TEXTE
 62
7
370
-1
  6
CONTINUOUS
 10
229.9481780000000128
 20
211.567703999999992
 30
0.0
 40
5.0
 41
100.0
 71
9
 72
2
  1
C
  7
iso9
 50
0.0
 73
1
 44
1.0
  0
LINE
  5
6F
100
AcDbEntity
100
AcDbLine
  8
FORT
 62
7
370
-1
  6
CONTINUOUS
 10
219.731254000000007
 20
374.7539790000000153
 30
0.0
 11
219.731254000000007
 21
365.3353670000000193
 31
0.0
  0
LINE
  5
70
100
AcDbEntity
100
AcDbLine
  8
FORT
 62
7
370
-1
  6
CONTINUOUS
 10
164.3946420000000046
 20
365.3353670000000193
 30
0.0
 11
168.2739579999999933
 21
365.3353670000000193
 31
0.0
  0
LINE
  5
71
100
AcDbEntity
100
AcDbLine
  8
FORT
 62
7
370
-1
  6
CONTINUOUS
 10
161.3946420000000046
 20
365.3353670000000193
 30
0.0
 11
163.3946420000000046
 21
365.3353670000000193
 31
0.0
  0
MTEXT
  5
72
100
AcDbEntity
100
AcDbMText
  8
TEXTE
 62
7
370
-1
  6
CONTINUOUS
 10
229.9481780000000128
 20
362.6063869999999838
 30
0.0
 40
5.0
 41
100.0
 71
9
 72
2
  1
B
  7
iso9
 50
0.0
 73
1
 44
1.0
  0
LINE
  5
73
100
AcDbEntity
100
AcDbLine
  8
FORT
 62
7
370
-1
  6
CONTINUOUS
 10
210.3979209999999966
 20
365.3353670000000193
 30
0.0
 11
206.5186040000000105
 21
365.3353670000000193
 31
0.0
  0
LINE
  5
74
100
AcDbEntity
100
AcDbLine
  8
FORT
 62
7
370
-1
  6
CONTINUOUS
 10
213.3979209999999966
 20
365.3353670000000193
 30
0.0
 11
211.3979209999999966
 21
365.3353670000000193
 31
0.0
  0
LINE
  5
75
100
AcDbEntity
100
AcDbLine
  8
FORT
 62
7
370
-1
  6
CONTINUOUS
 10
219.731254000000007
 20
365.3353670000000193
 30
0.0
 11
220.6645870000000116
 21
368.1353669999999738
 31
0.0
  0
LINE
  5
76
100
AcDbEntity
100
AcDbLine
  8
FORT
 62
7
370
-1
  6
CONTINUOUS
 10
219.731254000000007
 20
365.3353670000000193
 30
0.0
 11
218.7979210000000023
 21
368.1353669999999738
 31
0.0
  0
LINE
  5
77
100
AcDbEntity
100
AcDbLine
  8
FORT
 62
7
370
-1
  6
CONTINUOUS
 10
224.3979209999999966
 20
365.3353670000000193
 30
0.0
 11
214.3979209999999966
 21
365.3353670000000193
 31
0.0
  0
LINE
  5
78
100
AcDbEntity
100
AcDbLine
  8
FIN
 62
5
370
-1
  6
CONTINUOUS
 10
197.3962809999999877
 20
355.3353670000000193
 30
0.0
 11
212.3962809999999877
 21
355.3353670000000193
 31
0.0
  0
LINE
  5
79
100
AcDbEntity
100
AcDbLine
  8
FIN
 62
5
370
-1
  6
CONTINUOUS
 10
162.3962809999999877
 20
355.3353670000000193
 30
0.0
 11
177.3962809999999877
 21
355.3353670000000193
 31
0.0
  0
MTEXT
  5
7A
100
AcDbEntity
100
AcDbMText
  8
TEXTE
 62
7
370
-1
  6
CONTINUOUS
 10
173.3127729999999929
 20
389.9084940000000188
 30
0.0
 40
5.0
 41
100.0
 71
7
 72
2
  1
A-A
  7
iso9
 50
0.0
 73
1
 44
1.0
  0
LINE
  5
7B
100
AcDbEntity
100
AcDbLine
  8
FIN
 62
5
370
-1
  6
CONTINUOUS
 10
197.3962809999999877
 20
375.3353670000000193
 30
0.0
 11
212.3962809999999877
 21
375.3353670000000193
 31
0.0
  0
LINE
  5
7C
100
AcDbEntity
100
AcDbLine
  8
FIN
 62
5
370
-1
  6
CONTINUOUS
 10
162.3962809999999877
 20
375.3353670000000193
 30
0.0
 11
177.3962809999999877
 21
375.3353670000000193
 31
0.0
  0
LINE
  5
7D
100
AcDbEntity
100
AcDbLine
  8
FORT
 62
7
370
-1
  6
CONTINUOUS
 10
10.0
 20
10.0
 30
0.0
 11
10.0
 21
410.0
 31
0.0
  0
LINE
  5
7E
100
AcDbEntity
100
AcDbLine
  8
FORT
 62
7
370
-1
  6
CONTINUOUS
 10
10.0
 20
10.0
 30
0.0
 11
287.0
 21
10.0
 31
0.0
  0
LINE
  5
7F
100
AcDbEntity
100
AcDbLine
  8
FIN
 62
5
370
-1
  6
CONTINUOUS
 10
276.4999999999997158
 20
220.0
 30
0.0
 11
276.5
 21
410.0
 31
0.0
  0
LINE
  5
80
100
AcDbEntity
100
AcDbLine
  8
RENFORCE
 62
256
370
-1
  6
ByLayer
 10
286.9999999999999432
 20
220.0
 30
0.0
 11
287.0
 21
410.0
 31
0.0
  0
LINE
  5
81
100
AcDbEntity
100
AcDbLine
  8
RENFORCE
 62
256
370
-1
  6
ByLayer
 10
255.9999999999999432
 20
220.0
 30
0.0
 11
286.9999999999999432
 21
220.0
 31
0.0
  0
LINE
  5
82
100
AcDbEntity
100
AcDbLine
  8
RENFORCE
 62
256
370
-1
  6
ByLayer
 10
255.9999999999999432
 20
220.0
 30
0.0
 11
256.0
 21
410.0
 31
0.0
  0
LINE
  5
83
100
AcDbEntity
100
AcDbLine
  8
RENFORCE
 62
256
370
-1
  6
ByLayer
 10
256.0
 20
410.0
 30
0.0
 11
287.0
 21
410.0
 31
0.0
  0
MTEXT
  5
84
100
AcDbEntity
100
AcDbMText
  8
TEXTE
 62
256
370
70
  6
ByLayer
 10
285.0720229999994899
 20
231.0037869999999884
 30
0.0
 40
7.0
 41
100.0
 71
7
 72
2
  1
A3
  7
iso9
 50
90.0
 73
1
 44
1.0
  0
LINE
  5
85
100
AcDbEntity
100
AcDbLine
  8
FIN
 62
5
370
-1
  6
CONTINUOUS
 10
286.9999999999999432
 20
251.9836483628201336
 30
0.0
 11
256.5000000000000568
 21
251.9836483628201336
 31
0.0
  0
LINE
  5
86
100
AcDbEntity
100
AcDbLine
  8
FORT
 62
256
370
-1
  6
ByLayer
 10
270.0857864376270072
 20
224.2983053300626182
 30
0.0
 11
272.9142135623729359
 21
224.2983053300626182
 31
0.0
  0
LINE
  5
87
100
AcDbEntity
100
AcDbLine
  8
FORT
 62
256
370
-1
  6
ByLayer
 10
268.4999999999998863
 20
236.2983053300626182
 30
0.0
 11
274.5000000000001705
 21
236.2983053300626182
 31
0.0
  0
LINE
  5
88
100
AcDbEntity
100
AcDbLine
  8
FORT
 62
256
370
-1
  6
ByLayer
 10
268.4999999999998863
 20
236.2983053300626182
 30
0.0
 11
270.0857864376270072
 21
224.2983053300626182
 31
0.0
  0
LINE
  5
89
100
AcDbEntity
100
AcDbLine
  8
FORT
 62
256
370
-1
  6
ByLayer
 10
274.5000000000001705
 20
236.2983053300626182
 30
0.0
 11
272.9142135623729359
 21
224.2983053300626182
 31
0.0
  0
CIRCLE
  5
8A
100
AcDbEntity
100
AcDbCircle
  8
FORT
 62
256
370
-1
  6
ByLayer
 10
271.5
 20
244.1312482633959462
 30
0.0
 40
3.0
  0
CIRCLE
  5
8B
100
AcDbEntity
100
AcDbCircle
  8
FORT
 62
256
370
-1
  6
ByLayer
 10
271.5
 20
244.1312482633959462
 30
0.0
 40
1.4142135623730951
  0
LINE
  5
8C
100
AcDbEntity
100
AcDbLine
  8
AXE
 62
256
370
-1
  6
ByLayer
 10
267.5
 20
244.1312482633959462
 30
0.0
 11
275.5000000000000568
 21
244.1312482633959462
 31
0.0
  0
LINE
  5
8D
100
AcDbEntity
100
AcDbLine
  8
AXE
 62
256
370
-1
  6
ByLayer
 10
271.5
 20
222.1583018666680687
 30
0.0
 11
271.5000000000001705
 21
249.8098183943278059
 31
0.0
  0
LINE
  5
8E
100
AcDbEntity
100
AcDbLine
  8
FIN
 62
5
370
-1
  6
CONTINUOUS
 10
266.5
 20
220.0000000000000284
 30
0.0
 11
266.5
 21
251.9836483628201336
 31
0.0
  0
LINE
  5
8F
100
AcDbEntity
100
AcDbLine
  8
FORT
 62
7
370
-1
  6
CONTINUOUS
 10
256.0
 20
410.0
 30
0.0
 11
10.0
 21
410.0
 31
0.0
  0
LINE
  5
90
100
AcDbEntity
100
AcDbLine
  8
FORT
 62
7
370
-1
  6
CONTINUOUS
 10
287.0
 20
10.0
 30
0.0
 11
287.0
 21
220.0
 31
0.0
  0
MTEXT
  5
91
100
AcDbEntity
100
AcDbMText
  8
TEXTE
 62
256
370
-1
  6
ByLayer
 10
284.3052919999996675
 20
256.651573208632783
 30
0.0
 40
5.0
 41
100.0
 71
7
 72
2
  1
Dessin de d\U+00e9finition du poussoir \U+00e0 galet 16
  7
iso
 50
90.0
 73
1
 44
1.0
  0
LINE
  5
92
100
AcDbEntity
100
AcDbLine
  8
AXE
 62
256
370
-1
  6
ByLayer
 10
88.5115499999999997
 20
379.5801010000000133
 30
0.0
 11
88.5115499999999997
 21
177.5669389999999908
 31
0.0
  0
LINE
  5
93
100
AcDbEntity
100
AcDbLine
  8
AXE
 62
256
370
-1
  6
ByLayer
 10
187.3962809999999877
 20
394.1744689999999878
 30
0.0
 11
187.3962809999999877
 21
159.0880249999999876
 31
0.0
  0
LINE
  5
94
100
AcDbEntity
100
AcDbLine
  8
AXE
 62
256
370
-1
  6
ByLayer
 10
156.6904030000000034
 20
46.3748700000000014
 30
0.0
 11
218.1021590000000003
 21
46.3748700000000014
 31
0.0
  0
LINE
  5
95
100
AcDbEntity
100
AcDbLine
  8
AXE
 62
256
370
-1
  6
ByLayer
 10
156.6904030000000034
 20
120.6016740000000027
 30
0.0
 11
218.1021590000000003
 21
120.6016740000000027
 31
0.0
  0
LINE
  5
96
100
AcDbEntity
100
AcDbLine
  8
AXE
 62
256
370
-1
  6
ByLayer
 10
187.3962809999999877
 20
151.3075519999999869
 30
0.0
 11
187.3962809999999877
 21
89.8957950000000068
 31
0.0
  0
LINE
  5
97
100
AcDbEntity
100
AcDbLine
  8
AXE
 62
256
370
-1
  6
ByLayer
 10
187.3962809999999877
 20
77.0807479999999998
 30
0.0
 11
187.3962809999999877
 21
15.6689910000000001
 31
0.0
  0
LINE
  5
98
100
AcDbEntity
100
AcDbLine
  8
AXE
 62
256
370
-1
  6
ByLayer
 10
55.3104140000000015
 20
365.3353670000000193
 30
0.0
 11
121.7126849999999934
 21
365.3353670000000193
 31
0.0
  0
LINE
  5
99
100
AcDbEntity
100
AcDbLine
  8
AXE
 62
256
370
-1
  6
ByLayer
 10
168.2739579999999933
 20
365.3353670000000193
 30
0.0
 11
206.5186040000000105
 21
365.3353670000000193
 31
0.0
  0
MTEXT
  5
9A
100
AcDbEntity
100
AcDbMText
  8
TEXTE
 62
256
370
-1
  6
ByLayer
 10
263.8424881999998206
 20
224.1450823705132223
 30
0.0
 40
5.0
 41
100.0
 71
7
 72
2
  1
Ech. 5:1
  7
iso9
 50
90.0
 73
1
 44
1.0
  0
MTEXT
  5
9B
100
AcDbEntity
100
AcDbMText
  8
TEXTE
 62
256
370
70
  6
ByLayer
 10
270.2811613497942176
 20
270.8879485598070005
 30
0.0
 40
7.0
 41
100.0
 71
7
 72
2
  1
DETECTEUR DE POSITION
  7
iso9
 50
90.0
 73
1
 44
1.0
  0
ENDSEC
  0
SECTION
  2
OBJECTS
  0
DICTIONARY
  5
C
100
AcDbDictionary
280
0
281
1
  3
ACAD_GROUP
350
D
  3
ACAD_LAYOUT
350
1A
  3
ACAD_MLINESTYLE
350
17
  3
ACAD_PLOTSETTINGS
350
19
  3
ACAD_PLOTSTYLENAME
350
E
  3
AcDbVariableDictionary
350
9C
  0
DICTIONARY
  5
D
100
AcDbDictionary
280
0
281
1
  0
ACDBDICTIONARYWDFLT
  5
E
100
AcDbDictionary
281
1
  3
Normal
350
F
100
AcDbDictionaryWithDefault
340
F
  0
ACDBPLACEHOLDER
  5
F
  0
DICTIONARY
  5
17
100
AcDbDictionary
280
0
281
1
  3
Standard
350
18
  0
MLINESTYLE
  5
18
100
AcDbMlineStyle
  2
STANDARD
 70
0
  3

 62
256
 51
90.0
 52
90.0
 71
2
 49
0.5
 62
256
  6
BYLAYER
 49
-0.5
 62
256
  6
BYLAYER
  0
DICTIONARY
  5
19
100
AcDbDictionary
280
0
281
1
  0
DICTIONARY
  5
1A
100
AcDbDictionary
281
1
  3
Layout1
350
1E
  3
Layout2
350
26
  3
Model
350
22
  0
LAYOUT
  5
1E
100
AcDbPlotSettings
  1

  2
C:\Program Files\AutoCAD 2002\plotters\DWF ePlot (optimized for plotting).pc3
  4

  6

 40
0.0
 41
0.0
 42
0.0
 43
0.0
 44
0.0
 45
0.0
 46
0.0
 47
0.0
 48
0.0
 49
0.0
140
0.0
141
0.0
142
1.0
143
1.0
 70
688
 72
0
 73
0
 74
5
  7

 75
16
147
1.0
148
0.0
149
0.0
100
AcDbLayout
  1
Layout1
 70
1
 71
1
 10
0.0
 20
0.0
 11
420.0
 21
297.0
 12
0.0
 22
0.0
 32
0.0
 14
100000000000000000000.0
 24
100000000000000000000.0
 34
100000000000000000000.0
 15
-100000000000000000000.0
 25
-100000000000000000000.0
 35
-100000000000000000000.0
146
0.0
 13
0.0
 23
0.0
 33
0.0
 16
1.0
 26
0.0
 36
0.0
 17
0.0
 27
1.0
 37
0.0
 76
0
330
1B
  0
LAYOUT
  5
22
100
AcDbPlotSettings
  1

  2
C:\Program Files\AutoCAD 2002\plotters\DWF ePlot (optimized for plotting).pc3
  4

  6

 40
0.0
 41
0.0
 42
0.0
 43
0.0
 44
0.0
 45
0.0
 46
0.0
 47
0.0
 48
0.0
 49
0.0
140
0.0
141
0.0
142
1.0
143
1.0
 70
1712
 72
0
 73
0
 74
0
  7

 75
0
147
1.0
148
0.0
149
0.0
100
AcDbLayout
  1
Model
 70
1
 71
0
 10
0.0
 20
0.0
 11
12.0
 21
9.0
 12
0.0
 22
0.0
 32
0.0
 14
0.0
 24
0.0
 34
0.0
 15
0.0
 25
0.0
 35
0.0
146
0.0
 13
0.0
 23
0.0
 33
0.0
 16
1.0
 26
0.0
 36
0.0
 17
0.0
 27
1.0
 37
0.0
 76
0
330
1F
  0
LAYOUT
  5
26
100
AcDbPlotSettings
  1

  2
C:\Program Files\AutoCAD 2002\plotters\DWF ePlot (optimized for plotting).pc3
  4

  6

 40
0.0
 41
0.0
 42
0.0
 43
0.0
 44
0.0
 45
0.0
 46
0.0
 47
0.0
 48
0.0
 49
0.0
140
0.0
141
0.0
142
1.0
143
1.0
 70
688
 72
0
 73
0
 74
5
  7

 75
16
147
1.0
148
0.0
149
0.0
100
AcDbLayout
  1
Layout2
 70
1
 71
2
 10
0.0
 20
0.0
 11
12.0
 21
9.0
 12
0.0
 22
0.0
 32
0.0
 14
0.0
 24
0.0
 34
0.0
 15
0.0
 25
0.0
 35
0.0
146
0.0
 13
0.0
 23
0.0
 33
0.0
 16
1.0
 26
0.0
 36
0.0
 17
0.0
 27
1.0
 37
0.0
 76
0
330
23
  0
DICTIONARY
  5
9C
100
AcDbDictionary
281
1
  3
DIMASSOC
350
9E
  3
HIDETEXT
350
9D
  0
DICTIONARYVAR
  5
9D
100
DictionaryVariables
280
0
  1
2
  0
DICTIONARYVAR
  5
9E
100
DictionaryVariables
280
0
  1
1
  0
ENDSEC
  0
EOF
