999
dxflib 2.2.0.0
  0
SECTION
  2
HEADER
  9
$ACADVER
  1
AC1015
  9
$HANDSEED
  5
FFFF
  9
$EXTMAX
 10
420.0
 20
297.0
 30
0.0
  9
$VIEWSIZE
 40
9.0
  9
$DIMALTD
 70
2
  9
$LIMCHECK
 70
0
  9
$SNAPISOPAIR
 70
0
  9
$DIMTXT
 40
0.18
  9
$DIMALTF
 40
25.3999999999999986
  9
$VIEWCTR
 10
6.0
 20
4.5
  9
$PDMODE
 70
0
  9
$CELTYPE
  6
CONTINUOUS
  9
$DIMSHO
 70
1
  9
$DIMTAD
 70
0
  9
$FASTZOOM
 70
1
  9
$AXISUNIT
 10
0.0
 20
0.0
 30
0.0
  9
$DIMTIH
 70
1
  9
$SNAPUNIT
 10
5.0
 20
5.0
 30
0.0
  9
$SKPOLY
 70
0
  9
$REGENMODE
 70
1
  9
$DIMDLE
 40
0.0
  9
$SNAPSTYLE
 70
0
  9
$TEXTSTYLE
  7
STANDARD
  9
$AXISMODE
 70
0
  9
$SKETCHINC
 40
0.1
  9
$SNAPANG
 50
0.0
  9
$VIEWDIR
 10
0.0
 20
0.0
 30
1.0
  9
$DIMDLI
 40
0.38
  9
$TDUSRTIMER
 40
0.0
  9
$ANGBASE
 50
0.0
  9
$DIMASO
 70
1
  9
$SPLFRAME
 70
0
  9
$SNAPMODE
 70
0
  9
$USRTIMER
 70
1
  9
$DIMASZ
 40
0.18
  9
$GRIDUNIT
 10
1.0
 20
1.0
  9
$INSBASE
 10
0.0
 20
0.0
 30
0.0
  9
$SPLINESEGS
 70
10
  9
$CHAMFERA
 40
0.0
  9
$CHAMFERB
 40
0.0
  9
$QTEXTMODE
 70
0
  9
$DRAGMODE
 70
2
  9
$ATTMODE
 70
1
  9
$USERI1
 70
0
  9
$BLIPMODE
 70
1
  9
$USERI2
 70
0
  9
$AUNITS
 70
0
  9
$USERI3
 70
0
  9
$USERI4
 70
0
  9
$DIMALT
 70
0
  9
$USERI5
 70
0
  9
$DIMSTYLE
  2
Standard
  9
$DIMCEN
 40
0.09
  9
$MENU
  1
acad
  9
$TDUPDATE
 40
0.0
  9
$COORDS
 70
2
  9
$DIMTSZ
 40
0.0
  9
$PLIMMAX
 10
420.0
 20
297.0
  9
$DIMADEC
 70
0
  9
$ATTREQ
 70
1
  9
$TRACEWID
 40
0.05
  9
$DIMSE1
 70
0
  9
$PINSBASE
 10
0.0
 20
0.0
 30
0.0
  9
$DIMSE2
 70
0
  9
$USERR1
 40
0.0
  9
$ATTDIA
 70
0
  9
$USERR2
 40
0.0
  9
$ANGDIR
 70
0
  9
$USERR3
 40
0.0
  9
$USERR4
 40
0.0
  9
$GRIDMODE
 70
1
  9
$USERR5
 40
0.0
  9
$DIMLIM
 70
0
  9
$DIMAUNIT
 70
0
  9
$PLINEWID
 40
0.0
  9
$DIMLUNIT
 70
2
  9
$FILLETRAD
 40
1.0
  9
$AUPREC
 70
0
  9
$CECOLOR
 62
5
  9
$TDCREATE
 40
0.0
  9
$SNAPBASE
 10
0.0
 20
0.0
 30
0.0
  9
$DIMEXE
 40
0.18
  9
$LIMMIN
 10
-13.751322
 20
-4.592784
  9
$THICKNESS
 40
0.0
  9
$PDSIZE
 40
0.0
  9
$CLAYER
  8
FORT
  9
$ELEVATION
 40
0.0
  9
$DIMEXO
 40
0.0625
  9
$ORTHOMODE
 70
0
  9
$INSUNITS
 70
4
  9
$LIMMAX
 10
476.5491240000000062
 20
301.5927839999999946
  9
$DIMTM
 40
0.0
  9
$DIMRND
 40
0.0
  9
$LUNITS
 70
2
  9
$DIMTP
 40
0.0
  9
$TEXTSIZE
 40
0.2
  9
$DIMGAP
 40
0.625
  9
$OSMODE
 70
1
  9
$DIMLFAC
 40
1.0
  9
$LTSCALE
 40
0.3
  9
$FILLMODE
 70
1
  9
$DIMTOH
 70
1
  9
$DIMSCALE
 40
1.0
  9
$PLIMMIN
 10
0.0
 20
0.0
  9
$DIMTOL
 70
0
  9
$EXTMIN
 10
0.0
 20
0.0
 30
0.0
  9
$DIMZIN
 70
0
  9
$TDINDWG
 40
0.0
  9
$LUPREC
 70
4
  0
ENDSEC
  0
SECTION
  2
TABLES
  0
TABLE
  2
VPORT
  5
8
100
AcDbSymbolTable
 70
1
  0
VPORT
  5
30
100
AcDbSymbolTableRecord
100
AcDbViewportTableRecord
  2
*Active
 70
0
 10
0.0
 20
0.0
 11
1.0
 21
1.0
 12
286.3055555555554861
 22
148.5
 13
0.0
 23
0.0
 14
10.0
 24
10.0
 15
10.0
 25
10.0
 16
0.0
 26
0.0
 36
1.0
 17
0.0
 27
0.0
 37
0.0
 40
297.0
 41
1.92798353909465
 42
50.0
 43
0.0
 44
0.0
 50
0.0
 51
0.0
 71
0
 72
100
 73
1
 74
3
 75
1
 76
1
 77
0
 78
0
281
0
 65
1
110
0.0
120
0.0
130
0.0
111
1.0
121
0.0
131
0.0
112
0.0
122
1.0
132
0.0
 79
0
146
0.0
  0
ENDTAB
  0
TABLE
  2
LTYPE
  5
5
100
AcDbSymbolTable
 70
21
  0
LTYPE
  5
14
100
AcDbSymbolTableRecord
100
AcDbLinetypeTableRecord
  2
ByBlock
 70
0
  3

 72
65
 73
0
 40
0.0
  0
LTYPE
  5
15
100
AcDbSymbolTableRecord
100
AcDbLinetypeTableRecord
  2
ByLayer
 70
0
  3

 72
65
 73
0
 40
0.0
  0
LTYPE
  5
16
100
AcDbSymbolTableRecord
100
AcDbLinetypeTableRecord
  2
CONTINUOUS
 70
0
  3
Solid line
 72
65
 73
0
 40
0.0
  0
LTYPE
  5
31
100
AcDbSymbolTableRecord
100
AcDbLinetypeTableRecord
  2
DOT
 70
0
  3
Dot . . . . . . . . . . . . . . . . . . . . . .
 72
65
 73
2
 40
6.3499999999999996
 49
0.0
 74
0
 49
-6.3499999999999996
 74
0
  0
LTYPE
  5
32
100
AcDbSymbolTableRecord
100
AcDbLinetypeTableRecord
  2
DOT2
 70
0
  3
Dot (.5x) .....................................
 72
65
 73
2
 40
3.1749999999999998
 49
0.0
 74
0
 49
-3.1749999999999998
 74
0
  0
LTYPE
  5
33
100
AcDbSymbolTableRecord
100
AcDbLinetypeTableRecord
  2
DOTX2
 70
0
  3
Dot (2x) .  .  .  .  .  .  .  .  .  .  .  .  .
 72
65
 73
2
 40
12.6999999999999993
 49
0.0
 74
0
 49
-12.6999999999999993
 74
0
  0
LTYPE
  5
34
100
AcDbSymbolTableRecord
100
AcDbLinetypeTableRecord
  2
DASHED
 70
0
  3
Dashed __ __ __ __ __ __ __ __ __ __ __ __ __ _
 72
65
 73
2
 40
19.0500000000000007
 49
12.6999999999999993
 74
0
 49
-6.3499999999999996
 74
0
  0
LTYPE
  5
35
100
AcDbSymbolTableRecord
100
AcDbLinetypeTableRecord
  2
DASHED2
 70
0
  3
Dashed (.5x) _ _ _ _ _ _ _ _ _ _ _ _ _ _ _ _ _
 72
65
 73
2
 40
9.5250000000000004
 49
6.3499999999999996
 74
0
 49
-3.1749999999999998
 74
0
  0
LTYPE
  5
36
100
AcDbSymbolTableRecord
100
AcDbLinetypeTableRecord
  2
DASHEDX2
 70
0
  3
Dashed (2x) ____  ____  ____  ____  ____  ___
 72
65
 73
2
 40
38.1000000000000014
 49
25.3999999999999986
 74
0
 49
-12.6999999999999993
 74
0
  0
LTYPE
  5
37
100
AcDbSymbolTableRecord
100
AcDbLinetypeTableRecord
  2
DASHDOT
 70
0
  3
Dash dot __ . __ . __ . __ . __ . __ . __ . __
 72
65
 73
4
 40
25.3999999999999986
 49
12.6999999999999993
 74
0
 49
-6.3499999999999996
 74
0
 49
0.0
 74
0
 49
-6.3499999999999996
 74
0
  0
LTYPE
  5
38
100
AcDbSymbolTableRecord
100
AcDbLinetypeTableRecord
  2
DASHDOT2
 70
0
  3
Dash dot (.5x) _._._._._._._._._._._._._._._.
 72
65
 73
4
 40
12.6999999999999993
 49
6.3499999999999996
 74
0
 49
-3.1749999999999998
 74
0
 49
0.0
 74
0
 49
-3.1749999999999998
 74
0
  0
LTYPE
  5
39
100
AcDbSymbolTableRecord
100
AcDbLinetypeTableRecord
  2
DASHDOTX2
 70
0
  3
Dash dot (2x) ____  .  ____  .  ____  .  ___
 72
65
 73
4
 40
50.7999999999999972
 49
25.3999999999999986
 74
0
 49
-12.6999999999999993
 74
0
 49
0.0
 74
0
 49
-12.6999999999999993
 74
0
  0
LTYPE
  5
3A
100
AcDbSymbolTableRecord
100
AcDbLinetypeTableRecord
  2
DIVIDE
 70
0
  3
Divide ____ . . ____ . . ____ . . ____ . . ____
 72
65
 73
6
 40
31.75
 49
12.6999999999999993
 74
0
 49
-6.3499999999999996
 74
0
 49
0.0
 74
0
 49
-6.3499999999999996
 74
0
 49
0.0
 74
0
 49
-6.3499999999999996
 74
0
  0
LTYPE
  5
3B
100
AcDbSymbolTableRecord
100
AcDbLinetypeTableRecord
  2
DIVIDE2
 70
0
  3
Divide (.5x) __..__..__..__..__..__..__..__.._
 72
65
 73
6
 40
15.875
 49
6.3499999999999996
 74
0
 49
-3.1749999999999998
 74
0
 49
0.0
 74
0
 49
-3.1749999999999998
 74
0
 49
0.0
 74
0
 49
-3.1749999999999998
 74
0
  0
LTYPE
  5
3C
100
AcDbSymbolTableRecord
100
AcDbLinetypeTableRecord
  2
DIVIDEX2
 70
0
  3
Divide (2x) ________  .  .  ________  .  .  _
 72
65
 73
6
 40
63.5
 49
25.3999999999999986
 74
0
 49
-12.6999999999999993
 74
0
 49
0.0
 74
0
 49
-12.6999999999999993
 74
0
 49
0.0
 74
0
 49
-12.6999999999999993
 74
0
  0
LTYPE
  5
3D
100
AcDbSymbolTableRecord
100
AcDbLinetypeTableRecord
  2
CENTER
 70
0
  3
Center ____ _ ____ _ ____ _ ____ _ ____ _ ____
 72
65
 73
4
 40
50.7999999999999972
 49
31.75
 74
0
 49
-6.3499999999999996
 74
0
 49
6.3499999999999996
 74
0
 49
-6.3499999999999996
 74
0
  0
LTYPE
  5
3E
100
AcDbSymbolTableRecord
100
AcDbLinetypeTableRecord
  2
CENTER2
 70
0
  3
Center (.5x) ___ _ ___ _ ___ _ ___ _ ___ _ ___
 72
65
 73
4
 40
28.5749999999999993
 49
19.0500000000000007
 74
0
 49
-3.1749999999999998
 74
0
 49
3.1749999999999998
 74
0
 49
-3.1749999999999998
 74
0
  0
LTYPE
  5
3F
100
AcDbSymbolTableRecord
100
AcDbLinetypeTableRecord
  2
CENTERX2
 70
0
  3
Center (2x) ________  __  ________  __  _____
 72
65
 73
4
 40
101.5999999999999943
 49
63.5
 74
0
 49
-12.6999999999999993
 74
0
 49
12.6999999999999993
 74
0
 49
-12.6999999999999993
 74
0
  0
LTYPE
  5
40
100
AcDbSymbolTableRecord
100
AcDbLinetypeTableRecord
  2
BORDER
 70
0
  3
Border __ __ . __ __ . __ __ . __ __ . __ __ .
 72
65
 73
6
 40
44.4500000000000028
 49
12.6999999999999993
 74
0
 49
-6.3499999999999996
 74
0
 49
12.6999999999999993
 74
0
 49
-6.3499999999999996
 74
0
 49
0.0
 74
0
 49
-6.3499999999999996
 74
0
  0
LTYPE
  5
41
100
AcDbSymbolTableRecord
100
AcDbLinetypeTableRecord
  2
BORDER2
 70
0
  3
Border (.5x) __.__.__.__.__.__.__.__.__.__.__.
 72
65
 73
6
 40
22.2250000000000014
 49
6.3499999999999996
 74
0
 49
-3.1749999999999998
 74
0
 49
6.3499999999999996
 74
0
 49
-3.1749999999999998
 74
0
 49
0.0
 74
0
 49
-3.1749999999999998
 74
0
  0
LTYPE
  5
42
100
AcDbSymbolTableRecord
100
AcDbLinetypeTableRecord
  2
BORDERX2
 70
0
  3
Border (2x) ____  ____  .  ____  ____  .  ___
 72
65
 73
6
 40
88.9000000000000057
 49
25.3999999999999986
 74
0
 49
-12.6999999999999993
 74
0
 49
25.3999999999999986
 74
0
 49
-12.6999999999999993
 74
0
 49
0.0
 74
0
 49
-12.6999999999999993
 74
0
  0
ENDTAB
  0
TABLE
  2
LAYER
  5
2
100
AcDbSymbolTable
 70
8
  0
LAYER
  5
10
100
AcDbSymbolTableRecord
100
AcDbLayerTableRecord
  2
0
 70
0
 62
7
  6
CONTINUOUS
290
1
390
F
  0
LAYER
  5
43
100
AcDbSymbolTableRecord
100
AcDbLayerTableRecord
  2
FORT
 70
0
 62
7
  6
CONTINUOUS
290
1
370
50
390
F
  0
LAYER
  5
44
100
AcDbSymbolTableRecord
100
AcDbLayerTableRecord
  2
FIN
 70
0
 62
7
  6
CONTINUOUS
290
1
370
25
390
F
  0
LAYER
  5
45
100
AcDbSymbolTableRecord
100
AcDbLayerTableRecord
  2
TEXTE
 70
0
 62
7
  6
CONTINUOUS
290
1
370
50
390
F
  0
LAYER
  5
46
100
AcDbSymbolTableRecord
100
AcDbLayerTableRecord
  2
HACHURE
 70
0
 62
7
  6
CONTINUOUS
290
1
370
25
390
F
  0
LAYER
  5
47
100
AcDbSymbolTableRecord
100
AcDbLayerTableRecord
  2
RENFORCE
 70
0
 62
7
  6
CONTINUOUS
290
1
370
70
390
F
  0
LAYER
  5
48
100
AcDbSymbolTableRecord
100
AcDbLayerTableRecord
  2
AXE
 70
0
 62
3
  6
CENTER
290
1
370
25
390
F
  0
LAYER
  5
49
100
AcDbSymbolTableRecord
100
AcDbLayerTableRecord
  2
INTERROMPU
 70
0
 62
5
  6
DASHED2
290
1
370
25
390
F
  0
ENDTAB
  0
TABLE
  2
STYLE
  5
3
100
AcDbSymbolTable
 70
1
  0
STYLE
  5
11
100
AcDbSymbolTableRecord
100
AcDbTextStyleTableRecord
  2
Standard
 70
0
 40
0.0
 41
0.75
 50
0.0
 71
0
 42
2.5
  3
txt
  4

  0
ENDTAB
  0
TABLE
  2
VIEW
  5
6
100
AcDbSymbolTable
 70
0
  0
ENDTAB
  0
TABLE
  2
UCS
  5
7
100
AcDbSymbolTable
 70
0
  0
ENDTAB
  0
TABLE
  2
APPID
  5
9
100
AcDbSymbolTable
 70
1
  0
APPID
  5
12
100
AcDbSymbolTableRecord
100
AcDbRegAppTableRecord
  2
ACAD
 70
0
  0
ENDTAB
  0
TABLE
  2
DIMSTYLE
  5
A
100
AcDbSymbolTable
 70
1
100
AcDbDimStyleTable
 71
0
  0
DIMSTYLE
105
27
100
AcDbSymbolTableRecord
100
AcDbDimStyleTableRecord
  2
Standard
 41
0.18
 42
0.0625
 43
3.75
 44
0.18
 70
0
 73
0
 74
0
 77
1
 78
8
140
0.18
141
2.5
143
0.03937007874016
147
0.625
171
3
172
1
271
2
272
2
274
3
278
44
283
0
284
8
340
11
  0
ENDTAB
  0
TABLE
  2
BLOCK_RECORD
  5
1
100
AcDbSymbolTable
 70
1
  0
BLOCK_RECORD
  5
1F
100
AcDbSymbolTableRecord
100
AcDbBlockTableRecord
  2
*Model_Space
340
22
  0
BLOCK_RECORD
  5
1B
100
AcDbSymbolTableRecord
100
AcDbBlockTableRecord
  2
*Paper_Space
340
1E
  0
BLOCK_RECORD
  5
23
100
AcDbSymbolTableRecord
100
AcDbBlockTableRecord
  2
*Paper_Space0
340
26
  0
BLOCK_RECORD
  5
4A
100
AcDbSymbolTableRecord
100
AcDbBlockTableRecord
  2
DESENS-G1
340
0
  0
BLOCK_RECORD
  5
4B
100
AcDbSymbolTableRecord
100
AcDbBlockTableRecord
  2
DESENS-G2
340
0
  0
BLOCK_RECORD
  5
4C
100
AcDbSymbolTableRecord
100
AcDbBlockTableRecord
  2
DESENS-G3
340
0
  0
BLOCK_RECORD
  5
4D
100
AcDbSymbolTableRecord
100
AcDbBlockTableRecord
  2
DESENS-G4
340
0
  0
BLOCK_RECORD
  5
4E
100
AcDbSymbolTableRecord
100
AcDbBlockTableRecord
  2
DESENS-G5
340
0
  0
BLOCK_RECORD
  5
4F
100
AcDbSymbolTableRecord
100
AcDbBlockTableRecord
  2
DESENS-G6
340
0
  0
BLOCK_RECORD
  5
50
100
AcDbSymbolTableRecord
100
AcDbBlockTableRecord
  2
DESENS-G7
340
0
  0
BLOCK_RECORD
  5
51
100
AcDbSymbolTableRecord
100
AcDbBlockTableRecord
  2
DESENS-G8
340
0
  0
BLOCK_RECORD
  5
52
100
AcDbSymbolTableRecord
100
AcDbBlockTableRecord
  2
DESENS-G9
340
0
  0
BLOCK_RECORD
  5
53
100
AcDbSymbolTableRecord
100
AcDbBlockTableRecord
  2
DESENS-G10
340
0
  0
BLOCK_RECORD
  5
54
100
AcDbSymbolTableRecord
100
AcDbBlockTableRecord
  2
DESENS-G11
340
0
  0
BLOCK_RECORD
  5
55
100
AcDbSymbolTableRecord
100
AcDbBlockTableRecord
  2
DESENS-G12
340
0
  0
BLOCK_RECORD
  5
56
100
AcDbSymbolTableRecord
100
AcDbBlockTableRecord
  2
DESENS-G13
340
0
  0
BLOCK_RECORD
  5
57
100
AcDbSymbolTableRecord
100
AcDbBlockTableRecord
  2
DESENS-G14
340
0
  0
BLOCK_RECORD
  5
58
100
AcDbSymbolTableRecord
100
AcDbBlockTableRecord
  2
DESENS-G15
340
0
  0
BLOCK_RECORD
  5
59
100
AcDbSymbolTableRecord
100
AcDbBlockTableRecord
  2
DESENS-G16
340
0
  0
BLOCK_RECORD
  5
5A
100
AcDbSymbolTableRecord
100
AcDbBlockTableRecord
  2
DESENS-G17
340
0
  0
BLOCK_RECORD
  5
5B
100
AcDbSymbolTableRecord
100
AcDbBlockTableRecord
  2
DESENS-G18
340
0
  0
BLOCK_RECORD
  5
5C
100
AcDbSymbolTableRecord
100
AcDbBlockTableRecord
  2
DESENS-G19
340
0
  0
BLOCK_RECORD
  5
5D
100
AcDbSymbolTableRecord
100
AcDbBlockTableRecord
  2
DESENS-G20
340
0
  0
BLOCK_RECORD
  5
5E
100
AcDbSymbolTableRecord
100
AcDbBlockTableRecord
  2
DESENS-G21
340
0
  0
BLOCK_RECORD
  5
5F
100
AcDbSymbolTableRecord
100
AcDbBlockTableRecord
  2
DESENS-G22
340
0
  0
BLOCK_RECORD
  5
60
100
AcDbSymbolTableRecord
100
AcDbBlockTableRecord
  2
DESENS-G23
340
0
  0
BLOCK_RECORD
  5
61
100
AcDbSymbolTableRecord
100
AcDbBlockTableRecord
  2
DESENS-G24
340
0
  0
BLOCK_RECORD
  5
62
100
AcDbSymbolTableRecord
100
AcDbBlockTableRecord
  2
DESENS-G25
340
0
  0
BLOCK_RECORD
  5
63
100
AcDbSymbolTableRecord
100
AcDbBlockTableRecord
  2
DESENS-G26
340
0
  0
BLOCK_RECORD
  5
64
100
AcDbSymbolTableRecord
100
AcDbBlockTableRecord
  2
DESENS-G27
340
0
  0
BLOCK_RECORD
  5
65
100
AcDbSymbolTableRecord
100
AcDbBlockTableRecord
  2
DESENS-G28
340
0
  0
BLOCK_RECORD
  5
66
100
AcDbSymbolTableRecord
100
AcDbBlockTableRecord
  2
DESENS-G29
340
0
  0
BLOCK_RECORD
  5
67
100
AcDbSymbolTableRecord
100
AcDbBlockTableRecord
  2
DESENS-G30
340
0
  0
BLOCK_RECORD
  5
68
100
AcDbSymbolTableRecord
100
AcDbBlockTableRecord
  2
DESENS-G31
340
0
  0
BLOCK_RECORD
  5
69
100
AcDbSymbolTableRecord
100
AcDbBlockTableRecord
  2
DESENS-G32
340
0
  0
BLOCK_RECORD
  5
6A
100
AcDbSymbolTableRecord
100
AcDbBlockTableRecord
  2
DESENS-G33
340
0
  0
BLOCK_RECORD
  5
6B
100
AcDbSymbolTableRecord
100
AcDbBlockTableRecord
  2
DESENS-G34
340
0
  0
BLOCK_RECORD
  5
6C
100
AcDbSymbolTableRecord
100
AcDbBlockTableRecord
  2
DESENS-G35
340
0
  0
BLOCK_RECORD
  5
6D
100
AcDbSymbolTableRecord
100
AcDbBlockTableRecord
  2
DESENS-G36
340
0
  0
ENDTAB
  0
ENDSEC
  0
SECTION
  2
BLOCKS
  0
BLOCK
  5
20
100
AcDbEntity
  8
0
100
AcDbBlockBegin
  2
*Model_Space
 70
0
 10
0.0
 20
0.0
 30
0.0
  3
*Model_Space
  1

  0
ENDBLK
  5
21
100
AcDbEntity
  8
0
100
AcDbBlockEnd
  0
BLOCK
  5
1C
100
AcDbEntity
 67
1
  8
0
100
AcDbBlockBegin
  2
*Paper_Space
 70
0
 10
0.0
 20
0.0
 30
0.0
  3
*Paper_Space
  1

  0
ENDBLK
  5
1D
100
AcDbEntity
 67
1
  8
0
100
AcDbBlockEnd
  0
BLOCK
  5
24
100
AcDbEntity
  8
0
100
AcDbBlockBegin
  2
*Paper_Space0
 70
0
 10
0.0
 20
0.0
 30
0.0
  3
*Paper_Space0
  1

  0
ENDBLK
  5
25
100
AcDbEntity
  8
0
100
AcDbBlockEnd
  0
BLOCK
  5
6E
100
AcDbEntity
  8
0
100
AcDbBlockBegin
  2
DESENS-G1
 70
0
 10
0.0
 20
0.0
 30
0.0
  3
DESENS-G1
  1

  0
LINE
  5
6F
100
AcDbEntity
100
AcDbLine
  8
HACHURE
 62
5
370
-1
  6
CONTINUOUS
 10
230.9873230000000035
 20
101.0395929999999964
 30
0.0
 11
229.2810729999999921
 21
103.9949040000000053
 31
0.0
  0
LINE
  5
70
100
AcDbEntity
100
AcDbLine
  8
HACHURE
 62
5
370
-1
  6
CONTINUOUS
 10
224.5187090000000012
 20
103.9949830000000048
 30
0.0
 11
231.7343339999999898
 21
91.4971539999999948
 31
0.0
  0
LINE
  5
71
100
AcDbEntity
100
AcDbLine
  8
HACHURE
 62
5
370
-1
  6
CONTINUOUS
 10
227.6774389999999926
 20
90.2753249999999952
 30
0.0
 11
221.9043920000000014
 21
100.2745350000000002
 31
0.0
  0
LINE
  5
72
100
AcDbEntity
100
AcDbLine
  8
HACHURE
 62
5
370
-1
  6
CONTINUOUS
 10
220.4606420000000071
 20
102.7751839999999959
 30
0.0
 11
219.7344699999999875
 21
104.0329499999999996
 31
0.0
  0
LINE
  5
73
100
AcDbEntity
100
AcDbLine
  8
HACHURE
 62
5
370
-1
  6
CONTINUOUS
 10
217.1409610000000043
 20
100.2749000000000024
 30
0.0
 11
220.0272889999999961
 21
95.2756329999999991
 31
0.0
  0
LINE
  5
74
100
AcDbEntity
100
AcDbLine
  8
HACHURE
 62
5
370
-1
  6
CONTINUOUS
 10
221.672600999999986
 20
92.4258679999999941
 30
0.0
 11
223.7343199999999968
 21
88.8548660000000012
 31
0.0
  0
LINE
  5
75
100
AcDbEntity
100
AcDbLine
  8
HACHURE
 62
5
370
-1
  6
CONTINUOUS
 10
231.3239089999999862
 20
67.4607349999999997
 30
0.0
 11
227.3891439999999875
 21
74.2759489999999971
 31
0.0
  0
LINE
  5
76
100
AcDbEntity
100
AcDbLine
  8
HACHURE
 62
5
370
-1
  6
CONTINUOUS
 10
223.7344559999999944
 20
80.6060530000000028
 30
0.0
 11
218.4149250000000109
 21
89.8197509999999966
 31
0.0
  0
LINE
  5
77
100
AcDbEntity
100
AcDbLine
  8
HACHURE
 62
5
370
-1
  6
CONTINUOUS
 10
215.2653160000000128
 20
95.2750350000000026
 30
0.0
 11
212.3789879999999926
 21
100.2743020000000058
 31
0.0
  0
LINE
  5
78
100
AcDbEntity
100
AcDbLine
  8
HACHURE
 62
5
370
-1
  6
CONTINUOUS
 10
208.7713109999999972
 20
98.2744030000000066
 30
0.0
 11
210.5029519999999934
 21
95.2751130000000046
 31
0.0
  0
LINE
  5
79
100
AcDbEntity
100
AcDbLine
  8
HACHURE
 62
5
370
-1
  6
CONTINUOUS
 10
217.7345929999999896
 20
82.7495440000000002
 30
0.0
 11
230.5486549999999966
 21
60.5549370000000025
 31
0.0
  0
LINE
  5
7A
100
AcDbEntity
100
AcDbLine
  8
HACHURE
 62
5
370
-1
  6
CONTINUOUS
 10
225.7859009999999955
 20
60.5556920000000005
 30
0.0
 11
220.7515260000000126
 21
69.2754860000000008
 31
0.0
  0
LINE
  5
7B
100
AcDbEntity
100
AcDbLine
  8
HACHURE
 62
5
370
-1
  6
CONTINUOUS
 10
215.9891619999999932
 20
69.2755640000000028
 30
0.0
 11
218.8758799999999951
 21
64.275621000000001
 31
0.0
  0
LINE
  5
7C
100
AcDbEntity
100
AcDbLine
  8
HACHURE
 62
5
370
-1
  6
CONTINUOUS
 10
220.3196299999999894
 20
61.7749719999999982
 30
0.0
 11
221.7625989999999945
 21
59.2756770000000017
 31
0.0
  0
LINE
  5
7D
100
AcDbEntity
100
AcDbLine
  8
HACHURE
 62
5
370
-1
  6
CONTINUOUS
 10
214.112448999999998
 20
64.2759850000000057
 30
0.0
 11
211.2261210000000062
 21
69.2752519999999947
 31
0.0
  0
LINE
  5
7E
100
AcDbEntity
100
AcDbLine
  8
HACHURE
 62
5
370
-1
  6
CONTINUOUS
 10
207.7348509999999919
 20
67.0737320000000068
 30
0.0
 11
208.1957889999999907
 21
66.2753649999999936
 31
0.0
  0
LINE
  5
7F
100
AcDbEntity
100
AcDbLine
  8
HACHURE
 62
5
370
-1
  6
CONTINUOUS
 10
230.9253490000000113
 20
101.7578630000000004
 30
0.0
 11
222.2347239999999999
 21
101.7578630000000004
 31
0.0
  0
LINE
  5
80
100
AcDbEntity
100
AcDbLine
  8
HACHURE
 62
5
370
-1
  6
CONTINUOUS
 10
207.7347239999999999
 20
97.6335739999999959
 30
0.0
 11
231.2769110000000126
 21
97.6335739999999959
 31
0.0
  0
LINE
  5
81
100
AcDbEntity
100
AcDbLine
  8
HACHURE
 62
5
370
-1
  6
CONTINUOUS
 10
231.6292550000000006
 20
93.509286000000003
 30
0.0
 11
222.7347239999999999
 21
93.509286000000003
 31
0.0
  0
LINE
  5
82
100
AcDbEntity
100
AcDbLine
  8
HACHURE
 62
5
370
-1
  6
CONTINUOUS
 10
217.8714420000000018
 20
89.384215999999995
 30
0.0
 11
223.7347239999999999
 21
89.384215999999995
 31
0.0
  0
LINE
  5
83
100
AcDbEntity
100
AcDbLine
  8
HACHURE
 62
5
370
-1
  6
CONTINUOUS
 10
223.7347239999999999
 20
85.2599270000000047
 30
0.0
 11
217.7347239999999999
 21
85.2599270000000047
 31
0.0
  0
LINE
  5
84
100
AcDbEntity
100
AcDbLine
  8
HACHURE
 62
5
370
-1
  6
CONTINUOUS
 10
217.7347239999999999
 20
81.1356380000000001
 30
0.0
 11
223.7347239999999999
 21
81.1356380000000001
 31
0.0
  0
LINE
  5
85
100
AcDbEntity
100
AcDbLine
  8
HACHURE
 62
5
370
-1
  6
CONTINUOUS
 10
223.7347239999999999
 20
77.0113489999999956
 30
0.0
 11
217.7347239999999999
 21
77.0113489999999956
 31
0.0
  0
LINE
  5
86
100
AcDbEntity
100
AcDbLine
  8
HACHURE
 62
5
370
-1
  6
CONTINUOUS
 10
220.7198799999999892
 20
72.8870600000000053
 30
0.0
 11
231.7347239999999999
 21
72.8870600000000053
 31
0.0
  0
LINE
  5
87
100
AcDbEntity
100
AcDbLine
  8
HACHURE
 62
5
370
-1
  6
CONTINUOUS
 10
231.4347239999999886
 20
68.7619899999999973
 30
0.0
 11
207.7347239999999999
 21
68.7619899999999973
 31
0.0
  0
LINE
  5
88
100
AcDbEntity
100
AcDbLine
  8
HACHURE
 62
5
370
-1
  6
CONTINUOUS
 10
211.3722239999999886
 20
64.637701000000007
 30
0.0
 11
231.0823800000000006
 21
64.637701000000007
 31
0.0
  0
LINE
  5
89
100
AcDbEntity
100
AcDbLine
  8
HACHURE
 62
5
370
-1
  6
CONTINUOUS
 10
223.7347239999999999
 20
60.5134129999999999
 30
0.0
 11
219.7347239999999999
 21
60.5134129999999999
 31
0.0
  0
ENDBLK
  5
8A
100
AcDbEntity
  8
0
100
AcDbBlockEnd
  0
BLOCK
  5
8B
100
AcDbEntity
  8
0
100
AcDbBlockBegin
  2
DESENS-G2
 70
0
 10
0.0
 20
0.0
 30
0.0
  3
DESENS-G2
  1

  0
LINE
  5
8C
100
AcDbEntity
100
AcDbLine
  8
HACHURE
 62
5
370
-1
  6
CONTINUOUS
 10
221.2596169999999915
 20
64.244456999999997
 30
0.0
 11
219.7912919999999986
 21
63.3967189999999974
 31
0.0
  0
LINE
  5
8D
100
AcDbEntity
100
AcDbLine
  8
HACHURE
 62
5
370
-1
  6
CONTINUOUS
 10
220.0043369999999925
 20
62.2497189999999989
 30
0.0
 11
222.1464249999999936
 21
63.4864540000000019
 31
0.0
  0
LINE
  5
8E
100
AcDbEntity
100
AcDbLine
  8
HACHURE
 62
5
370
-1
  6
CONTINUOUS
 10
219.9700750000000085
 20
63.7550090000000012
 30
0.0
 11
219.9700750000000085
 21
62.2951300000000003
 31
0.0
  0
LINE
  5
8F
100
AcDbEntity
100
AcDbLine
  8
HACHURE
 62
5
370
-1
  6
CONTINUOUS
 10
221.0699290000000019
 20
61.7780399999999972
 30
0.0
 11
221.0699290000000019
 21
64.2720989999999972
 31
0.0
  0
LINE
  5
90
100
AcDbEntity
100
AcDbLine
  8
HACHURE
 62
5
370
-1
  6
CONTINUOUS
 10
222.1697819999999979
 20
63.4225709999999978
 30
0.0
 11
222.1697819999999979
 21
62.6275679999999966
 31
0.0
  0
ENDBLK
  5
91
100
AcDbEntity
  8
0
100
AcDbBlockEnd
  0
BLOCK
  5
92
100
AcDbEntity
  8
0
100
AcDbBlockBegin
  2
DESENS-G3
 70
0
 10
0.0
 20
0.0
 30
0.0
  3
DESENS-G3
  1

  0
LINE
  5
93
100
AcDbEntity
100
AcDbLine
  8
HACHURE
 62
5
370
-1
  6
CONTINUOUS
 10
199.3573580000000049
 20
58.2747499999999974
 30
0.0
 11
198.1498479999999915
 21
55.6852349999999987
 31
0.0
  0
LINE
  5
94
100
AcDbEntity
100
AcDbLine
  8
HACHURE
 62
5
370
-1
  6
CONTINUOUS
 10
204.272642999999988
 20
55.2933299999999974
 30
0.0
 11
209.3933499999999981
 21
66.2747200000000021
 31
0.0
  0
LINE
  5
95
100
AcDbEntity
100
AcDbLine
  8
HACHURE
 62
5
370
-1
  6
CONTINUOUS
 10
214.7671019999999942
 20
64.2748119999999972
 30
0.0
 11
212.4358110000000011
 21
59.275342000000002
 31
0.0
  0
LINE
  5
96
100
AcDbEntity
100
AcDbLine
  8
HACHURE
 62
5
370
-1
  6
CONTINUOUS
 10
218.7413180000000068
 20
59.2752630000000025
 30
0.0
 11
219.7335219999999936
 21
61.4030520000000024
 31
0.0
  0
LINE
  5
97
100
AcDbEntity
100
AcDbLine
  8
HACHURE
 62
5
370
-1
  6
CONTINUOUS
 10
201.4590939999999932
 20
58.2745099999999994
 30
0.0
 11
200.0602000000000089
 21
55.2745710000000017
 31
0.0
  0
LINE
  5
98
100
AcDbEntity
100
AcDbLine
  8
HACHURE
 62
5
370
-1
  6
CONTINUOUS
 10
206.6162999999999954
 20
55.8118910000000028
 30
0.0
 11
210.9352890000000116
 21
65.0739920000000041
 31
0.0
  0
LINE
  5
99
100
AcDbEntity
100
AcDbLine
  8
HACHURE
 62
5
370
-1
  6
CONTINUOUS
 10
216.8688380000000109
 20
64.2745720000000063
 30
0.0
 11
214.5375469999999893
 21
59.2751019999999968
 31
0.0
  0
ENDBLK
  5
9A
100
AcDbEntity
  8
0
100
AcDbBlockEnd
  0
BLOCK
  5
9B
100
AcDbEntity
  8
0
100
AcDbBlockBegin
  2
DESENS-G4
 70
0
 10
0.0
 20
0.0
 30
0.0
  3
DESENS-G4
  1

  0
LINE
  5
9C
100
AcDbEntity
100
AcDbLine
  8
HACHURE
 62
5
370
-1
  6
CONTINUOUS
 10
206.0241770000000088
 20
108.2747619999999955
 30
0.0
 11
205.7345080000000053
 21
107.6535640000000029
 31
0.0
  0
LINE
  5
9D
100
AcDbEntity
100
AcDbLine
  8
HACHURE
 62
5
370
-1
  6
CONTINUOUS
 10
207.6672289999999919
 20
98.2754189999999994
 30
0.0
 11
211.7345449999999971
 21
106.9978049999999996
 31
0.0
  0
LINE
  5
9E
100
AcDbEntity
100
AcDbLine
  8
HACHURE
 62
5
370
-1
  6
CONTINUOUS
 10
217.2369050000000072
 20
105.2747750000000053
 30
0.0
 11
214.9054889999999887
 21
100.2750360000000001
 31
0.0
  0
LINE
  5
9F
100
AcDbEntity
100
AcDbLine
  8
HACHURE
 62
5
370
-1
  6
CONTINUOUS
 10
210.1079229999999995
 20
112.5247569999999939
 30
0.0
 11
208.7344970000000046
 21
109.5794340000000062
 31
0.0
  0
LINE
  5
A0
100
AcDbEntity
100
AcDbLine
  8
HACHURE
 62
5
370
-1
  6
CONTINUOUS
 10
208.1260749999999859
 20
108.2746690000000029
 30
0.0
 11
205.7345669999999984
 21
103.146064999999993
 31
0.0
  0
LINE
  5
A1
100
AcDbEntity
100
AcDbLine
  8
HACHURE
 62
5
370
-1
  6
CONTINUOUS
 10
209.7989800000000002
 20
98.3393460000000061
 30
0.0
 11
213.0331099999999935
 21
105.2749610000000047
 31
0.0
  0
LINE
  5
A2
100
AcDbEntity
100
AcDbLine
  8
HACHURE
 62
5
370
-1
  6
CONTINUOUS
 10
219.3388030000000128
 20
105.2746819999999985
 30
0.0
 11
217.0075789999999927
 21
100.2753560000000022
 31
0.0
  0
ENDBLK
  5
A3
100
AcDbEntity
  8
0
100
AcDbBlockEnd
  0
BLOCK
  5
A4
100
AcDbEntity
  8
0
100
AcDbBlockBegin
  2
DESENS-G5
 70
0
 10
0.0
 20
0.0
 30
0.0
  3
DESENS-G5
  1

  0
LINE
  5
A5
100
AcDbEntity
100
AcDbLine
  8
HACHURE
 62
5
370
-1
  6
CONTINUOUS
 10
221.6611509999999896
 20
102.5761600000000016
 30
0.0
 11
219.7361329999999953
 21
101.4647499999999951
 31
0.0
  0
LINE
  5
A6
100
AcDbEntity
100
AcDbLine
  8
HACHURE
 62
5
370
-1
  6
CONTINUOUS
 10
220.2673839999999927
 20
100.5014659999999935
 30
0.0
 11
222.2298250000000053
 21
101.6344820000000055
 31
0.0
  0
LINE
  5
A7
100
AcDbEntity
100
AcDbLine
  8
HACHURE
 62
5
370
-1
  6
CONTINUOUS
 10
219.9700750000000085
 20
102.2550090000000012
 30
0.0
 11
219.9700750000000085
 21
100.7951300000000003
 31
0.0
  0
LINE
  5
A8
100
AcDbEntity
100
AcDbLine
  8
HACHURE
 62
5
370
-1
  6
CONTINUOUS
 10
221.0699290000000019
 20
100.2780400000000043
 30
0.0
 11
221.0699290000000019
 21
102.7720989999999972
 31
0.0
  0
LINE
  5
A9
100
AcDbEntity
100
AcDbLine
  8
HACHURE
 62
5
370
-1
  6
CONTINUOUS
 10
222.1697819999999979
 20
101.9225710000000049
 30
0.0
 11
222.1697819999999979
 21
101.1275679999999966
 31
0.0
  0
ENDBLK
  5
AA
100
AcDbEntity
  8
0
100
AcDbBlockEnd
  0
BLOCK
  5
AB
100
AcDbEntity
  8
0
100
AcDbBlockBegin
  2
DESENS-G6
 70
0
 10
0.0
 20
0.0
 30
0.0
  3
DESENS-G6
  1

  0
LINE
  5
AC
100
AcDbEntity
100
AcDbLine
  8
HACHURE
 62
5
370
-1
  6
CONTINUOUS
 10
273.5176559999999881
 20
178.2239879999999914
 30
0.0
 11
268.5172230000000013
 21
167.5005260000000078
 31
0.0
  0
LINE
  5
AD
100
AcDbEntity
100
AcDbLine
  8
HACHURE
 62
5
370
-1
  6
CONTINUOUS
 10
271.9175769999999943
 20
161.2744069999999965
 30
0.0
 11
274.0760670000000232
 21
165.903302999999994
 31
0.0
  0
LINE
  5
AE
100
AcDbEntity
100
AcDbLine
  8
HACHURE
 62
5
370
-1
  6
CONTINUOUS
 10
277.2937380000000189
 20
159.2738950000000102
 30
0.0
 11
275.8951910000000112
 21
156.2747009999999932
 31
0.0
  0
LINE
  5
AF
100
AcDbEntity
100
AcDbLine
  8
HACHURE
 62
5
370
-1
  6
CONTINUOUS
 10
273.5639120000000162
 20
151.2752570000000105
 30
0.0
 11
268.5178060000000073
 21
140.4538469999999961
 31
0.0
  0
LINE
  5
B0
100
AcDbEntity
100
AcDbLine
  8
HACHURE
 62
5
370
-1
  6
CONTINUOUS
 10
268.5179529999999772
 20
126.9359620000000035
 30
0.0
 11
271.5178280000000086
 21
133.369213000000002
 31
0.0
  0
LINE
  5
B1
100
AcDbEntity
100
AcDbLine
  8
HACHURE
 62
5
370
-1
  6
CONTINUOUS
 10
277.4355840000000057
 20
146.0598819999999876
 30
0.0
 11
282.5180090000000064
 21
156.9591780000000085
 31
0.0
  0
LINE
  5
B2
100
AcDbEntity
100
AcDbLine
  8
HACHURE
 62
5
370
-1
  6
CONTINUOUS
 10
285.243725999999981
 20
149.274770999999987
 30
0.0
 11
284.1596660000000156
 21
146.9499969999999962
 31
0.0
  0
LINE
  5
B3
100
AcDbEntity
100
AcDbLine
  8
HACHURE
 62
5
370
-1
  6
CONTINUOUS
 10
271.5174369999999726
 20
119.8386490000000038
 30
0.0
 11
268.518113000000028
 21
113.4065779999999961
 31
0.0
  0
LINE
  5
B4
100
AcDbEntity
100
AcDbLine
  8
HACHURE
 62
5
370
-1
  6
CONTINUOUS
 10
268.5182609999999954
 20
99.8886930000000035
 30
0.0
 11
271.5170340000000238
 21
106.3195840000000061
 31
0.0
  0
LINE
  5
B5
100
AcDbEntity
100
AcDbLine
  8
HACHURE
 62
5
370
-1
  6
CONTINUOUS
 10
272.2047620000000165
 20
94.2762189999999975
 30
0.0
 11
267.5177160000000072
 21
84.2248170000000016
 31
0.0
  0
LINE
  5
B6
100
AcDbEntity
100
AcDbLine
  8
HACHURE
 62
5
370
-1
  6
CONTINUOUS
 10
273.6169509999999718
 20
83.7749409999999983
 30
0.0
 11
278.2965679999999793
 21
93.8104119999999995
 31
0.0
  0
LINE
  5
B7
100
AcDbEntity
100
AcDbLine
  8
HACHURE
 62
5
370
-1
  6
CONTINUOUS
 10
282.5955349999999839
 20
89.511376999999996
 30
0.0
 11
278.9881470000000263
 21
81.7753079999999954
 31
0.0
  0
LINE
  5
B8
100
AcDbEntity
100
AcDbLine
  8
HACHURE
 62
5
370
-1
  6
CONTINUOUS
 10
270.266098999999997
 20
180.2746630000000039
 30
0.0
 11
268.5186719999999809
 21
176.5272919999999885
 31
0.0
  0
LINE
  5
B9
100
AcDbEntity
100
AcDbLine
  8
HACHURE
 62
5
370
-1
  6
CONTINUOUS
 10
268.516617999999994
 20
163.0046869999999899
 30
0.0
 11
273.5181519999999864
 21
173.7305090000000121
 31
0.0
  0
LINE
  5
BA
100
AcDbEntity
100
AcDbLine
  8
HACHURE
 62
5
370
-1
  6
CONTINUOUS
 10
275.6790020000000254
 20
164.8347420000000056
 30
0.0
 11
272.5198199999999815
 21
158.0598549999999989
 31
0.0
  0
LINE
  5
BB
100
AcDbEntity
100
AcDbLine
  8
HACHURE
 62
5
370
-1
  6
CONTINUOUS
 10
269.3562370000000215
 20
151.275527000000011
 30
0.0
 11
268.5178789999999935
 21
149.4776630000000068
 31
0.0
  0
LINE
  5
BC
100
AcDbEntity
100
AcDbLine
  8
HACHURE
 62
5
370
-1
  6
CONTINUOUS
 10
268.5180260000000203
 20
135.959778
 30
0.0
 11
271.5179009999999948
 21
142.3930290000000127
 31
0.0
  0
LINE
  5
BD
100
AcDbEntity
100
AcDbLine
  8
HACHURE
 62
5
370
-1
  6
CONTINUOUS
 10
272.9365329999999972
 20
145.4352969999999914
 30
0.0
 11
275.6596149999999739
 21
151.2749630000000138
 31
0.0
  0
LINE
  5
BE
100
AcDbEntity
100
AcDbLine
  8
HACHURE
 62
5
370
-1
  6
CONTINUOUS
 10
277.9911690000000135
 20
156.2749970000000133
 30
0.0
 11
279.3897160000000213
 21
159.2741919999999993
 31
0.0
  0
LINE
  5
BF
100
AcDbEntity
100
AcDbLine
  8
HACHURE
 62
5
370
-1
  6
CONTINUOUS
 10
282.5185159999999769
 20
152.4541989999999885
 30
0.0
 11
279.6749229999999784
 21
146.3560929999999871
 31
0.0
  0
LINE
  5
C0
100
AcDbEntity
100
AcDbLine
  8
HACHURE
 62
5
370
-1
  6
CONTINUOUS
 10
271.5177850000000035
 20
128.8630550000000028
 30
0.0
 11
268.5179110000000264
 21
122.4298040000000043
 31
0.0
  0
LINE
  5
C1
100
AcDbEntity
100
AcDbLine
  8
HACHURE
 62
5
370
-1
  6
CONTINUOUS
 10
268.5180579999999964
 20
108.9119189999999975
 30
0.0
 11
271.5173819999999978
 21
115.3439900000000051
 31
0.0
  0
LINE
  5
C2
100
AcDbEntity
100
AcDbLine
  8
HACHURE
 62
5
370
-1
  6
CONTINUOUS
 10
286.3934899999999857
 20
147.2459059999999909
 30
0.0
 11
287.3397039999999834
 21
149.2750680000000045
 31
0.0
  0
LINE
  5
C3
100
AcDbEntity
100
AcDbLine
  8
HACHURE
 62
5
370
-1
  6
CONTINUOUS
 10
271.5169799999999896
 20
101.8249249999999932
 30
0.0
 11
268.5182060000000206
 21
95.3940340000000049
 31
0.0
  0
LINE
  5
C4
100
AcDbEntity
100
AcDbLine
  8
HACHURE
 62
5
370
-1
  6
CONTINUOUS
 10
269.4092759999999771
 20
83.7752119999999962
 30
0.0
 11
274.3059799999999768
 21
94.2762280000000032
 31
0.0
  0
LINE
  5
C5
100
AcDbEntity
100
AcDbLine
  8
HACHURE
 62
5
370
-1
  6
CONTINUOUS
 10
279.7258770000000254
 20
92.3810320000000047
 30
0.0
 11
274.7804719999999747
 21
81.7755789999999934
 31
0.0
  0
LINE
  5
C6
100
AcDbEntity
100
AcDbLine
  8
HACHURE
 62
5
370
-1
  6
CONTINUOUS
 10
281.0893649999999866
 20
81.7753170000000011
 30
0.0
 11
284.1208809999999971
 21
88.2764229999999941
 31
0.0
  0
ENDBLK
  5
C7
100
AcDbEntity
  8
0
100
AcDbBlockEnd
  0
BLOCK
  5
C8
100
AcDbEntity
  8
0
100
AcDbBlockBegin
  2
DESENS-G7
 70
0
 10
0.0
 20
0.0
 30
0.0
  3
DESENS-G7
  1

  0
LINE
  5
C9
100
AcDbEntity
100
AcDbLine
  8
HACHURE
 62
5
370
-1
  6
CONTINUOUS
 10
322.5178159999999821
 20
161.9533759999999916
 30
0.0
 11
319.5181890000000067
 21
160.2215400000000045
 31
0.0
  0
LINE
  5
CA
100
AcDbEntity
100
AcDbLine
  8
HACHURE
 62
5
370
-1
  6
CONTINUOUS
 10
319.5182409999999891
 20
154.7210599999999943
 30
0.0
 11
322.517784000000006
 21
156.4528469999999913
 31
0.0
  0
LINE
  5
CB
100
AcDbEntity
100
AcDbLine
  8
HACHURE
 62
5
370
-1
  6
CONTINUOUS
 10
322.5178839999999809
 20
150.955016999999998
 30
0.0
 11
319.518256000000008
 21
149.223181000000011
 31
0.0
  0
LINE
  5
CC
100
AcDbEntity
100
AcDbLine
  8
HACHURE
 62
5
370
-1
  6
CONTINUOUS
 10
319.5183079999999904
 20
143.7227010000000007
 30
0.0
 11
322.5179360000000202
 21
145.4545369999999878
 31
0.0
  0
LINE
  5
CD
100
AcDbEntity
100
AcDbLine
  8
HACHURE
 62
5
370
-1
  6
CONTINUOUS
 10
322.5179519999999798
 20
139.9566580000000044
 30
0.0
 11
319.5183240000000069
 21
138.224821999999989
 31
0.0
  0
LINE
  5
CE
100
AcDbEntity
100
AcDbLine
  8
HACHURE
 62
5
370
-1
  6
CONTINUOUS
 10
319.5183759999999893
 20
132.7243410000000097
 30
0.0
 11
322.5180030000000215
 21
134.4561769999999967
 31
0.0
  0
LINE
  5
CF
100
AcDbEntity
100
AcDbLine
  8
HACHURE
 62
5
370
-1
  6
CONTINUOUS
 10
322.5180189999999811
 20
128.9582990000000109
 30
0.0
 11
319.5183910000000083
 21
127.2264629999999954
 31
0.0
  0
LINE
  5
D0
100
AcDbEntity
100
AcDbLine
  8
HACHURE
 62
5
370
-1
  6
CONTINUOUS
 10
319.5184429999999907
 20
121.7259820000000019
 30
0.0
 11
322.5180710000000204
 21
123.4578180000000032
 31
0.0
  0
LINE
  5
D1
100
AcDbEntity
100
AcDbLine
  8
HACHURE
 62
5
370
-1
  6
CONTINUOUS
 10
322.51808699999998
 20
117.9599400000000031
 30
0.0
 11
319.5185430000000224
 21
116.2281519999999944
 31
0.0
  0
LINE
  5
D2
100
AcDbEntity
100
AcDbLine
  8
HACHURE
 62
5
370
-1
  6
CONTINUOUS
 10
319.5185109999999895
 20
110.7276229999999941
 30
0.0
 11
322.5181390000000192
 21
112.4594589999999954
 31
0.0
  0
LINE
  5
D3
100
AcDbEntity
100
AcDbLine
  8
HACHURE
 62
5
370
-1
  6
CONTINUOUS
 10
322.5181539999999814
 20
106.9615799999999979
 30
0.0
 11
319.5186110000000212
 21
105.2297930000000008
 31
0.0
  0
LINE
  5
D4
100
AcDbEntity
100
AcDbLine
  8
HACHURE
 62
5
370
-1
  6
CONTINUOUS
 10
319.5186630000000036
 20
99.7293130000000048
 30
0.0
 11
322.5182060000000206
 21
101.4611000000000018
 31
0.0
  0
LINE
  5
D5
100
AcDbEntity
100
AcDbLine
  8
HACHURE
 62
5
370
-1
  6
CONTINUOUS
 10
322.5182219999999802
 20
95.9632210000000043
 30
0.0
 11
319.5186790000000201
 21
94.231433999999993
 31
0.0
  0
LINE
  5
D6
100
AcDbEntity
100
AcDbLine
  8
HACHURE
 62
5
370
-1
  6
CONTINUOUS
 10
319.518730000000005
 20
88.7309529999999995
 30
0.0
 11
322.5182740000000194
 21
90.4627409999999941
 31
0.0
  0
LINE
  5
D7
100
AcDbEntity
100
AcDbLine
  8
HACHURE
 62
5
370
-1
  6
CONTINUOUS
 10
322.5183739999999943
 20
84.9649110000000007
 30
0.0
 11
319.5187460000000215
 21
83.2330749999999995
 31
0.0
  0
LINE
  5
D8
100
AcDbEntity
100
AcDbLine
  8
HACHURE
 62
5
370
-1
  6
CONTINUOUS
 10
319.5187980000000039
 20
77.732594000000006
 30
0.0
 11
322.5183410000000208
 21
79.464381000000003
 31
0.0
  0
LINE
  5
D9
100
AcDbEntity
100
AcDbLine
  8
HACHURE
 62
5
370
-1
  6
CONTINUOUS
 10
322.5184409999999957
 20
73.966551999999993
 30
0.0
 11
319.5188140000000203
 21
72.2347160000000059
 31
0.0
  0
LINE
  5
DA
100
AcDbEntity
100
AcDbLine
  8
HACHURE
 62
5
370
-1
  6
CONTINUOUS
 10
319.5188660000000027
 20
66.7342349999999982
 30
0.0
 11
322.5184929999999781
 21
68.4660709999999995
 31
0.0
  0
LINE
  5
DB
100
AcDbEntity
100
AcDbLine
  8
HACHURE
 62
5
370
-1
  6
CONTINUOUS
 10
322.5185089999999946
 20
62.9681920000000019
 30
0.0
 11
319.5188810000000217
 21
61.2363560000000007
 31
0.0
  0
LINE
  5
DC
100
AcDbEntity
100
AcDbLine
  8
HACHURE
 62
5
370
-1
  6
CONTINUOUS
 10
319.5189330000000041
 20
55.7358759999999975
 30
0.0
 11
322.518560999999977
 21
57.4677119999999988
 31
0.0
  0
ENDBLK
  5
DD
100
AcDbEntity
  8
0
100
AcDbBlockEnd
  0
BLOCK
  5
DE
100
AcDbEntity
  8
0
100
AcDbBlockBegin
  2
DESENS-G8
 70
0
 10
0.0
 20
0.0
 30
0.0
  3
DESENS-G8
  1

  0
LINE
  5
DF
100
AcDbEntity
100
AcDbLine
  8
HACHURE
 62
5
370
-1
  6
CONTINUOUS
 10
317.3635199999999941
 20
162.2755469999999889
 30
0.0
 11
316.5182149999999979
 21
161.7875099999999975
 31
0.0
  0
LINE
  5
E0
100
AcDbEntity
100
AcDbLine
  8
HACHURE
 62
5
370
-1
  6
CONTINUOUS
 10
316.5182280000000219
 20
159.8831910000000107
 30
0.0
 11
319.517770999999982
 21
161.6149780000000078
 31
0.0
  0
LINE
  5
E1
100
AcDbEntity
100
AcDbLine
  8
HACHURE
 62
5
370
-1
  6
CONTINUOUS
 10
319.517819999999972
 20
159.7080579999999941
 30
0.0
 11
316.5182770000000119
 21
157.976270999999997
 31
0.0
  0
LINE
  5
E2
100
AcDbEntity
100
AcDbLine
  8
HACHURE
 62
5
370
-1
  6
CONTINUOUS
 10
316.5183739999999943
 20
156.0720010000000002
 30
0.0
 11
319.5178319999999985
 21
157.8037390000000073
 31
0.0
  0
LINE
  5
E3
100
AcDbEntity
100
AcDbLine
  8
HACHURE
 62
5
370
-1
  6
CONTINUOUS
 10
319.5178450000000225
 20
155.8994209999999896
 30
0.0
 11
316.5183860000000209
 21
154.1676830000000109
 31
0.0
  0
LINE
  5
E4
100
AcDbEntity
100
AcDbLine
  8
HACHURE
 62
5
370
-1
  6
CONTINUOUS
 10
316.5184830000000034
 20
152.2634130000000141
 30
0.0
 11
319.5178569999999922
 21
153.9951030000000003
 31
0.0
  0
LINE
  5
E5
100
AcDbEntity
100
AcDbLine
  8
HACHURE
 62
5
370
-1
  6
CONTINUOUS
 10
319.5178210000000263
 20
152.0881329999999991
 30
0.0
 11
317.0182720000000245
 21
150.6450179999999932
 31
0.0
  0
LINE
  5
E6
100
AcDbEntity
100
AcDbLine
  8
HACHURE
 62
5
370
-1
  6
CONTINUOUS
 10
316.5183749999999918
 20
148.4520770000000027
 30
0.0
 11
319.5178339999999935
 21
150.1838150000000098
 31
0.0
  0
LINE
  5
E7
100
AcDbEntity
100
AcDbLine
  8
HACHURE
 62
5
370
-1
  6
CONTINUOUS
 10
319.51784600000002
 20
148.2794969999999921
 30
0.0
 11
316.5183880000000158
 21
146.5477579999999875
 31
0.0
  0
LINE
  5
E8
100
AcDbEntity
100
AcDbLine
  8
HACHURE
 62
5
370
-1
  6
CONTINUOUS
 10
316.5183999999999855
 20
144.6434399999999982
 30
0.0
 11
319.5178589999999872
 21
146.3751780000000053
 31
0.0
  0
LINE
  5
E9
100
AcDbEntity
100
AcDbLine
  8
HACHURE
 62
5
370
-1
  6
CONTINUOUS
 10
319.5179069999999797
 20
144.4682579999999916
 30
0.0
 11
316.5183640000000196
 21
142.7364709999999945
 31
0.0
  0
LINE
  5
EA
100
AcDbEntity
100
AcDbLine
  8
HACHURE
 62
5
370
-1
  6
CONTINUOUS
 10
316.5183769999999868
 20
140.8321520000000078
 30
0.0
 11
319.5179200000000037
 21
142.5639390000000049
 31
0.0
  0
LINE
  5
EB
100
AcDbEntity
100
AcDbLine
  8
HACHURE
 62
5
370
-1
  6
CONTINUOUS
 10
319.5179319999999734
 20
140.6596209999999871
 30
0.0
 11
316.5183890000000133
 21
138.9278339999999901
 31
0.0
  0
LINE
  5
EC
100
AcDbEntity
100
AcDbLine
  8
HACHURE
 62
5
370
-1
  6
CONTINUOUS
 10
316.518400999999983
 20
137.0235160000000008
 30
0.0
 11
319.5179449999999974
 21
138.7553029999999978
 31
0.0
  0
LINE
  5
ED
100
AcDbEntity
100
AcDbLine
  8
HACHURE
 62
5
370
-1
  6
CONTINUOUS
 10
319.5179929999999899
 20
136.8483819999999866
 30
0.0
 11
316.518449999999973
 21
135.1165949999999896
 31
0.0
  0
LINE
  5
EE
100
AcDbEntity
100
AcDbLine
  8
HACHURE
 62
5
370
-1
  6
CONTINUOUS
 10
316.518462999999997
 20
133.2122770000000003
 30
0.0
 11
319.518006000000014
 21
134.9440639999999973
 31
0.0
  0
LINE
  5
EF
100
AcDbEntity
100
AcDbLine
  8
HACHURE
 62
5
370
-1
  6
CONTINUOUS
 10
319.5180179999999837
 20
133.0397450000000106
 30
0.0
 11
316.5184750000000236
 21
131.3079580000000135
 31
0.0
  0
LINE
  5
F0
100
AcDbEntity
100
AcDbLine
  8
HACHURE
 62
5
370
-1
  6
CONTINUOUS
 10
316.5184869999999933
 20
129.4036399999999958
 30
0.0
 11
319.5180310000000077
 21
131.1354269999999929
 31
0.0
  0
LINE
  5
F1
100
AcDbEntity
100
AcDbLine
  8
HACHURE
 62
5
370
-1
  6
CONTINUOUS
 10
319.5179949999999849
 20
129.2284579999999892
 30
0.0
 11
316.5184520000000248
 21
127.4966710000000063
 31
0.0
  0
LINE
  5
F2
100
AcDbEntity
100
AcDbLine
  8
HACHURE
 62
5
370
-1
  6
CONTINUOUS
 10
316.5184639999999945
 20
125.5923520000000053
 30
0.0
 11
319.5180070000000114
 21
127.3241390000000024
 31
0.0
  0
LINE
  5
F3
100
AcDbEntity
100
AcDbLine
  8
HACHURE
 62
5
370
-1
  6
CONTINUOUS
 10
319.5180199999999786
 20
125.4198209999999989
 30
0.0
 11
316.5184770000000185
 21
123.6880340000000018
 31
0.0
  0
LINE
  5
F4
100
AcDbEntity
100
AcDbLine
  8
HACHURE
 62
5
370
-1
  6
CONTINUOUS
 10
316.5184889999999882
 20
121.7837150000000008
 30
0.0
 11
319.5180320000000052
 21
123.5155029999999954
 31
0.0
  0
LINE
  5
F5
100
AcDbEntity
100
AcDbLine
  8
HACHURE
 62
5
370
-1
  6
CONTINUOUS
 10
319.5180809999999951
 20
121.6085819999999984
 30
0.0
 11
316.5185379999999782
 21
119.8767950000000013
 31
0.0
  0
LINE
  5
F6
100
AcDbEntity
100
AcDbLine
  8
HACHURE
 62
5
370
-1
  6
CONTINUOUS
 10
316.5185500000000047
 20
117.9724769999999978
 30
0.0
 11
319.5180930000000217
 21
119.7042639999999949
 31
0.0
  0
LINE
  5
F7
100
AcDbEntity
100
AcDbLine
  8
HACHURE
 62
5
370
-1
  6
CONTINUOUS
 10
319.5181059999999889
 20
117.7999449999999939
 30
0.0
 11
316.5185629999999719
 21
116.0681579999999968
 31
0.0
  0
LINE
  5
F8
100
AcDbEntity
100
AcDbLine
  8
HACHURE
 62
5
370
-1
  6
CONTINUOUS
 10
316.5185749999999985
 20
114.1638399999999933
 30
0.0
 11
319.5181180000000154
 21
115.8956270000000046
 31
0.0
  0
LINE
  5
F9
100
AcDbEntity
100
AcDbLine
  8
HACHURE
 62
5
370
-1
  6
CONTINUOUS
 10
319.5181670000000054
 20
113.9887059999999934
 30
0.0
 11
316.5185389999999757
 21
112.2568710000000038
 31
0.0
  0
LINE
  5
FA
100
AcDbEntity
100
AcDbLine
  8
HACHURE
 62
5
370
-1
  6
CONTINUOUS
 10
316.5185519999999997
 20
110.3525520000000029
 30
0.0
 11
319.5181789999999751
 21
112.0843880000000041
 31
0.0
  0
LINE
  5
FB
100
AcDbEntity
100
AcDbLine
  8
HACHURE
 62
5
370
-1
  6
CONTINUOUS
 10
319.5181919999999991
 20
110.1800700000000006
 30
0.0
 11
316.5185640000000262
 21
108.4482339999999994
 31
0.0
  0
LINE
  5
FC
100
AcDbEntity
100
AcDbLine
  8
HACHURE
 62
5
370
-1
  6
CONTINUOUS
 10
316.5185769999999934
 20
106.5439149999999984
 30
0.0
 11
319.5182040000000256
 21
108.2757509999999996
 31
0.0
  0
LINE
  5
FD
100
AcDbEntity
100
AcDbLine
  8
HACHURE
 62
5
370
-1
  6
CONTINUOUS
 10
319.5181690000000003
 20
106.3687819999999959
 30
0.0
 11
316.5186249999999859
 21
104.6369949999999989
 31
0.0
  0
LINE
  5
FE
100
AcDbEntity
100
AcDbLine
  8
HACHURE
 62
5
370
-1
  6
CONTINUOUS
 10
316.5186380000000099
 20
102.7326769999999954
 30
0.0
 11
319.5181810000000269
 21
104.4644640000000066
 31
0.0
  0
LINE
  5
FF
100
AcDbEntity
100
AcDbLine
  8
HACHURE
 62
5
370
-1
  6
CONTINUOUS
 10
319.5181929999999966
 20
102.5601450000000057
 30
0.0
 11
316.5186499999999796
 21
100.8283579999999944
 31
0.0
  0
LINE
  5
100
100
AcDbEntity
100
AcDbLine
  8
HACHURE
 62
5
370
-1
  6
CONTINUOUS
 10
316.5186630000000036
 20
98.9240400000000051
 30
0.0
 11
319.5182060000000206
 21
100.6558270000000022
 31
0.0
  0
LINE
  5
101
100
AcDbEntity
100
AcDbLine
  8
HACHURE
 62
5
370
-1
  6
CONTINUOUS
 10
319.5182550000000106
 20
98.7489060000000052
 30
0.0
 11
316.5186269999999809
 21
97.0170700000000039
 31
0.0
  0
LINE
  5
102
100
AcDbEntity
100
AcDbLine
  8
HACHURE
 62
5
370
-1
  6
CONTINUOUS
 10
316.5186390000000074
 20
95.1127520000000004
 30
0.0
 11
319.5182669999999803
 21
96.8445880000000017
 31
0.0
  0
LINE
  5
103
100
AcDbEntity
100
AcDbLine
  8
HACHURE
 62
5
370
-1
  6
CONTINUOUS
 10
319.5182790000000068
 20
94.9402699999999982
 30
0.0
 11
316.5186519999999746
 21
93.2084339999999969
 31
0.0
  0
LINE
  5
104
100
AcDbEntity
100
AcDbLine
  8
HACHURE
 62
5
370
-1
  6
CONTINUOUS
 10
316.5186640000000011
 20
91.3041149999999959
 30
0.0
 11
319.518291999999974
 21
93.0359509999999972
 31
0.0
  0
LINE
  5
105
100
AcDbEntity
100
AcDbLine
  8
HACHURE
 62
5
370
-1
  6
CONTINUOUS
 10
319.518256000000008
 20
91.1289819999999935
 30
0.0
 11
316.5187129999999911
 21
89.3971949999999964
 31
0.0
  0
LINE
  5
106
100
AcDbEntity
100
AcDbLine
  8
HACHURE
 62
5
370
-1
  6
CONTINUOUS
 10
316.5187250000000176
 20
87.4928759999999954
 30
0.0
 11
319.5183529999999905
 21
89.2247119999999967
 31
0.0
  0
LINE
  5
107
100
AcDbEntity
100
AcDbLine
  8
HACHURE
 62
5
370
-1
  6
CONTINUOUS
 10
319.5183660000000145
 20
87.3203939999999932
 30
0.0
 11
316.5187379999999848
 21
85.5885580000000061
 31
0.0
  0
LINE
  5
108
100
AcDbEntity
100
AcDbLine
  8
HACHURE
 62
5
370
-1
  6
CONTINUOUS
 10
316.5187500000000114
 20
83.6842400000000026
 30
0.0
 11
319.5183779999999842
 21
85.4160760000000039
 31
0.0
  0
LINE
  5
109
100
AcDbEntity
100
AcDbLine
  8
HACHURE
 62
5
370
-1
  6
CONTINUOUS
 10
319.5183420000000183
 20
83.5091060000000027
 30
0.0
 11
316.5187139999999886
 21
81.7772700000000015
 31
0.0
  0
LINE
  5
10A
100
AcDbEntity
100
AcDbLine
  8
HACHURE
 62
5
370
-1
  6
CONTINUOUS
 10
316.5187270000000126
 20
79.872951999999998
 30
0.0
 11
319.5183549999999855
 21
81.6047879999999992
 31
0.0
  0
LINE
  5
10B
100
AcDbEntity
100
AcDbLine
  8
HACHURE
 62
5
370
-1
  6
CONTINUOUS
 10
319.518367000000012
 20
79.7004699999999957
 30
0.0
 11
316.5187389999999823
 21
77.9686339999999944
 31
0.0
  0
LINE
  5
10C
100
AcDbEntity
100
AcDbLine
  8
HACHURE
 62
5
370
-1
  6
CONTINUOUS
 10
316.5187879999999723
 20
76.0617129999999975
 30
0.0
 11
319.518416000000002
 21
77.7935489999999987
 31
0.0
  0
LINE
  5
10D
100
AcDbEntity
100
AcDbLine
  8
HACHURE
 62
5
370
-1
  6
CONTINUOUS
 10
319.5184279999999717
 20
75.8892309999999952
 30
0.0
 11
316.5187999999999988
 21
74.157394999999994
 31
0.0
  0
LINE
  5
10E
100
AcDbEntity
100
AcDbLine
  8
HACHURE
 62
5
370
-1
  6
CONTINUOUS
 10
316.5188130000000228
 20
72.253075999999993
 30
0.0
 11
319.5184409999999957
 21
73.9849119999999942
 31
0.0
  0
LINE
  5
10F
100
AcDbEntity
100
AcDbLine
  8
HACHURE
 62
5
370
-1
  6
CONTINUOUS
 10
319.5184530000000223
 20
72.0805940000000049
 30
0.0
 11
316.5188249999999925
 21
70.3487580000000037
 31
0.0
  0
LINE
  5
110
100
AcDbEntity
100
AcDbLine
  8
HACHURE
 62
5
370
-1
  6
CONTINUOUS
 10
316.5187890000000266
 20
68.441789
 30
0.0
 11
319.5184169999999995
 21
70.1736250000000013
 31
0.0
  0
LINE
  5
111
100
AcDbEntity
100
AcDbLine
  8
HACHURE
 62
5
370
-1
  6
CONTINUOUS
 10
319.5184300000000235
 20
68.2693060000000003
 30
0.0
 11
316.5188019999999938
 21
66.537469999999999
 31
0.0
  0
LINE
  5
112
100
AcDbEntity
100
AcDbLine
  8
HACHURE
 62
5
370
-1
  6
CONTINUOUS
 10
316.5188140000000203
 20
64.6331519999999955
 30
0.0
 11
319.5184419999999932
 21
66.3649879999999968
 31
0.0
  0
LINE
  5
113
100
AcDbEntity
100
AcDbLine
  8
HACHURE
 62
5
370
-1
  6
CONTINUOUS
 10
319.5184550000000172
 20
64.4606689999999958
 30
0.0
 11
317.0187369999999873
 21
63.0174570000000003
 31
0.0
  0
LINE
  5
114
100
AcDbEntity
100
AcDbLine
  8
HACHURE
 62
5
370
-1
  6
CONTINUOUS
 10
316.5187060000000088
 20
60.8218150000000009
 30
0.0
 11
319.5185030000000097
 21
62.5537490000000034
 31
0.0
  0
LINE
  5
115
100
AcDbEntity
100
AcDbLine
  8
HACHURE
 62
5
370
-1
  6
CONTINUOUS
 10
319.5185159999999769
 20
60.6494309999999999
 30
0.0
 11
316.5188029999999912
 21
58.9175460000000015
 31
0.0
  0
LINE
  5
116
100
AcDbEntity
100
AcDbLine
  8
HACHURE
 62
5
370
-1
  6
CONTINUOUS
 10
316.5188999999999737
 20
57.0132759999999976
 30
0.0
 11
319.5185280000000034
 21
58.7451119999999989
 31
0.0
  0
LINE
  5
117
100
AcDbEntity
100
AcDbLine
  8
HACHURE
 62
5
370
-1
  6
CONTINUOUS
 10
319.5185410000000275
 20
56.8407940000000025
 30
0.0
 11
316.8052759999999921
 21
55.2742900000000006
 31
0.0
  0
LINE
  5
118
100
AcDbEntity
100
AcDbLine
  8
HACHURE
 62
5
370
-1
  6
CONTINUOUS
 10
316.7564820000000054
 20
162.2751100000000122
 30
0.0
 11
316.7564820000000054
 21
151.9751100000000008
 31
0.0
  0
LINE
  5
119
100
AcDbEntity
100
AcDbLine
  8
HACHURE
 62
5
370
-1
  6
CONTINUOUS
 10
316.7564820000000054
 20
150.2751100000000122
 30
0.0
 11
316.7564820000000054
 21
63.2752079999999992
 31
0.0
  0
LINE
  5
11A
100
AcDbEntity
100
AcDbLine
  8
HACHURE
 62
5
370
-1
  6
CONTINUOUS
 10
316.7564820000000054
 20
61.5752080000000035
 30
0.0
 11
316.7564820000000054
 21
55.2752079999999992
 31
0.0
  0
LINE
  5
11B
100
AcDbEntity
100
AcDbLine
  8
HACHURE
 62
5
370
-1
  6
CONTINUOUS
 10
318.4056770000000256
 20
55.2752079999999992
 30
0.0
 11
318.4056770000000256
 21
162.2751100000000122
 31
0.0
  0
ENDBLK
  5
11C
100
AcDbEntity
  8
0
100
AcDbBlockEnd
  0
BLOCK
  5
11D
100
AcDbEntity
  8
0
100
AcDbBlockBegin
  2
DESENS-G9
 70
0
 10
0.0
 20
0.0
 30
0.0
  3
DESENS-G9
  1

  0
LINE
  5
11E
100
AcDbEntity
100
AcDbLine
  8
HACHURE
 62
5
370
-1
  6
CONTINUOUS
 10
317.776126999999974
 20
180.2748400000000117
 30
0.0
 11
317.5181400000000167
 21
179.7215860000000021
 31
0.0
  0
LINE
  5
11F
100
AcDbEntity
100
AcDbLine
  8
HACHURE
 62
5
370
-1
  6
CONTINUOUS
 10
308.6939239999999813
 20
147.2753189999999961
 30
0.0
 11
314.2893920000000207
 21
159.2748400000000117
 31
0.0
  0
LINE
  5
120
100
AcDbEntity
100
AcDbLine
  8
HACHURE
 62
5
370
-1
  6
CONTINUOUS
 10
314.5181039999999939
 20
159.7653139999999894
 30
0.0
 11
322.5183139999999753
 21
176.9218209999999942
 31
0.0
  0
LINE
  5
121
100
AcDbEntity
100
AcDbLine
  8
HACHURE
 62
5
370
-1
  6
CONTINUOUS
 10
322.5181929999999966
 20
163.3988889999999969
 30
0.0
 11
321.9938549999999964
 21
162.2744419999999934
 31
0.0
  0
LINE
  5
122
100
AcDbEntity
100
AcDbLine
  8
HACHURE
 62
5
370
-1
  6
CONTINUOUS
 10
317.0183920000000057
 20
151.6045259999999928
 30
0.0
 11
316.3986479999999801
 21
150.2754810000000134
 31
0.0
  0
LINE
  5
123
100
AcDbEntity
100
AcDbLine
  8
HACHURE
 62
5
370
-1
  6
CONTINUOUS
 10
319.8779710000000023
 20
180.2747009999999932
 30
0.0
 11
317.5181870000000117
 21
175.2141279999999881
 31
0.0
  0
LINE
  5
124
100
AcDbEntity
100
AcDbLine
  8
HACHURE
 62
5
370
-1
  6
CONTINUOUS
 10
310.0857050000000186
 20
159.2751189999999895
 30
0.0
 11
308.5181789999999751
 21
155.9135489999999891
 31
0.0
  0
LINE
  5
125
100
AcDbEntity
100
AcDbLine
  8
HACHURE
 62
5
370
-1
  6
CONTINUOUS
 10
305.4225969999999961
 20
149.2750509999999906
 30
0.0
 11
304.4902359999999817
 21
147.2755980000000022
 31
0.0
  0
LINE
  5
126
100
AcDbEntity
100
AcDbLine
  8
HACHURE
 62
5
370
-1
  6
CONTINUOUS
 10
311.4494910000000232
 20
148.6770950000000084
 30
0.0
 11
316.5182689999999752
 21
159.5471239999999966
 31
0.0
  0
LINE
  5
127
100
AcDbEntity
100
AcDbLine
  8
HACHURE
 62
5
370
-1
  6
CONTINUOUS
 10
317.7904290000000174
 20
162.2752810000000068
 30
0.0
 11
322.5183610000000272
 21
172.4143640000000062
 31
0.0
  0
ENDBLK
  5
128
100
AcDbEntity
  8
0
100
AcDbBlockEnd
  0
BLOCK
  5
129
100
AcDbEntity
  8
0
100
AcDbBlockBegin
  2
DESENS-G10
 70
0
 10
0.0
 20
0.0
 30
0.0
  3
DESENS-G10
  1

  0
LINE
  5
12A
100
AcDbEntity
100
AcDbLine
  8
HACHURE
 62
5
370
-1
  6
CONTINUOUS
 10
271.6279440000000136
 20
71.774950000000004
 30
0.0
 11
267.5184489999999755
 21
62.9621100000000027
 31
0.0
  0
LINE
  5
12B
100
AcDbEntity
100
AcDbLine
  8
HACHURE
 62
5
370
-1
  6
CONTINUOUS
 10
268.5187070000000062
 20
51.584344999999999
 30
0.0
 11
273.9701519999999846
 21
63.2750070000000022
 31
0.0
  0
LINE
  5
12C
100
AcDbEntity
100
AcDbLine
  8
HACHURE
 62
5
370
-1
  6
CONTINUOUS
 10
275.8353950000000054
 20
67.2750340000000051
 30
0.0
 11
278.8664160000000152
 21
73.7750779999999935
 31
0.0
  0
LINE
  5
12D
100
AcDbEntity
100
AcDbLine
  8
HACHURE
 62
5
370
-1
  6
CONTINUOUS
 10
283.5182219999999802
 20
70.2280839999999955
 30
0.0
 11
282.1409840000000031
 21
67.2745879999999943
 31
0.0
  0
LINE
  5
12E
100
AcDbEntity
100
AcDbLine
  8
HACHURE
 62
5
370
-1
  6
CONTINUOUS
 10
277.5183910000000083
 20
57.3614049999999978
 30
0.0
 11
274.6802720000000022
 21
51.2750399999999971
 31
0.0
  0
LINE
  5
12F
100
AcDbEntity
100
AcDbLine
  8
HACHURE
 62
5
370
-1
  6
CONTINUOUS
 10
274.6624279999999771
 20
73.7748150000000038
 30
0.0
 11
274.5184049999999729
 21
73.4659560000000056
 31
0.0
  0
LINE
  5
130
100
AcDbEntity
100
AcDbLine
  8
HACHURE
 62
5
370
-1
  6
CONTINUOUS
 10
273.7298069999999939
 20
71.7748009999999965
 30
0.0
 11
271.6314080000000217
 21
67.2747710000000012
 31
0.0
  0
LINE
  5
131
100
AcDbEntity
100
AcDbLine
  8
HACHURE
 62
5
370
-1
  6
CONTINUOUS
 10
271.5182280000000219
 20
67.0320559999999972
 30
0.0
 11
267.5185149999999794
 21
58.4546429999999972
 31
0.0
  0
LINE
  5
132
100
AcDbEntity
100
AcDbLine
  8
HACHURE
 62
5
370
-1
  6
CONTINUOUS
 10
270.4765459999999848
 20
51.2753370000000004
 30
0.0
 11
276.0720150000000217
 21
63.2748580000000018
 31
0.0
  0
LINE
  5
133
100
AcDbEntity
100
AcDbLine
  8
HACHURE
 62
5
370
-1
  6
CONTINUOUS
 10
277.9372579999999857
 20
67.2748859999999951
 30
0.0
 11
280.9682789999999954
 21
73.7749299999999977
 31
0.0
  0
LINE
  5
134
100
AcDbEntity
100
AcDbLine
  8
HACHURE
 62
5
370
-1
  6
CONTINUOUS
 10
285.1757299999999873
 20
69.2750139999999988
 30
0.0
 11
284.2431080000000065
 21
67.2750000000000057
 31
0.0
  0
LINE
  5
135
100
AcDbEntity
100
AcDbLine
  8
HACHURE
 62
5
370
-1
  6
CONTINUOUS
 10
277.5184570000000122
 20
52.8539379999999994
 30
0.0
 11
276.7821349999999825
 21
51.2748920000000012
 31
0.0
  0
ENDBLK
  5
136
100
AcDbEntity
  8
0
100
AcDbBlockEnd
  0
BLOCK
  5
137
100
AcDbEntity
  8
0
100
AcDbBlockBegin
  2
DESENS-G11
 70
0
 10
0.0
 20
0.0
 30
0.0
  3
DESENS-G11
  1

  0
LINE
  5
138
100
AcDbEntity
100
AcDbLine
  8
HACHURE
 62
5
370
-1
  6
CONTINUOUS
 10
274.5183220000000119
 20
83.0875259999999969
 30
0.0
 11
273.8308260000000018
 21
83.775022000000007
 31
0.0
  0
LINE
  5
139
100
AcDbEntity
100
AcDbLine
  8
HACHURE
 62
5
370
-1
  6
CONTINUOUS
 10
271.1366390000000024
 20
83.775022000000007
 30
0.0
 11
272.1365319999999883
 21
82.7751290000000068
 31
0.0
  0
LINE
  5
13A
100
AcDbEntity
100
AcDbLine
  8
HACHURE
 62
5
370
-1
  6
CONTINUOUS
 10
269.5183030000000031
 20
82.6994459999999947
 30
0.0
 11
268.5185480000000098
 21
83.6992010000000022
 31
0.0
  0
LINE
  5
13B
100
AcDbEntity
100
AcDbLine
  8
HACHURE
 62
5
370
-1
  6
CONTINUOUS
 10
268.5185480000000098
 20
81.0050140000000027
 30
0.0
 11
269.5183030000000031
 21
80.0052589999999952
 31
0.0
  0
LINE
  5
13C
100
AcDbEntity
100
AcDbLine
  8
HACHURE
 62
5
370
-1
  6
CONTINUOUS
 10
274.5183220000000119
 20
72.3113290000000006
 30
0.0
 11
274.0545589999999834
 21
72.7750920000000008
 31
0.0
  0
LINE
  5
13D
100
AcDbEntity
100
AcDbLine
  8
HACHURE
 62
5
370
-1
  6
CONTINUOUS
 10
269.5183030000000031
 20
77.3113479999999953
 30
0.0
 11
268.5185480000000098
 21
78.3111030000000028
 31
0.0
  0
LINE
  5
13E
100
AcDbEntity
100
AcDbLine
  8
HACHURE
 62
5
370
-1
  6
CONTINUOUS
 10
268.5185480000000098
 20
75.6169160000000034
 30
0.0
 11
269.5183030000000031
 21
74.6171599999999984
 31
0.0
  0
LINE
  5
13F
100
AcDbEntity
100
AcDbLine
  8
HACHURE
 62
5
370
-1
  6
CONTINUOUS
 10
271.3603719999999839
 20
72.7750920000000008
 30
0.0
 11
272.3601269999999772
 21
71.7753369999999933
 31
0.0
  0
LINE
  5
140
100
AcDbEntity
100
AcDbLine
  8
HACHURE
 62
5
370
-1
  6
CONTINUOUS
 10
269.6659389999999803
 20
71.7753369999999933
 30
0.0
 11
268.5185480000000098
 21
72.9227280000000064
 31
0.0
  0
ENDBLK
  5
141
100
AcDbEntity
  8
0
100
AcDbBlockEnd
  0
BLOCK
  5
142
100
AcDbEntity
  8
0
100
AcDbBlockBegin
  2
DESENS-G12
 70
0
 10
0.0
 20
0.0
 30
0.0
  3
DESENS-G12
  1

  0
LINE
  5
143
100
AcDbEntity
100
AcDbLine
  8
HACHURE
 62
5
370
-1
  6
CONTINUOUS
 10
311.8185470000000237
 20
63.2749159999999975
 30
0.0
 11
309.5182909999999765
 21
58.3419999999999987
 31
0.0
  0
LINE
  5
144
100
AcDbEntity
100
AcDbLine
  8
HACHURE
 62
5
370
-1
  6
CONTINUOUS
 10
312.5289050000000088
 20
51.2752339999999975
 30
0.0
 11
316.5182940000000258
 21
59.8305050000000023
 31
0.0
  0
LINE
  5
145
100
AcDbEntity
100
AcDbLine
  8
HACHURE
 62
5
370
-1
  6
CONTINUOUS
 10
313.9205559999999764
 20
63.2750050000000002
 30
0.0
 11
309.5183509999999956
 21
53.8344469999999973
 31
0.0
  0
LINE
  5
146
100
AcDbEntity
100
AcDbLine
  8
HACHURE
 62
5
370
-1
  6
CONTINUOUS
 10
314.6308109999999942
 20
51.2751019999999968
 30
0.0
 11
316.518353999999988
 21
55.3229520000000008
 31
0.0
  0
ENDBLK
  5
147
100
AcDbEntity
  8
0
100
AcDbBlockEnd
  0
BLOCK
  5
148
100
AcDbEntity
  8
0
100
AcDbBlockBegin
  2
DESENS-G13
 70
0
 10
0.0
 20
0.0
 30
0.0
  3
DESENS-G13
  1

  0
LINE
  5
149
100
AcDbEntity
100
AcDbLine
  8
HACHURE
 62
5
370
-1
  6
CONTINUOUS
 10
288.5181049999999914
 20
233.4730480000000057
 30
0.0
 11
283.6691240000000107
 21
236.2726089999999886
 31
0.0
  0
LINE
  5
14A
100
AcDbEntity
100
AcDbLine
  8
HACHURE
 62
5
370
-1
  6
CONTINUOUS
 10
283.0229630000000043
 20
233.4708070000000077
 30
0.0
 11
285.4214470000000006
 21
232.086041999999992
 31
0.0
  0
LINE
  5
14B
100
AcDbEntity
100
AcDbLine
  8
HACHURE
 62
5
370
-1
  6
CONTINUOUS
 10
283.0580360000000155
 20
230.2756960000000106
 30
0.0
 11
279.5520700000000147
 21
232.2998660000000086
 31
0.0
  0
LINE
  5
14C
100
AcDbEntity
100
AcDbLine
  8
HACHURE
 62
5
370
-1
  6
CONTINUOUS
 10
277.8628830000000107
 20
230.0996920000000046
 30
0.0
 11
280.5379199999999855
 21
228.5552590000000066
 31
0.0
  0
LINE
  5
14D
100
AcDbEntity
100
AcDbLine
  8
HACHURE
 62
5
370
-1
  6
CONTINUOUS
 10
280.5180199999999786
 20
225.391885000000002
 30
0.0
 11
277.5178000000000225
 21
227.1240630000000067
 31
0.0
  0
LINE
  5
14E
100
AcDbEntity
100
AcDbLine
  8
HACHURE
 62
5
370
-1
  6
CONTINUOUS
 10
277.5181979999999839
 20
223.9489700000000028
 30
0.0
 11
280.5179949999999849
 21
222.2170370000000048
 31
0.0
  0
LINE
  5
14F
100
AcDbEntity
100
AcDbLine
  8
HACHURE
 62
5
370
-1
  6
CONTINUOUS
 10
280.5179699999999912
 20
219.0421890000000076
 30
0.0
 11
277.5181729999999902
 21
220.7741220000000055
 31
0.0
  0
LINE
  5
150
100
AcDbEntity
100
AcDbLine
  8
HACHURE
 62
5
370
-1
  6
CONTINUOUS
 10
277.5179039999999873
 20
217.5988509999999962
 30
0.0
 11
280.5181240000000003
 21
215.8666729999999916
 31
0.0
  0
LINE
  5
151
100
AcDbEntity
100
AcDbLine
  8
HACHURE
 62
5
370
-1
  6
CONTINUOUS
 10
280.5180990000000065
 20
212.6918249999999944
 30
0.0
 11
277.5178789999999935
 21
214.424002999999999
 31
0.0
  0
LINE
  5
152
100
AcDbEntity
100
AcDbLine
  8
HACHURE
 62
5
370
-1
  6
CONTINUOUS
 10
274.0085060000000112
 20
213.2752779999999859
 30
0.0
 11
279.2046579999999949
 21
210.2752779999999859
 31
0.0
  0
LINE
  5
153
100
AcDbEntity
100
AcDbLine
  8
HACHURE
 62
5
370
-1
  6
CONTINUOUS
 10
273.7048639999999864
 20
210.2757229999999993
 30
0.0
 11
273.5183809999999767
 21
210.383388999999994
 31
0.0
  0
LINE
  5
154
100
AcDbEntity
100
AcDbLine
  8
HACHURE
 62
5
370
-1
  6
CONTINUOUS
 10
274.9627019999999789
 20
213.2755989999999997
 30
0.0
 11
274.9627019999999789
 21
210.2755989999999997
 31
0.0
  0
LINE
  5
155
100
AcDbEntity
100
AcDbLine
  8
HACHURE
 62
5
370
-1
  6
CONTINUOUS
 10
277.7122130000000197
 20
210.2755989999999997
 30
0.0
 11
277.7122130000000197
 21
229.6540170000000103
 31
0.0
  0
LINE
  5
156
100
AcDbEntity
100
AcDbLine
  8
HACHURE
 62
5
370
-1
  6
CONTINUOUS
 10
280.4617250000000013
 20
232.8322389999999871
 30
0.0
 11
280.4617250000000013
 21
210.2755989999999997
 31
0.0
  0
LINE
  5
157
100
AcDbEntity
100
AcDbLine
  8
HACHURE
 62
5
370
-1
  6
CONTINUOUS
 10
283.2117250000000013
 20
230.2824349999999924
 30
0.0
 11
283.2117250000000013
 21
233.738978000000003
 31
0.0
  0
LINE
  5
158
100
AcDbEntity
100
AcDbLine
  8
HACHURE
 62
5
370
-1
  6
CONTINUOUS
 10
283.2117250000000013
 20
234.3107550000000003
 30
0.0
 11
283.2117250000000013
 21
236.1955210000000136
 31
0.0
  0
LINE
  5
159
100
AcDbEntity
100
AcDbLine
  8
HACHURE
 62
5
370
-1
  6
CONTINUOUS
 10
285.9612369999999828
 20
236.2751100000000122
 30
0.0
 11
285.9612369999999828
 21
233.2751100000000122
 31
0.0
  0
ENDBLK
  5
15A
100
AcDbEntity
  8
0
100
AcDbBlockEnd
  0
BLOCK
  5
15B
100
AcDbEntity
  8
0
100
AcDbBlockBegin
  2
DESENS-G14
 70
0
 10
0.0
 20
0.0
 30
0.0
  3
DESENS-G14
  1

  0
LINE
  5
15C
100
AcDbEntity
100
AcDbLine
  8
HACHURE
 62
5
370
-1
  6
CONTINUOUS
 10
308.3116800000000239
 20
234.7458010000000002
 30
0.0
 11
305.6632829999999785
 21
236.2748540000000048
 31
0.0
  0
LINE
  5
15D
100
AcDbEntity
100
AcDbLine
  8
HACHURE
 62
5
370
-1
  6
CONTINUOUS
 10
302.5184179999999969
 20
234.9156790000000115
 30
0.0
 11
305.3604869999999778
 21
233.2748100000000022
 31
0.0
  0
LINE
  5
15E
100
AcDbEntity
100
AcDbLine
  8
HACHURE
 62
5
370
-1
  6
CONTINUOUS
 10
305.5186380000000099
 20
233.1835020000000043
 30
0.0
 11
313.5094980000000078
 21
228.5699759999999969
 31
0.0
  0
LINE
  5
15F
100
AcDbEntity
100
AcDbLine
  8
HACHURE
 62
5
370
-1
  6
CONTINUOUS
 10
313.5183529999999905
 20
225.3900010000000123
 30
0.0
 11
310.518133999999975
 21
227.1221789999999885
 31
0.0
  0
LINE
  5
160
100
AcDbEntity
100
AcDbLine
  8
HACHURE
 62
5
370
-1
  6
CONTINUOUS
 10
310.5182869999999866
 20
223.9466639999999984
 30
0.0
 11
313.5185069999999996
 21
222.2144859999999937
 31
0.0
  0
LINE
  5
161
100
AcDbEntity
100
AcDbLine
  8
HACHURE
 62
5
370
-1
  6
CONTINUOUS
 10
313.5184820000000059
 20
219.0396379999999965
 30
0.0
 11
310.5182619999999929
 21
220.7718160000000012
 31
0.0
  0
LINE
  5
162
100
AcDbEntity
100
AcDbLine
  8
HACHURE
 62
5
370
-1
  6
CONTINUOUS
 10
310.5182369999999992
 20
217.5969670000000065
 30
0.0
 11
313.5184570000000122
 21
215.8647899999999993
 31
0.0
  0
LINE
  5
163
100
AcDbEntity
100
AcDbLine
  8
HACHURE
 62
5
370
-1
  6
CONTINUOUS
 10
317.5183020000000056
 20
210.3806150000000059
 30
0.0
 11
310.5182120000000054
 21
214.4221190000000092
 31
0.0
  0
LINE
  5
164
100
AcDbEntity
100
AcDbLine
  8
HACHURE
 62
5
370
-1
  6
CONTINUOUS
 10
310.5183660000000145
 20
211.2466039999999907
 30
0.0
 11
312.2009410000000003
 21
210.2751690000000053
 31
0.0
  0
LINE
  5
165
100
AcDbEntity
100
AcDbLine
  8
HACHURE
 62
5
370
-1
  6
CONTINUOUS
 10
305.2083069999999907
 20
236.2751100000000122
 30
0.0
 11
305.2083069999999907
 21
233.2751100000000122
 31
0.0
  0
LINE
  5
166
100
AcDbEntity
100
AcDbLine
  8
HACHURE
 62
5
370
-1
  6
CONTINUOUS
 10
307.9578189999999722
 20
230.2755989999999997
 30
0.0
 11
307.9578189999999722
 21
233.5270639999999958
 31
0.0
  0
LINE
  5
167
100
AcDbEntity
100
AcDbLine
  8
HACHURE
 62
5
370
-1
  6
CONTINUOUS
 10
307.9578189999999722
 20
234.5226690000000076
 30
0.0
 11
307.9578189999999722
 21
236.1520639999999958
 31
0.0
  0
LINE
  5
168
100
AcDbEntity
100
AcDbLine
  8
HACHURE
 62
5
370
-1
  6
CONTINUOUS
 10
310.7073310000000106
 20
232.770228000000003
 30
0.0
 11
310.7073310000000106
 21
210.2755989999999997
 31
0.0
  0
LINE
  5
169
100
AcDbEntity
100
AcDbLine
  8
HACHURE
 62
5
370
-1
  6
CONTINUOUS
 10
313.4573310000000106
 20
210.2755989999999997
 30
0.0
 11
313.4573310000000106
 21
229.0539190000000076
 31
0.0
  0
LINE
  5
16A
100
AcDbEntity
100
AcDbLine
  8
HACHURE
 62
5
370
-1
  6
CONTINUOUS
 10
316.2068419999999946
 20
213.2755989999999997
 30
0.0
 11
316.2068419999999946
 21
210.2755989999999997
 31
0.0
  0
ENDBLK
  5
16B
100
AcDbEntity
  8
0
100
AcDbBlockEnd
  0
BLOCK
  5
16C
100
AcDbEntity
  8
0
100
AcDbBlockBegin
  2
DESENS-G15
 70
0
 10
0.0
 20
0.0
 30
0.0
  3
DESENS-G15
  1

  0
LINE
  5
16D
100
AcDbEntity
100
AcDbLine
  8
HACHURE
 62
5
370
-1
  6
CONTINUOUS
 10
287.6086240000000203
 20
250.7753120000000138
 30
0.0
 11
285.5178189999999745
 21
246.2915669999999864
 31
0.0
  0
LINE
  5
16E
100
AcDbEntity
100
AcDbLine
  8
HACHURE
 62
5
370
-1
  6
CONTINUOUS
 10
285.5182199999999852
 20
238.7789280000000076
 30
0.0
 11
291.1121340000000259
 21
250.7751149999999996
 31
0.0
  0
LINE
  5
16F
100
AcDbEntity
100
AcDbLine
  8
HACHURE
 62
5
370
-1
  6
CONTINUOUS
 10
291.5180940000000192
 20
244.1322020000000066
 30
0.0
 11
287.8540259999999762
 21
236.2745840000000044
 31
0.0
  0
LINE
  5
170
100
AcDbEntity
100
AcDbLine
  8
HACHURE
 62
5
370
-1
  6
CONTINUOUS
 10
286.4552039999999806
 20
233.2747990000000016
 30
0.0
 11
285.5183450000000107
 21
231.2656990000000121
 31
0.0
  0
LINE
  5
171
100
AcDbEntity
100
AcDbLine
  8
HACHURE
 62
5
370
-1
  6
CONTINUOUS
 10
285.5184399999999982
 20
223.7560760000000073
 30
0.0
 11
290.5174969999999917
 21
234.4765879999999925
 31
0.0
  0
LINE
  5
172
100
AcDbEntity
100
AcDbLine
  8
HACHURE
 62
5
370
-1
  6
CONTINUOUS
 10
292.3031690000000253
 20
238.3059749999999894
 30
0.0
 11
293.6876839999999902
 21
241.2750770000000102
 31
0.0
  0
LINE
  5
173
100
AcDbEntity
100
AcDbLine
  8
HACHURE
 62
5
370
-1
  6
CONTINUOUS
 10
301.6212570000000142
 20
250.775180000000006
 30
0.0
 11
299.5183460000000082
 21
246.2654729999999859
 31
0.0
  0
LINE
  5
174
100
AcDbEntity
100
AcDbLine
  8
HACHURE
 62
5
370
-1
  6
CONTINUOUS
 10
297.1911939999999959
 20
241.274879999999996
 30
0.0
 11
296.4273989999999799
 21
239.6369170000000111
 31
0.0
  0
LINE
  5
175
100
AcDbEntity
100
AcDbLine
  8
HACHURE
 62
5
370
-1
  6
CONTINUOUS
 10
290.5176220000000171
 20
226.963358999999997
 30
0.0
 11
285.518289999999979
 21
216.2422569999999951
 31
0.0
  0
LINE
  5
176
100
AcDbEntity
100
AcDbLine
  8
HACHURE
 62
5
370
-1
  6
CONTINUOUS
 10
285.518416000000002
 20
208.729028999999997
 30
0.0
 11
290.5177479999999832
 21
219.4501300000000015
 31
0.0
  0
LINE
  5
177
100
AcDbEntity
100
AcDbLine
  8
HACHURE
 62
5
370
-1
  6
CONTINUOUS
 10
299.1877499999999941
 20
238.043011000000007
 30
0.0
 11
305.1247670000000198
 21
250.7749829999999918
 31
0.0
  0
LINE
  5
178
100
AcDbEntity
100
AcDbLine
  8
HACHURE
 62
5
370
-1
  6
CONTINUOUS
 10
305.5188959999999838
 20
244.1066979999999944
 30
0.0
 11
300.5181880000000092
 21
233.382645999999994
 31
0.0
  0
LINE
  5
179
100
AcDbEntity
100
AcDbLine
  8
HACHURE
 62
5
370
-1
  6
CONTINUOUS
 10
290.5175980000000209
 20
211.9363109999999892
 30
0.0
 11
285.5182659999999828
 21
201.2152100000000132
 31
0.0
  0
LINE
  5
17A
100
AcDbEntity
100
AcDbLine
  8
HACHURE
 62
5
370
-1
  6
CONTINUOUS
 10
285.5183610000000272
 20
193.7055870000000084
 30
0.0
 11
290.5176930000000084
 21
204.4266890000000103
 31
0.0
  0
LINE
  5
17B
100
AcDbEntity
100
AcDbLine
  8
HACHURE
 62
5
370
-1
  6
CONTINUOUS
 10
300.5182829999999967
 20
225.8730229999999892
 30
0.0
 11
302.5185660000000212
 21
230.1626440000000002
 31
0.0
  0
LINE
  5
17C
100
AcDbEntity
100
AcDbLine
  8
HACHURE
 62
5
370
-1
  6
CONTINUOUS
 10
302.518416000000002
 20
222.648824999999988
 30
0.0
 11
300.5181329999999775
 21
218.3592040000000054
 31
0.0
  0
LINE
  5
17D
100
AcDbEntity
100
AcDbLine
  8
HACHURE
 62
5
370
-1
  6
CONTINUOUS
 10
290.5178189999999745
 20
196.9134599999999864
 30
0.0
 11
285.518211000000008
 21
186.1917679999999962
 31
0.0
  0
LINE
  5
17E
100
AcDbEntity
100
AcDbLine
  8
HACHURE
 62
5
370
-1
  6
CONTINUOUS
 10
285.5180619999999863
 20
178.6779490000000123
 30
0.0
 11
289.5186279999999783
 21
187.2571910000000059
 31
0.0
  0
LINE
  5
17F
100
AcDbEntity
100
AcDbLine
  8
HACHURE
 62
5
370
-1
  6
CONTINUOUS
 10
300.5182590000000005
 20
210.8459750000000099
 30
0.0
 11
302.5185420000000249
 21
215.1355959999999925
 31
0.0
  0
LINE
  5
180
100
AcDbEntity
100
AcDbLine
  8
HACHURE
 62
5
370
-1
  6
CONTINUOUS
 10
302.5186669999999935
 20
207.622366999999997
 30
0.0
 11
300.5183840000000259
 21
203.332745999999986
 31
0.0
  0
LINE
  5
181
100
AcDbEntity
100
AcDbLine
  8
HACHURE
 62
5
370
-1
  6
CONTINUOUS
 10
289.518478000000016
 20
179.7433719999999937
 30
0.0
 11
288.3675590000000284
 21
177.2752169999999978
 31
0.0
  0
LINE
  5
182
100
AcDbEntity
100
AcDbLine
  8
HACHURE
 62
5
370
-1
  6
CONTINUOUS
 10
300.518509999999992
 20
195.8195169999999905
 30
0.0
 11
302.5187930000000165
 21
200.1091380000000015
 31
0.0
  0
LINE
  5
183
100
AcDbEntity
100
AcDbLine
  8
HACHURE
 62
5
370
-1
  6
CONTINUOUS
 10
302.518888000000004
 20
192.5995149999999967
 30
0.0
 11
301.518195999999989
 21
190.4535250000000133
 31
0.0
  0
LINE
  5
184
100
AcDbEntity
100
AcDbLine
  8
HACHURE
 62
5
370
-1
  6
CONTINUOUS
 10
301.5185969999999998
 20
182.9408860000000061
 30
0.0
 11
302.5190129999999726
 21
185.0862860000000012
 31
0.0
  0
LINE
  5
185
100
AcDbEntity
100
AcDbLine
  8
HACHURE
 62
5
370
-1
  6
CONTINUOUS
 10
302.5191389999999956
 20
177.5730570000000057
 30
0.0
 11
302.3801920000000223
 21
177.27508499999999
 31
0.0
  0
ENDBLK
  5
186
100
AcDbEntity
  8
0
100
AcDbBlockEnd
  0
BLOCK
  5
187
100
AcDbEntity
  8
0
100
AcDbBlockBegin
  2
DESENS-G16
 70
0
 10
0.0
 20
0.0
 30
0.0
  3
DESENS-G16
  1

  0
LINE
  5
188
100
AcDbEntity
100
AcDbLine
  8
HACHURE
 62
5
370
-1
  6
CONTINUOUS
 10
303.0182550000000106
 20
154.8076189999999883
 30
0.0
 11
301.5505249999999933
 21
156.2753490000000056
 31
0.0
  0
LINE
  5
189
100
AcDbEntity
100
AcDbLine
  8
HACHURE
 62
5
370
-1
  6
CONTINUOUS
 10
297.9583680000000072
 20
156.2753490000000056
 30
0.0
 11
299.9581539999999791
 21
154.2755620000000079
 31
0.0
  0
LINE
  5
18A
100
AcDbEntity
100
AcDbLine
  8
HACHURE
 62
5
370
-1
  6
CONTINUOUS
 10
296.3659959999999955
 20
154.2755620000000079
 30
0.0
 11
294.3662100000000237
 21
156.2753490000000056
 31
0.0
  0
LINE
  5
18B
100
AcDbEntity
100
AcDbLine
  8
HACHURE
 62
5
370
-1
  6
CONTINUOUS
 10
290.7740519999999833
 20
156.2753490000000056
 30
0.0
 11
292.7738390000000095
 21
154.2755620000000079
 31
0.0
  0
LINE
  5
18C
100
AcDbEntity
100
AcDbLine
  8
HACHURE
 62
5
370
-1
  6
CONTINUOUS
 10
289.181681000000026
 20
154.2755620000000079
 30
0.0
 11
288.0188220000000001
 21
155.4384220000000028
 31
0.0
  0
ENDBLK
  5
18D
100
AcDbEntity
  8
0
100
AcDbBlockEnd
  0
BLOCK
  5
18E
100
AcDbEntity
  8
0
100
AcDbBlockBegin
  2
DESENS-G17
 70
0
 10
0.0
 20
0.0
 30
0.0
  3
DESENS-G17
  1

  0
LINE
  5
18F
100
AcDbEntity
100
AcDbLine
  8
HACHURE
 62
5
370
-1
  6
CONTINUOUS
 10
277.504224000000022
 20
160.7748149999999896
 30
0.0
 11
276.6383389999999736
 21
159.2750580000000014
 31
0.0
  0
LINE
  5
190
100
AcDbEntity
100
AcDbLine
  8
HACHURE
 62
5
370
-1
  6
CONTINUOUS
 10
278.5436530000000062
 20
159.2748459999999966
 30
0.0
 11
279.4095389999999952
 21
160.7746040000000107
 31
0.0
  0
LINE
  5
191
100
AcDbEntity
100
AcDbLine
  8
HACHURE
 62
5
370
-1
  6
CONTINUOUS
 10
283.2706830000000195
 20
164.164463000000012
 30
0.0
 11
282.6336390000000165
 21
163.0610700000000008
 31
0.0
  0
LINE
  5
192
100
AcDbEntity
100
AcDbLine
  8
HACHURE
 62
5
370
-1
  6
CONTINUOUS
 10
281.3137820000000033
 20
160.7750110000000063
 30
0.0
 11
280.447277999999983
 21
159.2741819999999962
 31
0.0
  0
LINE
  5
193
100
AcDbEntity
100
AcDbLine
  8
HACHURE
 62
5
370
-1
  6
CONTINUOUS
 10
282.3525920000000156
 20
159.2739699999999914
 30
0.0
 11
283.9396370000000047
 21
162.0228119999999876
 31
0.0
  0
LINE
  5
194
100
AcDbEntity
100
AcDbLine
  8
HACHURE
 62
5
370
-1
  6
CONTINUOUS
 10
284.7832569999999919
 20
163.4840039999999988
 30
0.0
 11
285.656564000000003
 21
164.9966159999999888
 31
0.0
  0
LINE
  5
195
100
AcDbEntity
100
AcDbLine
  8
HACHURE
 62
5
370
-1
  6
CONTINUOUS
 10
287.148727000000008
 20
164.2808060000000125
 30
0.0
 11
286.3539680000000089
 21
162.9042430000000081
 31
0.0
  0
LINE
  5
196
100
AcDbEntity
100
AcDbLine
  8
HACHURE
 62
5
370
-1
  6
CONTINUOUS
 10
286.5177820000000111
 20
159.8901370000000099
 30
0.0
 11
288.0101970000000051
 21
162.4750769999999989
 31
0.0
  0
LINE
  5
197
100
AcDbEntity
100
AcDbLine
  8
HACHURE
 62
5
370
-1
  6
CONTINUOUS
 10
288.0179850000000101
 20
159.1882530000000031
 30
0.0
 11
286.517530000000022
 21
156.5893880000000138
 31
0.0
  0
LINE
  5
198
100
AcDbEntity
100
AcDbLine
  8
HACHURE
 62
5
370
-1
  6
CONTINUOUS
 10
286.5877849999999967
 20
153.4107620000000054
 30
0.0
 11
288.018351999999993
 21
155.888575000000003
 31
0.0
  0
LINE
  5
199
100
AcDbEntity
100
AcDbLine
  8
HACHURE
 62
5
370
-1
  6
CONTINUOUS
 10
288.241626999999994
 20
156.2752979999999923
 30
0.0
 11
288.7735279999999989
 21
157.1965779999999882
 31
0.0
  0
LINE
  5
19A
100
AcDbEntity
100
AcDbLine
  8
HACHURE
 62
5
370
-1
  6
CONTINUOUS
 10
288.9916029999999978
 20
154.2739819999999895
 30
0.0
 11
288.1257170000000087
 21
152.7742240000000038
 31
0.0
  0
LINE
  5
19B
100
AcDbEntity
100
AcDbLine
  8
HACHURE
 62
5
370
-1
  6
CONTINUOUS
 10
290.0299600000000169
 20
152.7746309999999994
 30
0.0
 11
290.8958460000000059
 21
154.2743890000000135
 31
0.0
  0
LINE
  5
19C
100
AcDbEntity
100
AcDbLine
  8
HACHURE
 62
5
370
-1
  6
CONTINUOUS
 10
292.8011599999999817
 20
154.2741770000000088
 30
0.0
 11
291.9352749999999901
 21
152.7744189999999946
 31
0.0
  0
LINE
  5
19D
100
AcDbEntity
100
AcDbLine
  8
HACHURE
 62
5
370
-1
  6
CONTINUOUS
 10
293.8405890000000227
 20
152.7742079999999874
 30
0.0
 11
294.7070929999999862
 21
154.2750369999999975
 31
0.0
  0
LINE
  5
19E
100
AcDbEntity
100
AcDbLine
  8
HACHURE
 62
5
370
-1
  6
CONTINUOUS
 10
296.6113359999999943
 20
154.2754439999999931
 30
0.0
 11
295.744831999999974
 21
152.7746150000000114
 31
0.0
  0
LINE
  5
19F
100
AcDbEntity
100
AcDbLine
  8
HACHURE
 62
5
370
-1
  6
CONTINUOUS
 10
297.650147000000004
 20
152.7744030000000066
 30
0.0
 11
298.5166510000000244
 21
154.2752319999999884
 31
0.0
  0
LINE
  5
1A0
100
AcDbEntity
100
AcDbLine
  8
HACHURE
 62
5
370
-1
  6
CONTINUOUS
 10
303.0173990000000117
 20
162.0707569999999862
 30
0.0
 11
304.5617679999999723
 21
164.745681999999988
 31
0.0
  0
LINE
  5
1A1
100
AcDbEntity
100
AcDbLine
  8
HACHURE
 62
5
370
-1
  6
CONTINUOUS
 10
306.5604739999999993
 20
164.9072299999999984
 30
0.0
 11
305.7842699999999923
 21
163.5628039999999999
 31
0.0
  0
LINE
  5
1A2
100
AcDbEntity
100
AcDbLine
  8
HACHURE
 62
5
370
-1
  6
CONTINUOUS
 10
304.5176030000000083
 20
161.3688730000000078
 30
0.0
 11
303.0171470000000227
 21
158.77000799999999
 31
0.0
  0
LINE
  5
1A3
100
AcDbEntity
100
AcDbLine
  8
HACHURE
 62
5
370
-1
  6
CONTINUOUS
 10
300.4219650000000001
 20
154.275020000000012
 30
0.0
 11
299.5554609999999798
 21
152.7741919999999993
 31
0.0
  0
LINE
  5
1A4
100
AcDbEntity
100
AcDbLine
  8
HACHURE
 62
5
370
-1
  6
CONTINUOUS
 10
301.4597039999999879
 20
152.7745979999999975
 30
0.0
 11
302.3262080000000083
 21
154.2754270000000076
 31
0.0
  0
LINE
  5
1A5
100
AcDbEntity
100
AcDbLine
  8
HACHURE
 62
5
370
-1
  6
CONTINUOUS
 10
303.0170610000000124
 20
155.4720189999999889
 30
0.0
 11
304.517516999999998
 21
158.0708850000000041
 31
0.0
  0
LINE
  5
1A6
100
AcDbEntity
100
AcDbLine
  8
HACHURE
 62
5
370
-1
  6
CONTINUOUS
 10
307.074971000000005
 20
162.5005260000000078
 30
0.0
 11
307.9266309999999862
 21
163.9756449999999859
 31
0.0
  0
LINE
  5
1A7
100
AcDbEntity
100
AcDbLine
  8
HACHURE
 62
5
370
-1
  6
CONTINUOUS
 10
308.5170370000000162
 20
161.6979440000000068
 30
0.0
 11
307.3264449999999783
 21
159.6357779999999877
 31
0.0
  0
LINE
  5
1A8
100
AcDbEntity
100
AcDbLine
  8
HACHURE
 62
5
370
-1
  6
CONTINUOUS
 10
304.517265000000009
 20
154.7701360000000079
 30
0.0
 11
303.365019000000018
 21
152.7743869999999902
 31
0.0
  0
LINE
  5
1A9
100
AcDbEntity
100
AcDbLine
  8
HACHURE
 62
5
370
-1
  6
CONTINUOUS
 10
309.023947000000021
 20
159.2756239999999934
 30
0.0
 11
309.8892129999999838
 21
160.774310000000014
 31
0.0
  0
LINE
  5
1AA
100
AcDbEntity
100
AcDbLine
  8
HACHURE
 62
5
370
-1
  6
CONTINUOUS
 10
311.7934569999999894
 20
160.7747170000000096
 30
0.0
 11
310.9275710000000004
 21
159.274959999999993
 31
0.0
  0
LINE
  5
1AB
100
AcDbEntity
100
AcDbLine
  8
HACHURE
 62
5
370
-1
  6
CONTINUOUS
 10
312.8335040000000049
 20
159.2758190000000127
 30
0.0
 11
313.699389999999994
 21
160.7755769999999984
 31
0.0
  0
LINE
  5
1AC
100
AcDbEntity
100
AcDbLine
  8
HACHURE
 62
5
370
-1
  6
CONTINUOUS
 10
308.1541080000000079
 20
163.6409089999999935
 30
0.0
 11
303.3806050000000027
 21
163.6409089999999935
 31
0.0
  0
LINE
  5
1AD
100
AcDbEntity
100
AcDbLine
  8
HACHURE
 62
5
370
-1
  6
CONTINUOUS
 10
287.6548890000000256
 20
163.6409089999999935
 30
0.0
 11
282.8813870000000179
 21
163.6409089999999935
 31
0.0
  0
LINE
  5
1AE
100
AcDbEntity
100
AcDbLine
  8
HACHURE
 62
5
370
-1
  6
CONTINUOUS
 10
282.518952000000013
 20
161.9907519999999863
 30
0.0
 11
283.9402410000000145
 21
161.9907519999999863
 31
0.0
  0
LINE
  5
1AF
100
AcDbEntity
100
AcDbLine
  8
HACHURE
 62
5
370
-1
  6
CONTINUOUS
 10
286.5181049999999914
 20
161.9907519999999863
 30
0.0
 11
288.018560999999977
 21
161.9907519999999863
 31
0.0
  0
LINE
  5
1B0
100
AcDbEntity
100
AcDbLine
  8
HACHURE
 62
5
370
-1
  6
CONTINUOUS
 10
303.0181699999999978
 20
161.9907519999999863
 30
0.0
 11
304.5186259999999834
 21
161.9907519999999863
 31
0.0
  0
LINE
  5
1B1
100
AcDbEntity
100
AcDbLine
  8
HACHURE
 62
5
370
-1
  6
CONTINUOUS
 10
307.0964910000000145
 20
161.9907519999999863
 30
0.0
 11
308.5177800000000161
 21
161.9907519999999863
 31
0.0
  0
LINE
  5
1B2
100
AcDbEntity
100
AcDbLine
  8
HACHURE
 62
5
370
-1
  6
CONTINUOUS
 10
314.5183660000000145
 20
160.3418330000000083
 30
0.0
 11
307.0964910000000145
 21
160.3418330000000083
 31
0.0
  0
LINE
  5
1B3
100
AcDbEntity
100
AcDbLine
  8
HACHURE
 62
5
370
-1
  6
CONTINUOUS
 10
304.5186259999999834
 20
160.3418330000000083
 30
0.0
 11
303.0181699999999978
 21
160.3418330000000083
 31
0.0
  0
LINE
  5
1B4
100
AcDbEntity
100
AcDbLine
  8
HACHURE
 62
5
370
-1
  6
CONTINUOUS
 10
288.018560999999977
 20
160.3418330000000083
 30
0.0
 11
286.5181049999999914
 21
160.3418330000000083
 31
0.0
  0
LINE
  5
1B5
100
AcDbEntity
100
AcDbLine
  8
HACHURE
 62
5
370
-1
  6
CONTINUOUS
 10
283.9402410000000145
 20
160.3418330000000083
 30
0.0
 11
276.5183660000000145
 21
160.3418330000000083
 31
0.0
  0
LINE
  5
1B6
100
AcDbEntity
100
AcDbLine
  8
HACHURE
 62
5
370
-1
  6
CONTINUOUS
 10
286.5181049999999914
 20
158.6916760000000011
 30
0.0
 11
288.018560999999977
 21
158.6916760000000011
 31
0.0
  0
LINE
  5
1B7
100
AcDbEntity
100
AcDbLine
  8
HACHURE
 62
5
370
-1
  6
CONTINUOUS
 10
303.0181699999999978
 20
158.6916760000000011
 30
0.0
 11
304.5186259999999834
 21
158.6916760000000011
 31
0.0
  0
LINE
  5
1B8
100
AcDbEntity
100
AcDbLine
  8
HACHURE
 62
5
370
-1
  6
CONTINUOUS
 10
304.5186259999999834
 20
157.0415199999999913
 30
0.0
 11
302.151048000000003
 21
157.0415199999999913
 31
0.0
  0
LINE
  5
1B9
100
AcDbEntity
100
AcDbLine
  8
HACHURE
 62
5
370
-1
  6
CONTINUOUS
 10
288.8844470000000229
 20
157.0415199999999913
 30
0.0
 11
286.5181049999999914
 21
157.0415199999999913
 31
0.0
  0
LINE
  5
1BA
100
AcDbEntity
100
AcDbLine
  8
HACHURE
 62
5
370
-1
  6
CONTINUOUS
 10
286.5181049999999914
 20
155.3925999999999874
 30
0.0
 11
288.018560999999977
 21
155.3925999999999874
 31
0.0
  0
LINE
  5
1BB
100
AcDbEntity
100
AcDbLine
  8
HACHURE
 62
5
370
-1
  6
CONTINUOUS
 10
303.0181699999999978
 20
155.3925999999999874
 30
0.0
 11
304.5186259999999834
 21
155.3925999999999874
 31
0.0
  0
LINE
  5
1BC
100
AcDbEntity
100
AcDbLine
  8
HACHURE
 62
5
370
-1
  6
CONTINUOUS
 10
304.5173889999999801
 20
153.7424440000000061
 30
0.0
 11
286.5181049999999914
 21
153.7424440000000061
 31
0.0
  0
ENDBLK
  5
1BD
100
AcDbEntity
  8
0
100
AcDbBlockEnd
  0
BLOCK
  5
1BE
100
AcDbEntity
  8
0
100
AcDbBlockBegin
  2
DESENS-G18
 70
0
 10
0.0
 20
0.0
 30
0.0
  3
DESENS-G18
  1

  0
LINE
  5
1BF
100
AcDbEntity
100
AcDbLine
  8
HACHURE
 62
5
370
-1
  6
CONTINUOUS
 10
292.5182149999999979
 20
189.5843979999999931
 30
0.0
 11
289.5181769999999801
 21
187.4837489999999889
 31
0.0
  0
LINE
  5
1C0
100
AcDbEntity
100
AcDbLine
  8
HACHURE
 62
5
370
-1
  6
CONTINUOUS
 10
281.5185200000000236
 20
175.6808169999999905
 30
0.0
 11
283.7952399999999784
 21
177.2749939999999924
 31
0.0
  0
LINE
  5
1C1
100
AcDbEntity
100
AcDbLine
  8
HACHURE
 62
5
370
-1
  6
CONTINUOUS
 10
289.5181319999999801
 20
181.2822050000000047
 30
0.0
 11
292.5181690000000003
 21
183.3828540000000089
 31
0.0
  0
LINE
  5
1C2
100
AcDbEntity
100
AcDbLine
  8
HACHURE
 62
5
370
-1
  6
CONTINUOUS
 10
292.5181240000000003
 20
177.1813109999999938
 30
0.0
 11
286.9395440000000121
 21
173.2751480000000015
 31
0.0
  0
LINE
  5
1C3
100
AcDbEntity
100
AcDbLine
  8
HACHURE
 62
5
370
-1
  6
CONTINUOUS
 10
291.5120039999999904
 20
170.2753079999999954
 30
0.0
 11
292.5180780000000027
 21
170.9797680000000071
 31
0.0
  0
LINE
  5
1C4
100
AcDbEntity
100
AcDbLine
  8
HACHURE
 62
5
370
-1
  6
CONTINUOUS
 10
291.0248090000000047
 20
191.6392409999999984
 30
0.0
 11
289.5183030000000031
 21
190.5843729999999994
 31
0.0
  0
LINE
  5
1C5
100
AcDbEntity
100
AcDbLine
  8
HACHURE
 62
5
370
-1
  6
CONTINUOUS
 10
289.5182570000000055
 20
184.3828300000000127
 30
0.0
 11
290.8175969999999779
 21
185.2926380000000108
 31
0.0
  0
LINE
  5
1C6
100
AcDbEntity
100
AcDbLine
  8
HACHURE
 62
5
370
-1
  6
CONTINUOUS
 10
291.8579199999999787
 20
186.021080000000012
 30
0.0
 11
292.5180010000000266
 21
186.4832739999999944
 31
0.0
  0
LINE
  5
1C7
100
AcDbEntity
100
AcDbLine
  8
HACHURE
 62
5
370
-1
  6
CONTINUOUS
 10
292.5179560000000265
 20
180.2817310000000077
 30
0.0
 11
291.6507080000000087
 21
179.6744779999999935
 31
0.0
  0
LINE
  5
1C8
100
AcDbEntity
100
AcDbLine
  8
HACHURE
 62
5
370
-1
  6
CONTINUOUS
 10
290.6103850000000079
 20
178.9460349999999949
 30
0.0
 11
289.518211000000008
 21
178.1812869999999975
 31
0.0
  0
LINE
  5
1C9
100
AcDbEntity
100
AcDbLine
  8
HACHURE
 62
5
370
-1
  6
CONTINUOUS
 10
287.4894160000000056
 20
176.7607089999999914
 30
0.0
 11
285.4087700000000041
 21
175.3038249999999891
 31
0.0
  0
LINE
  5
1CA
100
AcDbEntity
100
AcDbLine
  8
HACHURE
 62
5
370
-1
  6
CONTINUOUS
 10
284.3684460000000058
 20
174.575382999999988
 30
0.0
 11
282.5117680000000178
 21
173.275322999999986
 31
0.0
  0
LINE
  5
1CB
100
AcDbEntity
100
AcDbLine
  8
HACHURE
 62
5
370
-1
  6
CONTINUOUS
 10
291.4434959999999819
 20
173.3278750000000059
 30
0.0
 11
292.5179099999999721
 21
174.0801879999999926
 31
0.0
  0
ENDBLK
  5
1CC
100
AcDbEntity
  8
0
100
AcDbBlockEnd
  0
BLOCK
  5
1CD
100
AcDbEntity
  8
0
100
AcDbBlockBegin
  2
DESENS-G19
 70
0
 10
0.0
 20
0.0
 30
0.0
  3
DESENS-G19
  1

  0
LINE
  5
1CE
100
AcDbEntity
100
AcDbLine
  8
HACHURE
 62
5
370
-1
  6
CONTINUOUS
 10
282.5183279999999968
 20
213.0489550000000065
 30
0.0
 11
280.5188719999999876
 21
214.4489890000000116
 31
0.0
  0
LINE
  5
1CF
100
AcDbEntity
100
AcDbLine
  8
HACHURE
 62
5
370
-1
  6
CONTINUOUS
 10
280.5182699999999727
 20
210.5723649999999907
 30
0.0
 11
282.5180990000000065
 21
209.1720699999999908
 31
0.0
  0
LINE
  5
1D0
100
AcDbEntity
100
AcDbLine
  8
HACHURE
 62
5
370
-1
  6
CONTINUOUS
 10
282.5182399999999916
 20
205.297302000000002
 30
0.0
 11
275.4085230000000024
 21
210.2755789999999934
 31
0.0
  0
LINE
  5
1D1
100
AcDbEntity
100
AcDbLine
  8
HACHURE
 62
5
370
-1
  6
CONTINUOUS
 10
273.5188200000000052
 20
211.5987629999999911
 30
0.0
 11
271.1240270000000123
 21
213.2756149999999877
 31
0.0
  0
LINE
  5
1D2
100
AcDbEntity
100
AcDbLine
  8
HACHURE
 62
5
370
-1
  6
CONTINUOUS
 10
268.5188309999999774
 20
211.2227479999999957
 30
0.0
 11
274.1573280000000068
 21
207.2746300000000019
 31
0.0
  0
LINE
  5
1D3
100
AcDbEntity
100
AcDbLine
  8
HACHURE
 62
5
370
-1
  6
CONTINUOUS
 10
279.0182159999999953
 20
203.8709990000000118
 30
0.0
 11
282.5180119999999988
 21
201.4204169999999863
 31
0.0
  0
LINE
  5
1D4
100
AcDbEntity
100
AcDbLine
  8
HACHURE
 62
5
370
-1
  6
CONTINUOUS
 10
282.5181519999999864
 20
197.5456479999999999
 30
0.0
 11
279.0183569999999804
 21
199.9962309999999945
 31
0.0
  0
LINE
  5
1D5
100
AcDbEntity
100
AcDbLine
  8
HACHURE
 62
5
370
-1
  6
CONTINUOUS
 10
271.5181559999999763
 20
205.2479289999999992
 30
0.0
 11
268.5185989999999947
 21
207.3482419999999991
 31
0.0
  0
LINE
  5
1D6
100
AcDbEntity
100
AcDbLine
  8
HACHURE
 62
5
370
-1
  6
CONTINUOUS
 10
268.5187429999999722
 20
203.4710949999999912
 30
0.0
 11
271.5183010000000081
 21
201.3707819999999913
 31
0.0
  0
LINE
  5
1D7
100
AcDbEntity
100
AcDbLine
  8
HACHURE
 62
5
370
-1
  6
CONTINUOUS
 10
279.0185020000000122
 20
196.1190850000000125
 30
0.0
 11
282.5179239999999936
 21
193.6687630000000127
 31
0.0
  0
LINE
  5
1D8
100
AcDbEntity
100
AcDbLine
  8
HACHURE
 62
5
370
-1
  6
CONTINUOUS
 10
282.5180649999999787
 20
189.7939949999999953
 30
0.0
 11
279.0182699999999727
 21
192.24457799999999
 31
0.0
  0
LINE
  5
1D9
100
AcDbEntity
100
AcDbLine
  8
HACHURE
 62
5
370
-1
  6
CONTINUOUS
 10
271.5180690000000254
 20
197.4962749999999971
 30
0.0
 11
268.5185109999999895
 21
199.596587999999997
 31
0.0
  0
LINE
  5
1DA
100
AcDbEntity
100
AcDbLine
  8
HACHURE
 62
5
370
-1
  6
CONTINUOUS
 10
268.5186560000000213
 20
195.7194419999999866
 30
0.0
 11
271.5182130000000029
 21
193.6191289999999867
 31
0.0
  0
LINE
  5
1DB
100
AcDbEntity
100
AcDbLine
  8
HACHURE
 62
5
370
-1
  6
CONTINUOUS
 10
279.018414000000007
 20
188.367432000000008
 30
0.0
 11
282.5178359999999884
 21
185.9171100000000081
 31
0.0
  0
LINE
  5
1DC
100
AcDbEntity
100
AcDbLine
  8
HACHURE
 62
5
370
-1
  6
CONTINUOUS
 10
282.5179769999999735
 20
182.0423419999999908
 30
0.0
 11
279.0185549999999921
 21
184.4926639999999907
 31
0.0
  0
LINE
  5
1DD
100
AcDbEntity
100
AcDbLine
  8
HACHURE
 62
5
370
-1
  6
CONTINUOUS
 10
271.5179810000000202
 20
189.7446219999999926
 30
0.0
 11
268.5187970000000064
 21
191.8446739999999977
 31
0.0
  0
LINE
  5
1DE
100
AcDbEntity
100
AcDbLine
  8
HACHURE
 62
5
370
-1
  6
CONTINUOUS
 10
268.5185680000000161
 20
187.9677890000000104
 30
0.0
 11
271.5181259999999952
 21
185.8674760000000106
 31
0.0
  0
LINE
  5
1DF
100
AcDbEntity
100
AcDbLine
  8
HACHURE
 62
5
370
-1
  6
CONTINUOUS
 10
279.0187000000000239
 20
180.6155170000000112
 30
0.0
 11
282.5177479999999832
 21
178.1654570000000035
 31
0.0
  0
LINE
  5
1E0
100
AcDbEntity
100
AcDbLine
  8
HACHURE
 62
5
370
-1
  6
CONTINUOUS
 10
271.5182669999999803
 20
181.9927079999999933
 30
0.0
 11
268.5187090000000012
 21
184.0930209999999931
 31
0.0
  0
ENDBLK
  5
1E1
100
AcDbEntity
  8
0
100
AcDbBlockEnd
  0
BLOCK
  5
1E2
100
AcDbEntity
  8
0
100
AcDbBlockBegin
  2
DESENS-G20
 70
0
 10
0.0
 20
0.0
 30
0.0
  3
DESENS-G20
  1

  0
LINE
  5
1E3
100
AcDbEntity
100
AcDbLine
  8
HACHURE
 62
5
370
-1
  6
CONTINUOUS
 10
285.518320000000017
 20
185.6197530000000029
 30
0.0
 11
282.518414000000007
 21
181.3354439999999954
 31
0.0
  0
LINE
  5
1E4
100
AcDbEntity
100
AcDbLine
  8
HACHURE
 62
5
370
-1
  6
CONTINUOUS
 10
284.9769999999999754
 20
189.2750910000000033
 30
0.0
 11
283.8980270000000132
 21
187.7341580000000079
 31
0.0
  0
LINE
  5
1E5
100
AcDbEntity
100
AcDbLine
  8
HACHURE
 62
5
370
-1
  6
CONTINUOUS
 10
283.1695849999999837
 20
186.6938350000000071
 30
0.0
 11
282.5184070000000247
 21
185.7638560000000041
 31
0.0
  0
LINE
  5
1E6
100
AcDbEntity
100
AcDbLine
  8
HACHURE
 62
5
370
-1
  6
CONTINUOUS
 10
282.7761390000000006
 20
177.2750900000000058
 30
0.0
 11
282.9602889999999888
 21
177.5380830000000003
 31
0.0
  0
LINE
  5
1E7
100
AcDbEntity
100
AcDbLine
  8
HACHURE
 62
5
370
-1
  6
CONTINUOUS
 10
283.6887310000000184
 20
178.5784060000000011
 30
0.0
 11
285.1456150000000207
 21
180.6590520000000026
 31
0.0
  0
ENDBLK
  5
1E8
100
AcDbEntity
  8
0
100
AcDbBlockEnd
  0
BLOCK
  5
1E9
100
AcDbEntity
  8
0
100
AcDbBlockBegin
  2
DESENS-G21
 70
0
 10
0.0
 20
0.0
 30
0.0
  3
DESENS-G21
  1

  0
LINE
  5
1EA
100
AcDbEntity
100
AcDbLine
  8
HACHURE
 62
5
370
-1
  6
CONTINUOUS
 10
282.5183369999999741
 20
162.0903999999999883
 30
0.0
 11
282.3888339999999744
 21
162.2753490000000056
 31
0.0
  0
LINE
  5
1EB
100
AcDbEntity
100
AcDbLine
  8
HACHURE
 62
5
370
-1
  6
CONTINUOUS
 10
280.0420419999999808
 20
162.3056650000000047
 30
0.0
 11
281.1136880000000247
 21
160.7751949999999965
 31
0.0
  0
LINE
  5
1EC
100
AcDbEntity
100
AcDbLine
  8
HACHURE
 62
5
370
-1
  6
CONTINUOUS
 10
278.5693929999999909
 20
161.0875749999999869
 30
0.0
 11
277.2674190000000181
 21
162.9469860000000097
 31
0.0
  0
ENDBLK
  5
1ED
100
AcDbEntity
  8
0
100
AcDbBlockEnd
  0
BLOCK
  5
1EE
100
AcDbEntity
  8
0
100
AcDbBlockBegin
  2
DESENS-G22
 70
0
 10
0.0
 20
0.0
 30
0.0
  3
DESENS-G22
  1

  0
LINE
  5
1EF
100
AcDbEntity
100
AcDbLine
  8
HACHURE
 62
5
370
-1
  6
CONTINUOUS
 10
285.5183309999999892
 20
214.6456900000000019
 30
0.0
 11
284.3773959999999761
 21
216.2751140000000021
 31
0.0
  0
LINE
  5
1F0
100
AcDbEntity
100
AcDbLine
  8
HACHURE
 62
5
370
-1
  6
CONTINUOUS
 10
282.5184110000000146
 20
210.0731739999999945
 30
0.0
 11
285.5183160000000271
 21
205.7888639999999896
 31
0.0
  0
LINE
  5
1F1
100
AcDbEntity
100
AcDbLine
  8
HACHURE
 62
5
370
-1
  6
CONTINUOUS
 10
285.1515529999999785
 20
210.7410800000000108
 30
0.0
 11
283.6946679999999787
 21
212.8217270000000099
 31
0.0
  0
LINE
  5
1F2
100
AcDbEntity
100
AcDbLine
  8
HACHURE
 62
5
370
-1
  6
CONTINUOUS
 10
282.966226000000006
 20
213.8620500000000106
 30
0.0
 11
282.5184179999999969
 21
214.5015860000000032
 31
0.0
  0
LINE
  5
1F3
100
AcDbEntity
100
AcDbLine
  8
HACHURE
 62
5
370
-1
  6
CONTINUOUS
 10
282.5184039999999754
 20
205.6447609999999884
 30
0.0
 11
283.1755220000000008
 21
204.7062980000000039
 31
0.0
  0
ENDBLK
  5
1F4
100
AcDbEntity
  8
0
100
AcDbBlockEnd
  0
BLOCK
  5
1F5
100
AcDbEntity
  8
0
100
AcDbBlockBegin
  2
DESENS-G23
 70
0
 10
0.0
 20
0.0
 30
0.0
  3
DESENS-G23
  1

  0
LINE
  5
1F6
100
AcDbEntity
100
AcDbLine
  8
HACHURE
 62
5
370
-1
  6
CONTINUOUS
 10
269.2597039999999993
 20
215.2750259999999969
 30
0.0
 11
268.5183470000000057
 21
213.9909570000000087
 31
0.0
  0
LINE
  5
1F7
100
AcDbEntity
100
AcDbLine
  8
HACHURE
 62
5
370
-1
  6
CONTINUOUS
 10
270.671211000000028
 20
213.2750580000000014
 30
0.0
 11
271.8259469999999851
 21
215.2751199999999869
 31
0.0
  0
LINE
  5
1F8
100
AcDbEntity
100
AcDbLine
  8
HACHURE
 62
5
370
-1
  6
CONTINUOUS
 10
274.3924450000000093
 20
215.2750670000000071
 30
0.0
 11
273.2377079999999978
 21
213.2750049999999931
 31
0.0
  0
LINE
  5
1F9
100
AcDbEntity
100
AcDbLine
  8
HACHURE
 62
5
370
-1
  6
CONTINUOUS
 10
275.8039519999999811
 20
213.2750990000000115
 30
0.0
 11
276.9586879999999951
 21
215.2751609999999971
 31
0.0
  0
ENDBLK
  5
1FA
100
AcDbEntity
  8
0
100
AcDbBlockEnd
  0
BLOCK
  5
1FB
100
AcDbEntity
  8
0
100
AcDbBlockBegin
  2
DESENS-G24
 70
0
 10
0.0
 20
0.0
 30
0.0
  3
DESENS-G24
  1

  0
LINE
  5
1FC
100
AcDbEntity
100
AcDbLine
  8
HACHURE
 62
5
370
-1
  6
CONTINUOUS
 10
322.5179140000000189
 20
209.5261700000000076
 30
0.0
 11
317.5181529999999839
 21
213.0270399999999995
 31
0.0
  0
LINE
  5
1FD
100
AcDbEntity
100
AcDbLine
  8
HACHURE
 62
5
370
-1
  6
CONTINUOUS
 10
308.5188779999999724
 20
215.4513550000000066
 30
0.0
 11
310.5183349999999791
 21
214.0513210000000015
 31
0.0
  0
LINE
  5
1FE
100
AcDbEntity
100
AcDbLine
  8
HACHURE
 62
5
370
-1
  6
CONTINUOUS
 10
315.9108190000000036
 20
210.275463000000002
 30
0.0
 11
322.5176849999999718
 21
205.6492849999999919
 31
0.0
  0
LINE
  5
1FF
100
AcDbEntity
100
AcDbLine
  8
HACHURE
 62
5
370
-1
  6
CONTINUOUS
 10
322.5178260000000137
 20
201.774517000000003
 30
0.0
 11
319.51789500000001
 21
203.8750909999999976
 31
0.0
  0
LINE
  5
200
100
AcDbEntity
100
AcDbLine
  8
HACHURE
 62
5
370
-1
  6
CONTINUOUS
 10
314.6622330000000147
 20
207.2750619999999913
 30
0.0
 11
308.5190190000000143
 21
211.5765869999999893
 31
0.0
  0
LINE
  5
201
100
AcDbEntity
100
AcDbLine
  8
HACHURE
 62
5
370
-1
  6
CONTINUOUS
 10
308.5187910000000215
 20
207.699702000000002
 30
0.0
 11
312.0189589999999953
 21
205.2488580000000127
 31
0.0
  0
LINE
  5
202
100
AcDbEntity
100
AcDbLine
  8
HACHURE
 62
5
370
-1
  6
CONTINUOUS
 10
319.518039999999985
 20
199.9979449999999872
 30
0.0
 11
322.5179709999999886
 21
197.8973699999999951
 31
0.0
  0
LINE
  5
203
100
AcDbEntity
100
AcDbLine
  8
HACHURE
 62
5
370
-1
  6
CONTINUOUS
 10
322.5177390000000059
 20
194.0228639999999984
 30
0.0
 11
319.5181810000000269
 21
196.1231760000000008
 31
0.0
  0
LINE
  5
204
100
AcDbEntity
100
AcDbLine
  8
HACHURE
 62
5
370
-1
  6
CONTINUOUS
 10
312.0187270000000126
 20
201.3743509999999901
 30
0.0
 11
308.5189310000000091
 21
203.8249340000000132
 31
0.0
  0
LINE
  5
205
100
AcDbEntity
100
AcDbLine
  8
HACHURE
 62
5
370
-1
  6
CONTINUOUS
 10
308.5190759999999841
 20
199.9477870000000053
 30
0.0
 11
312.0188709999999901
 21
197.4972040000000106
 31
0.0
  0
LINE
  5
206
100
AcDbEntity
100
AcDbLine
  8
HACHURE
 62
5
370
-1
  6
CONTINUOUS
 10
319.5183260000000018
 20
192.2460299999999904
 30
0.0
 11
322.5178829999999834
 21
190.1457169999999905
 31
0.0
  0
LINE
  5
207
100
AcDbEntity
100
AcDbLine
  8
HACHURE
 62
5
370
-1
  6
CONTINUOUS
 10
322.5180240000000254
 20
186.2709490000000017
 30
0.0
 11
319.5180930000000217
 21
188.3715229999999963
 31
0.0
  0
LINE
  5
208
100
AcDbEntity
100
AcDbLine
  8
HACHURE
 62
5
370
-1
  6
CONTINUOUS
 10
312.0186390000000074
 20
193.622698000000014
 30
0.0
 11
308.519217000000026
 21
196.073018999999988
 31
0.0
  0
LINE
  5
209
100
AcDbEntity
100
AcDbLine
  8
HACHURE
 62
5
370
-1
  6
CONTINUOUS
 10
308.5189879999999789
 20
192.1961340000000007
 30
0.0
 11
312.0187839999999824
 21
189.7455510000000061
 31
0.0
  0
LINE
  5
20A
100
AcDbEntity
100
AcDbLine
  8
HACHURE
 62
5
370
-1
  6
CONTINUOUS
 10
319.5182379999999966
 20
184.4943769999999859
 30
0.0
 11
322.5177959999999757
 21
182.394063999999986
 31
0.0
  0
LINE
  5
20B
100
AcDbEntity
100
AcDbLine
  8
HACHURE
 62
5
370
-1
  6
CONTINUOUS
 10
320.0104029999999966
 20
180.2750890000000084
 30
0.0
 11
319.5183789999999817
 21
180.619608999999997
 31
0.0
  0
LINE
  5
20C
100
AcDbEntity
100
AcDbLine
  8
HACHURE
 62
5
370
-1
  6
CONTINUOUS
 10
312.0185510000000022
 20
185.8710450000000094
 30
0.0
 11
308.5191290000000208
 21
188.3213660000000118
 31
0.0
  0
LINE
  5
20D
100
AcDbEntity
100
AcDbLine
  8
HACHURE
 62
5
370
-1
  6
CONTINUOUS
 10
308.5192739999999958
 20
184.4442200000000014
 30
0.0
 11
312.0186959999999772
 21
181.9938980000000015
 31
0.0
  0
LINE
  5
20E
100
AcDbEntity
100
AcDbLine
  8
HACHURE
 62
5
370
-1
  6
CONTINUOUS
 10
312.018462999999997
 20
178.1193910000000074
 30
0.0
 11
308.5190420000000131
 21
180.5697130000000072
 31
0.0
  0
ENDBLK
  5
20F
100
AcDbEntity
  8
0
100
AcDbBlockEnd
  0
BLOCK
  5
210
100
AcDbEntity
  8
0
100
AcDbBlockBegin
  2
DESENS-G25
 70
0
 10
0.0
 20
0.0
 30
0.0
  3
DESENS-G25
  1

  0
LINE
  5
211
100
AcDbEntity
100
AcDbLine
  8
HACHURE
 62
5
370
-1
  6
CONTINUOUS
 10
300.8237010000000282
 20
191.969253000000009
 30
0.0
 11
298.5182360000000017
 21
190.3549490000000048
 31
0.0
  0
LINE
  5
212
100
AcDbEntity
100
AcDbLine
  8
HACHURE
 62
5
370
-1
  6
CONTINUOUS
 10
298.5184840000000008
 20
184.1536110000000122
 30
0.0
 11
301.5182280000000219
 21
186.2540549999999939
 31
0.0
  0
LINE
  5
213
100
AcDbEntity
100
AcDbLine
  8
HACHURE
 62
5
370
-1
  6
CONTINUOUS
 10
301.5181830000000218
 20
180.0525120000000072
 30
0.0
 11
298.5184380000000033
 21
177.952067999999997
 31
0.0
  0
LINE
  5
214
100
AcDbEntity
100
AcDbLine
  8
HACHURE
 62
5
370
-1
  6
CONTINUOUS
 10
298.5186860000000024
 20
171.7507310000000018
 30
0.0
 11
300.5185149999999794
 21
173.1510260000000017
 31
0.0
  0
LINE
  5
215
100
AcDbEntity
100
AcDbLine
  8
HACHURE
 62
5
370
-1
  6
CONTINUOUS
 10
300.6956779999999867
 20
173.2750770000000102
 30
0.0
 11
306.4080109999999877
 21
177.2748949999999866
 31
0.0
  0
LINE
  5
216
100
AcDbEntity
100
AcDbLine
  8
HACHURE
 62
5
370
-1
  6
CONTINUOUS
 10
301.5180599999999913
 20
189.3544740000000104
 30
0.0
 11
301.2720610000000079
 21
189.1822229999999934
 31
0.0
  0
LINE
  5
217
100
AcDbEntity
100
AcDbLine
  8
HACHURE
 62
5
370
-1
  6
CONTINUOUS
 10
300.2317370000000096
 20
188.4537809999999922
 30
0.0
 11
298.5183160000000271
 21
187.2540309999999977
 31
0.0
  0
LINE
  5
218
100
AcDbEntity
100
AcDbLine
  8
HACHURE
 62
5
370
-1
  6
CONTINUOUS
 10
298.5185640000000262
 20
181.052693000000005
 30
0.0
 11
300.0245249999999828
 21
182.1071790000000021
 31
0.0
  0
LINE
  5
219
100
AcDbEntity
100
AcDbLine
  8
HACHURE
 62
5
370
-1
  6
CONTINUOUS
 10
301.0648479999999836
 20
182.8356210000000033
 30
0.0
 11
301.5180149999999912
 21
183.1529309999999953
 31
0.0
  0
LINE
  5
21A
100
AcDbEntity
100
AcDbLine
  8
HACHURE
 62
5
370
-1
  6
CONTINUOUS
 10
301.9799419999999941
 20
177.2748650000000055
 30
0.0
 11
300.8576360000000136
 21
176.4890179999999873
 31
0.0
  0
LINE
  5
21B
100
AcDbEntity
100
AcDbLine
  8
HACHURE
 62
5
370
-1
  6
CONTINUOUS
 10
299.8173130000000128
 20
175.7605759999999862
 30
0.0
 11
298.5185179999999718
 21
174.8511499999999899
 31
0.0
  0
LINE
  5
21C
100
AcDbEntity
100
AcDbLine
  8
HACHURE
 62
5
370
-1
  6
CONTINUOUS
 10
305.1242460000000278
 20
173.2750189999999861
 30
0.0
 11
305.8520389999999907
 21
173.7846260000000029
 31
0.0
  0
LINE
  5
21D
100
AcDbEntity
100
AcDbLine
  8
HACHURE
 62
5
370
-1
  6
CONTINUOUS
 10
306.8923629999999889
 20
174.5130680000000041
 30
0.0
 11
308.9730089999999905
 21
175.9699520000000064
 31
0.0
  0
ENDBLK
  5
21E
100
AcDbEntity
  8
0
100
AcDbBlockEnd
  0
BLOCK
  5
21F
100
AcDbEntity
  8
0
100
AcDbBlockBegin
  2
DESENS-G26
 70
0
 10
0.0
 20
0.0
 30
0.0
  3
DESENS-G26
  1

  0
LINE
  5
220
100
AcDbEntity
100
AcDbLine
  8
HACHURE
 62
5
370
-1
  6
CONTINUOUS
 10
303.4215520000000197
 20
189.2749640000000113
 30
0.0
 11
302.5183930000000032
 21
187.9851199999999949
 31
0.0
  0
LINE
  5
221
100
AcDbEntity
100
AcDbLine
  8
HACHURE
 62
5
370
-1
  6
CONTINUOUS
 10
302.5184070000000247
 20
179.1282950000000085
 30
0.0
 11
308.5183309999999892
 21
187.697072999999989
 31
0.0
  0
LINE
  5
222
100
AcDbEntity
100
AcDbLine
  8
HACHURE
 62
5
370
-1
  6
CONTINUOUS
 10
308.5184090000000197
 20
178.8406799999999919
 30
0.0
 11
307.4223400000000197
 21
177.2753309999999942
 31
0.0
  0
LINE
  5
223
100
AcDbEntity
100
AcDbLine
  8
HACHURE
 62
5
370
-1
  6
CONTINUOUS
 10
306.522344999999973
 20
189.2749320000000068
 30
0.0
 11
305.4498669999999834
 21
187.7432760000000087
 31
0.0
  0
LINE
  5
224
100
AcDbEntity
100
AcDbLine
  8
HACHURE
 62
5
370
-1
  6
CONTINUOUS
 10
304.7214250000000106
 20
186.7029530000000079
 30
0.0
 11
303.2645410000000084
 21
184.6223070000000064
 31
0.0
  0
LINE
  5
225
100
AcDbEntity
100
AcDbLine
  8
HACHURE
 62
5
370
-1
  6
CONTINUOUS
 10
302.5360989999999788
 20
183.5819840000000056
 30
0.0
 11
302.5183999999999855
 21
183.5567069999999887
 31
0.0
  0
LINE
  5
226
100
AcDbEntity
100
AcDbLine
  8
HACHURE
 62
5
370
-1
  6
CONTINUOUS
 10
304.321708000000001
 20
177.2752509999999972
 30
0.0
 11
304.5121290000000158
 21
177.5472019999999986
 31
0.0
  0
LINE
  5
227
100
AcDbEntity
100
AcDbLine
  8
HACHURE
 62
5
370
-1
  6
CONTINUOUS
 10
305.2405709999999885
 20
178.5875249999999994
 30
0.0
 11
306.6974559999999883
 21
180.668171000000001
 31
0.0
  0
LINE
  5
228
100
AcDbEntity
100
AcDbLine
  8
HACHURE
 62
5
370
-1
  6
CONTINUOUS
 10
307.4258980000000179
 20
181.7084940000000017
 30
0.0
 11
308.5183380000000284
 21
183.2686600000000112
 31
0.0
  0
ENDBLK
  5
229
100
AcDbEntity
  8
0
100
AcDbBlockEnd
  0
BLOCK
  5
22A
100
AcDbEntity
  8
0
100
AcDbBlockBegin
  2
DESENS-G27
 70
0
 10
0.0
 20
0.0
 30
0.0
  3
DESENS-G27
  1

  0
LINE
  5
22B
100
AcDbEntity
100
AcDbLine
  8
HACHURE
 62
5
370
-1
  6
CONTINUOUS
 10
314.1959909999999923
 20
162.9559969999999964
 30
0.0
 11
314.1421060000000125
 21
163.0329519999999945
 31
0.0
  0
LINE
  5
22C
100
AcDbEntity
100
AcDbLine
  8
HACHURE
 62
5
370
-1
  6
CONTINUOUS
 10
312.140467000000001
 20
162.570336999999995
 30
0.0
 11
313.0796990000000051
 21
161.2289759999999887
 31
0.0
  0
LINE
  5
22D
100
AcDbEntity
100
AcDbLine
  8
HACHURE
 62
5
370
-1
  6
CONTINUOUS
 10
311.0718989999999735
 20
160.7751599999999996
 30
0.0
 11
310.0215370000000235
 21
162.2752319999999884
 31
0.0
  0
LINE
  5
22E
100
AcDbEntity
100
AcDbLine
  8
HACHURE
 62
5
370
-1
  6
CONTINUOUS
 10
308.5185290000000009
 20
161.1004990000000134
 30
0.0
 11
308.746167000000014
 21
160.7753979999999956
 31
0.0
  0
ENDBLK
  5
22F
100
AcDbEntity
  8
0
100
AcDbBlockEnd
  0
BLOCK
  5
230
100
AcDbEntity
  8
0
100
AcDbBlockBegin
  2
DESENS-G28
 70
0
 10
0.0
 20
0.0
 30
0.0
  3
DESENS-G28
  1

  0
LINE
  5
231
100
AcDbEntity
100
AcDbLine
  8
HACHURE
 62
5
370
-1
  6
CONTINUOUS
 10
308.5183870000000184
 20
212.5684019999999919
 30
0.0
 11
305.9230660000000057
 21
216.2749049999999897
 31
0.0
  0
LINE
  5
232
100
AcDbEntity
100
AcDbLine
  8
HACHURE
 62
5
370
-1
  6
CONTINUOUS
 10
302.518449999999973
 20
212.2803549999999859
 30
0.0
 11
308.1237029999999777
 21
204.2752230000000111
 31
0.0
  0
LINE
  5
233
100
AcDbEntity
100
AcDbLine
  8
HACHURE
 62
5
370
-1
  6
CONTINUOUS
 10
308.5182679999999777
 20
208.1401490000000081
 30
0.0
 11
307.3892020000000116
 21
209.7526220000000023
 31
0.0
  0
LINE
  5
234
100
AcDbEntity
100
AcDbLine
  8
HACHURE
 62
5
370
-1
  6
CONTINUOUS
 10
306.660759999999982
 20
210.7929450000000031
 30
0.0
 11
305.2038759999999797
 21
212.8735920000000021
 31
0.0
  0
LINE
  5
235
100
AcDbEntity
100
AcDbLine
  8
HACHURE
 62
5
370
-1
  6
CONTINUOUS
 10
304.475434000000007
 20
213.9139150000000029
 30
0.0
 11
303.0185500000000047
 21
215.9945610000000045
 31
0.0
  0
LINE
  5
236
100
AcDbEntity
100
AcDbLine
  8
HACHURE
 62
5
370
-1
  6
CONTINUOUS
 10
303.2278459999999995
 20
206.8388089999999977
 30
0.0
 11
304.6847300000000018
 21
204.7581629999999961
 31
0.0
  0
ENDBLK
  5
237
100
AcDbEntity
  8
0
100
AcDbBlockEnd
  0
BLOCK
  5
238
100
AcDbEntity
  8
0
100
AcDbBlockBegin
  2
DESENS-G29
 70
0
 10
0.0
 20
0.0
 30
0.0
  3
DESENS-G29
  1

  0
LINE
  5
239
100
AcDbEntity
100
AcDbLine
  8
HACHURE
 62
5
370
-1
  6
CONTINUOUS
 10
316.0122279999999932
 20
215.2750340000000051
 30
0.0
 11
314.8574919999999793
 21
213.2749719999999911
 31
0.0
  0
LINE
  5
23A
100
AcDbEntity
100
AcDbLine
  8
HACHURE
 62
5
370
-1
  6
CONTINUOUS
 10
317.423735000000022
 20
213.2750660000000096
 30
0.0
 11
318.5784719999999766
 21
215.2751279999999952
 31
0.0
  0
LINE
  5
23B
100
AcDbEntity
100
AcDbLine
  8
HACHURE
 62
5
370
-1
  6
CONTINUOUS
 10
321.1449690000000032
 20
215.2750760000000128
 30
0.0
 11
319.9902329999999893
 21
213.2750139999999988
 31
0.0
  0
ENDBLK
  5
23C
100
AcDbEntity
  8
0
100
AcDbBlockEnd
  0
BLOCK
  5
23D
100
AcDbEntity
  8
0
100
AcDbBlockBegin
  2
DESENS-G30
 70
0
 10
0.0
 20
0.0
 30
0.0
  3
DESENS-G30
  1

  0
LINE
  5
23E
100
AcDbEntity
100
AcDbLine
  8
HACHURE
 62
5
370
-1
  6
CONTINUOUS
 10
303.9475269999999796
 20
256.7754449999999906
 30
0.0
 11
302.5471939999999904
 21
258.7753280000000018
 31
0.0
  0
LINE
  5
23F
100
AcDbEntity
100
AcDbLine
  8
HACHURE
 62
5
370
-1
  6
CONTINUOUS
 10
299.4465930000000071
 20
258.7755900000000224
 30
0.0
 11
300.8469259999999963
 21
256.7757070000000112
 31
0.0
  0
LINE
  5
240
100
AcDbEntity
100
AcDbLine
  8
HACHURE
 62
5
370
-1
  6
CONTINUOUS
 10
297.7457919999999945
 20
256.7755950000000098
 30
0.0
 11
296.3454590000000053
 21
258.775478000000021
 31
0.0
  0
LINE
  5
241
100
AcDbEntity
100
AcDbLine
  8
HACHURE
 62
5
370
-1
  6
CONTINUOUS
 10
293.244858000000022
 20
258.7757389999999873
 30
0.0
 11
294.6451910000000112
 21
256.7758569999999736
 31
0.0
  0
LINE
  5
242
100
AcDbEntity
100
AcDbLine
  8
HACHURE
 62
5
370
-1
  6
CONTINUOUS
 10
291.5440570000000093
 20
256.7757449999999722
 30
0.0
 11
290.1437240000000202
 21
258.7756279999999833
 31
0.0
  0
LINE
  5
243
100
AcDbEntity
100
AcDbLine
  8
HACHURE
 62
5
370
-1
  6
CONTINUOUS
 10
287.0434960000000046
 20
258.7753559999999879
 30
0.0
 11
288.4434560000000261
 21
256.7760059999999953
 31
0.0
  0
ENDBLK
  5
244
100
AcDbEntity
  8
0
100
AcDbBlockEnd
  0
BLOCK
  5
245
100
AcDbEntity
  8
0
100
AcDbBlockBegin
  2
DESENS-G31
 70
0
 10
0.0
 20
0.0
 30
0.0
  3
DESENS-G31
  1

  0
LINE
  5
246
100
AcDbEntity
100
AcDbLine
  8
HACHURE
 62
5
370
-1
  6
CONTINUOUS
 10
304.9694329999999809
 20
250.7756939999999872
 30
0.0
 11
303.5694740000000138
 21
252.7750440000000083
 31
0.0
  0
LINE
  5
247
100
AcDbEntity
100
AcDbLine
  8
HACHURE
 62
5
370
-1
  6
CONTINUOUS
 10
300.4688729999999737
 20
252.775305000000003
 30
0.0
 11
301.8692060000000197
 21
250.7754229999999893
 31
0.0
  0
LINE
  5
248
100
AcDbEntity
100
AcDbLine
  8
HACHURE
 62
5
370
-1
  6
CONTINUOUS
 10
298.7676979999999958
 20
250.7758440000000064
 30
0.0
 11
297.3677389999999718
 21
252.7751939999999991
 31
0.0
  0
LINE
  5
249
100
AcDbEntity
100
AcDbLine
  8
HACHURE
 62
5
370
-1
  6
CONTINUOUS
 10
294.2671379999999886
 20
252.7754549999999938
 30
0.0
 11
295.6674709999999777
 21
250.775572000000011
 31
0.0
  0
LINE
  5
24A
100
AcDbEntity
100
AcDbLine
  8
HACHURE
 62
5
370
-1
  6
CONTINUOUS
 10
292.5659630000000107
 20
250.7759939999999972
 30
0.0
 11
291.1660039999999867
 21
252.7753429999999923
 31
0.0
  0
LINE
  5
24B
100
AcDbEntity
100
AcDbLine
  8
HACHURE
 62
5
370
-1
  6
CONTINUOUS
 10
288.0654030000000034
 20
252.775605000000013
 30
0.0
 11
289.4657359999999926
 21
250.7757220000000018
 31
0.0
  0
LINE
  5
24C
100
AcDbEntity
100
AcDbLine
  8
HACHURE
 62
5
370
-1
  6
CONTINUOUS
 10
286.3646019999999908
 20
250.7756100000000004
 30
0.0
 11
285.5187999999999988
 21
251.9835390000000075
 31
0.0
  0
ENDBLK
  5
24D
100
AcDbEntity
  8
0
100
AcDbBlockEnd
  0
BLOCK
  5
24E
100
AcDbEntity
  8
0
100
AcDbBlockBegin
  2
DESENS-G32
 70
0
 10
0.0
 20
0.0
 30
0.0
  3
DESENS-G32
  1

  0
LINE
  5
24F
100
AcDbEntity
100
AcDbLine
  8
HACHURE
 62
5
370
-1
  6
CONTINUOUS
 10
288.134477000000004
 20
261.2944009999999935
 30
0.0
 11
286.9597299999999791
 21
258.7751480000000015
 31
0.0
  0
LINE
  5
250
100
AcDbEntity
100
AcDbLine
  8
HACHURE
 62
5
370
-1
  6
CONTINUOUS
 10
290.462931000000026
 20
258.7750960000000191
 30
0.0
 11
291.5181559999999763
 21
261.0380329999999844
 31
0.0
  0
ENDBLK
  5
251
100
AcDbEntity
  8
0
100
AcDbBlockEnd
  0
BLOCK
  5
252
100
AcDbEntity
  8
0
100
AcDbBlockBegin
  2
DESENS-G33
 70
0
 10
0.0
 20
0.0
 30
0.0
  3
DESENS-G33
  1

  0
LINE
  5
253
100
AcDbEntity
100
AcDbLine
  8
HACHURE
 62
5
370
-1
  6
CONTINUOUS
 10
299.5182930000000283
 20
263.2945159999999873
 30
0.0
 11
293.5064510000000269
 21
266.0978840000000218
 31
0.0
  0
LINE
  5
254
100
AcDbEntity
100
AcDbLine
  8
HACHURE
 62
5
370
-1
  6
CONTINUOUS
 10
291.5185230000000161
 20
263.871910000000014
 30
0.0
 11
299.5183410000000208
 21
260.1415329999999813
 31
0.0
  0
LINE
  5
255
100
AcDbEntity
100
AcDbLine
  8
HACHURE
 62
5
370
-1
  6
CONTINUOUS
 10
295.6866430000000037
 20
258.7753240000000119
 30
0.0
 11
291.5183359999999766
 21
260.7190370000000144
 31
0.0
  0
ENDBLK
  5
256
100
AcDbEntity
  8
0
100
AcDbBlockEnd
  0
BLOCK
  5
257
100
AcDbEntity
  8
0
100
AcDbBlockBegin
  2
DESENS-G34
 70
0
 10
0.0
 20
0.0
 30
0.0
  3
DESENS-G34
  1

  0
LINE
  5
258
100
AcDbEntity
100
AcDbLine
  8
HACHURE
 62
5
370
-1
  6
CONTINUOUS
 10
299.5180950000000166
 20
248.3129319999999893
 30
0.0
 11
294.2379080000000044
 21
250.7751230000000078
 31
0.0
  0
LINE
  5
259
100
AcDbEntity
100
AcDbLine
  8
HACHURE
 62
5
370
-1
  6
CONTINUOUS
 10
291.5183940000000007
 20
248.8904719999999884
 30
0.0
 11
299.5182120000000054
 21
245.1600950000000125
 31
0.0
  0
LINE
  5
25A
100
AcDbEntity
100
AcDbLine
  8
HACHURE
 62
5
370
-1
  6
CONTINUOUS
 10
296.6739699999999971
 20
243.3333179999999913
 30
0.0
 11
291.5183999999999855
 21
245.7373990000000106
 31
0.0
  0
ENDBLK
  5
25B
100
AcDbEntity
  8
0
100
AcDbBlockEnd
  0
BLOCK
  5
25C
100
AcDbEntity
  8
0
100
AcDbBlockBegin
  2
DESENS-G35
 70
0
 10
0.0
 20
0.0
 30
0.0
  3
DESENS-G35
  1

  0
LINE
  5
25D
100
AcDbEntity
100
AcDbLine
  8
HACHURE
 62
5
370
-1
  6
CONTINUOUS
 10
301.9629869999999983
 20
261.8129180000000247
 30
0.0
 11
300.5464729999999918
 21
258.7751930000000016
 31
0.0
  0
LINE
  5
25E
100
AcDbEntity
100
AcDbLine
  8
HACHURE
 62
5
370
-1
  6
CONTINUOUS
 10
304.0496370000000184
 20
258.7751579999999763
 30
0.0
 11
304.6475750000000176
 21
260.0574419999999805
 31
0.0
  0
ENDBLK
  5
25F
100
AcDbEntity
  8
0
100
AcDbBlockEnd
  0
BLOCK
  5
260
100
AcDbEntity
  8
0
100
AcDbBlockBegin
  2
DESENS-G36
 70
0
 10
0.0
 20
0.0
 30
0.0
  3
DESENS-G36
  1

  0
LINE
  5
261
100
AcDbEntity
100
AcDbLine
  8
HACHURE
 62
5
370
-1
  6
CONTINUOUS
 10
389.7423880000000054
 20
234.8252449999999953
 30
0.0
 11
385.457919000000004
 21
237.8252630000000067
 31
0.0
  0
LINE
  5
262
100
AcDbEntity
100
AcDbLine
  8
HACHURE
 62
5
370
-1
  6
CONTINUOUS
 10
379.9234950000000026
 20
237.8250260000000083
 30
0.0
 11
384.207964000000004
 21
234.8250079999999969
 31
0.0
  0
LINE
  5
263
100
AcDbEntity
100
AcDbLine
  8
HACHURE
 62
5
370
-1
  6
CONTINUOUS
 10
390.1837229999999863
 20
226.7641820000000052
 30
0.0
 11
386.9367129999999975
 21
229.0377630000000124
 31
0.0
  0
LINE
  5
264
100
AcDbEntity
100
AcDbLine
  8
HACHURE
 62
5
370
-1
  6
CONTINUOUS
 10
378.6715970000000198
 20
234.8250590000000102
 30
0.0
 11
374.3871270000000209
 21
237.8250769999999932
 31
0.0
  0
LINE
  5
265
100
AcDbEntity
100
AcDbLine
  8
HACHURE
 62
5
370
-1
  6
CONTINUOUS
 10
368.9974149999999895
 20
237.723511000000002
 30
0.0
 11
377.1833359999999971
 21
231.9916680000000042
 31
0.0
  0
LINE
  5
266
100
AcDbEntity
100
AcDbLine
  8
HACHURE
 62
5
370
-1
  6
CONTINUOUS
 10
383.0409129999999891
 20
227.8901480000000106
 30
0.0
 11
388.317483999999979
 21
224.1954529999999863
 31
0.0
  0
LINE
  5
267
100
AcDbEntity
100
AcDbLine
  8
HACHURE
 62
5
370
-1
  6
CONTINUOUS
 10
384.4327000000000112
 20
223.0390529999999956
 30
0.0
 11
379.9070449999999823
 21
226.2079510000000084
 31
0.0
  0
LINE
  5
268
100
AcDbEntity
100
AcDbLine
  8
HACHURE
 62
5
370
-1
  6
CONTINUOUS
 10
376.7550689999999918
 20
228.4149879999999939
 30
0.0
 11
373.4814210000000116
 21
230.7072210000000041
 31
0.0
  0
LINE
  5
269
100
AcDbEntity
100
AcDbLine
  8
HACHURE
 62
5
370
-1
  6
CONTINUOUS
 10
368.9449660000000222
 20
233.8836809999999957
 30
0.0
 11
365.6713179999999852
 21
236.1759140000000059
 31
0.0
  0
LINE
  5
26A
100
AcDbEntity
100
AcDbLine
  8
HACHURE
 62
5
370
-1
  6
CONTINUOUS
 10
363.7719619999999736
 20
233.6303760000000125
 30
0.0
 11
366.9368959999999902
 21
231.4142640000000029
 31
0.0
  0
LINE
  5
26B
100
AcDbEntity
100
AcDbLine
  8
HACHURE
 62
5
370
-1
  6
CONTINUOUS
 10
371.8477290000000153
 20
227.9756629999999973
 30
0.0
 11
381.536202000000003
 21
221.1917210000000011
 31
0.0
  0
LINE
  5
26C
100
AcDbEntity
100
AcDbLine
  8
HACHURE
 62
5
370
-1
  6
CONTINUOUS
 10
379.3332389999999918
 20
218.8576970000000017
 30
0.0
 11
375.2373979999999847
 21
221.7256350000000111
 31
0.0
  0
LINE
  5
26D
100
AcDbEntity
100
AcDbLine
  8
HACHURE
 62
5
370
-1
  6
CONTINUOUS
 10
371.9241519999999923
 20
224.0455949999999916
 30
0.0
 11
363.1845839999999725
 21
230.1651060000000086
 31
0.0
  0
LINE
  5
26E
100
AcDbEntity
100
AcDbLine
  8
HACHURE
 62
5
370
-1
  6
CONTINUOUS
 10
363.1844760000000178
 20
226.289699000000013
 30
0.0
 11
366.7036299999999756
 21
223.8255609999999933
 31
0.0
  0
LINE
  5
26F
100
AcDbEntity
100
AcDbLine
  8
HACHURE
 62
5
370
-1
  6
CONTINUOUS
 10
373.5900270000000205
 20
219.0036540000000116
 30
0.0
 11
377.7521029999999769
 21
216.0893370000000004
 31
0.0
  0
LINE
  5
270
100
AcDbEntity
100
AcDbLine
  8
HACHURE
 62
5
370
-1
  6
CONTINUOUS
 10
376.8371450000000209
 20
212.8534420000000011
 30
0.0
 11
372.409403999999995
 21
215.9537799999999947
 31
0.0
  0
LINE
  5
271
100
AcDbEntity
100
AcDbLine
  8
HACHURE
 62
5
370
-1
  6
CONTINUOUS
 10
366.1839289999999778
 20
220.3129050000000007
 30
0.0
 11
363.1845839999999725
 21
222.4130680000000098
 31
0.0
  0
LINE
  5
272
100
AcDbEntity
100
AcDbLine
  8
HACHURE
 62
5
370
-1
  6
CONTINUOUS
 10
363.1844770000000153
 20
218.5376610000000142
 30
0.0
 11
366.1838210000000231
 21
216.437498000000005
 31
0.0
  0
LINE
  5
273
100
AcDbEntity
100
AcDbLine
  8
HACHURE
 62
5
370
-1
  6
CONTINUOUS
 10
371.762773999999979
 20
212.5310719999999947
 30
0.0
 11
374.1976720000000114
 21
210.8261390000000119
 31
0.0
  0
LINE
  5
274
100
AcDbEntity
100
AcDbLine
  8
HACHURE
 62
5
370
-1
  6
CONTINUOUS
 10
366.1844330000000127
 20
212.5615870000000029
 30
0.0
 11
363.1843690000000038
 21
214.6622539999999901
 31
0.0
  0
ENDBLK
  5
275
100
AcDbEntity
  8
0
100
AcDbBlockEnd
  0
ENDSEC
  0
SECTION
  2
ENTITIES
  0
LINE
  5
276
100
AcDbEntity
100
AcDbLine
  8
FORT
 62
7
370
-1
  6
CONTINUOUS
 10
10.0
 20
287.0
 30
0.0
 11
410.0
 21
287.0
 31
0.0
  0
LWPOLYLINE
  5
277
  8
HACHURE
 62
5
370
-1
  6
CONTINUOUS
100
AcDbEntity
100
AcDbPolyline
 90
34
 70
1
 10
231.7347239999999999
 20
72.275109999999998
 10
231.7347239999999999
 20
74.275109999999998
 10
223.7347239999999999
 20
74.275109999999998
 10
223.7347239999999999
 20
90.275109999999998
 10
231.7347239999999999
 20
90.275109999999998
 10
231.7347239999999999
 20
92.275109999999998
 10
230.7347239999999999
 20
103.9952430000000021
 10
223.7347239999999999
 20
103.9952430000000021
 10
223.7347239999999999
 20
105.275109999999998
 10
219.7347239999999999
 20
105.275109999999998
 10
219.7347239999999999
 20
102.775109999999998
 10
222.2347239999999999
 20
102.775109999999998
 10
222.2347239999999999
 20
100.275109999999998
 10
211.7347239999999999
 20
100.275109999999998
 10
209.7347239999999999
 20
98.275109999999998
 10
207.7347239999999999
 20
98.275109999999998
 10
207.7347239999999999
 20
95.275109999999998
 10
222.7347239999999999
 20
95.275109999999998
 10
222.7347239999999999
 20
93.275109999999998
 10
217.7347239999999999
 20
89.275109999999998
 10
217.7347239999999999
 20
75.275109999999998
 10
222.7347239999999999
 20
71.275109999999998
 10
222.7347239999999999
 20
69.275109999999998
 10
207.7347239999999999
 20
69.275109999999998
 10
207.7347239999999999
 20
66.275109999999998
 10
209.7347239999999999
 20
66.275109999999998
 10
211.7347239999999999
 20
64.275109999999998
 10
222.2347239999999999
 20
64.275109999999998
 10
222.2347239999999999
 20
61.775109999999998
 10
219.7347239999999999
 20
61.775109999999998
 10
219.7347239999999999
 20
59.275109999999998
 10
223.7347239999999999
 20
59.275109999999998
 10
223.7347239999999999
 20
60.5549779999999984
 10
230.7347239999999999
 20
60.5549779999999984
  0
INSERT
  5
278
100
AcDbEntity
100
AcDbBlockReference
  8
HACHURE
 62
256
370
-1
  6
ByLayer
  2
DESENS-G1
 10
0.0
 20
0.0
 30
0.0
  0
LINE
  5
279
100
AcDbEntity
100
AcDbLine
  8
FORT
 62
7
370
-1
  6
CONTINUOUS
 10
230.7347239999999999
 20
60.5549779999999984
 30
0.0
 11
231.7347239999999999
 21
72.275109999999998
 31
0.0
  0
LINE
  5
27A
100
AcDbEntity
100
AcDbLine
  8
FORT
 62
7
370
-1
  6
CONTINUOUS
 10
223.7347239999999999
 20
80.275109999999998
 30
0.0
 11
231.7347239999999999
 21
80.275109999999998
 31
0.0
  0
LINE
  5
27B
100
AcDbEntity
100
AcDbLine
  8
FORT
 62
7
370
-1
  6
CONTINUOUS
 10
223.7347239999999999
 20
84.275109999999998
 30
0.0
 11
231.7347239999999999
 21
84.275109999999998
 31
0.0
  0
LINE
  5
27C
100
AcDbEntity
100
AcDbLine
  8
FORT
 62
7
370
-1
  6
CONTINUOUS
 10
223.7347239999999999
 20
90.275109999999998
 30
0.0
 11
231.7347239999999999
 21
90.275109999999998
 31
0.0
  0
LINE
  5
27D
100
AcDbEntity
100
AcDbLine
  8
FORT
 62
7
370
-1
  6
CONTINUOUS
 10
223.7347239999999999
 20
74.275109999999998
 30
0.0
 11
231.7347239999999999
 21
74.275109999999998
 31
0.0
  0
LINE
  5
27E
100
AcDbEntity
100
AcDbLine
  8
FORT
 62
7
370
-1
  6
CONTINUOUS
 10
230.7347239999999999
 20
103.9952430000000021
 30
0.0
 11
231.7347239999999999
 21
92.275109999999998
 31
0.0
  0
LINE
  5
27F
100
AcDbEntity
100
AcDbLine
  8
FIN
 62
5
370
-1
  6
CONTINUOUS
 10
220.9847239999999999
 20
101.525109999999998
 30
0.0
 11
244.626544999999993
 21
117.9811940000000021
 31
0.0
  0
LINE
  5
280
100
AcDbEntity
100
AcDbLine
  8
FIN
 62
5
370
-1
  6
CONTINUOUS
 10
227.4434620000000109
 20
97.7800589999999943
 30
0.0
 11
244.626544999999993
 21
107.9811940000000021
 31
0.0
  0
LINE
  5
281
100
AcDbEntity
100
AcDbLine
  8
FORT
 62
7
370
-1
  6
CONTINUOUS
 10
10.0
 20
10.0
 30
0.0
 11
10.0
 21
287.0
 31
0.0
  0
ARC
  5
282
100
AcDbEntity
  8
FORT
 62
7
370
-1
  6
CONTINUOUS
100
AcDbCircle
 10
115.7347239999999999
 20
145.2751100000000122
 30
0.0
 40
6.7000000000000002
100
AcDbArc
 50
90.0
 51
180.0
  0
ARC
  5
283
100
AcDbEntity
  8
FORT
 62
7
370
-1
  6
CONTINUOUS
100
AcDbCircle
 10
115.7347239999999999
 20
145.2751100000000122
 30
0.0
 40
5.0
100
AcDbArc
 50
90.0
 51
180.0
  0
ARC
  5
284
100
AcDbEntity
  8
FORT
 62
7
370
-1
  6
CONTINUOUS
100
AcDbCircle
 10
115.7347239999999999
 20
145.2751100000000122
 30
0.0
 40
8.0
100
AcDbArc
 50
90.0
 51
180.0
  0
ARC
  5
285
100
AcDbEntity
  8
FORT
 62
7
370
-1
  6
CONTINUOUS
100
AcDbCircle
 10
203.7347239999999999
 20
145.2751100000000122
 30
0.0
 40
5.0
100
AcDbArc
 50
0.0
 51
90.0
  0
ARC
  5
286
100
AcDbEntity
  8
FORT
 62
7
370
-1
  6
CONTINUOUS
100
AcDbCircle
 10
203.7347239999999999
 20
145.2751100000000122
 30
0.0
 40
6.7000000000000002
100
AcDbArc
 50
0.0
 51
90.0
  0
ARC
  5
287
100
AcDbEntity
  8
FORT
 62
7
370
-1
  6
CONTINUOUS
100
AcDbCircle
 10
203.7347239999999999
 20
145.2751100000000122
 30
0.0
 40
8.0
100
AcDbArc
 50
0.0
 51
90.0
  0
LINE
  5
288
100
AcDbEntity
100
AcDbLine
  8
FORT
 62
7
370
-1
  6
CONTINUOUS
 10
107.7347239999999999
 20
171.2751100000000122
 30
0.0
 11
107.7347239999999999
 21
63.275109999999998
 31
0.0
  0
LINE
  5
289
100
AcDbEntity
100
AcDbLine
  8
FORT
 62
7
370
-1
  6
CONTINUOUS
 10
124.7347239999999999
 20
131.2751100000000122
 30
0.0
 11
124.7347239999999999
 21
150.2751100000000122
 31
0.0
  0
LINE
  5
28A
100
AcDbEntity
100
AcDbLine
  8
FORT
 62
7
370
-1
  6
CONTINUOUS
 10
211.7347239999999999
 20
105.275109999999998
 30
0.0
 11
211.7347239999999999
 21
171.2751100000000122
 31
0.0
  0
LINE
  5
28B
100
AcDbEntity
100
AcDbLine
  8
FORT
 62
7
370
-1
  6
CONTINUOUS
 10
194.7347239999999999
 20
131.2751100000000122
 30
0.0
 11
194.7347239999999999
 21
150.2751100000000122
 31
0.0
  0
LINE
  5
28C
100
AcDbEntity
100
AcDbLine
  8
FORT
 62
7
370
-1
  6
CONTINUOUS
 10
142.7347239999999999
 20
147.2751100000000122
 30
0.0
 11
137.5385709999999904
 21
150.2751100000000122
 31
0.0
  0
LINE
  5
28D
100
AcDbEntity
100
AcDbLine
  8
FORT
 62
7
370
-1
  6
CONTINUOUS
 10
176.7347239999999999
 20
147.2751100000000122
 30
0.0
 11
181.930876000000012
 21
150.2751100000000122
 31
0.0
  0
LINE
  5
28E
100
AcDbEntity
100
AcDbLine
  8
FORT
 62
7
370
-1
  6
CONTINUOUS
 10
81.1588399999999979
 20
51.275109999999998
 30
0.0
 11
81.1588399999999979
 21
215.2751100000000122
 31
0.0
  0
LINE
  5
28F
100
AcDbEntity
100
AcDbLine
  8
FORT
 62
7
370
-1
  6
CONTINUOUS
 10
27.1588400000000014
 20
215.2751100000000122
 30
0.0
 11
27.1588400000000014
 21
55.275109999999998
 31
0.0
  0
LINE
  5
290
100
AcDbEntity
100
AcDbLine
  8
FORT
 62
7
370
-1
  6
CONTINUOUS
 10
30.1588400000000014
 20
162.2751100000000122
 30
0.0
 11
30.1588400000000014
 21
55.275109999999998
 31
0.0
  0
LINE
  5
291
100
AcDbEntity
100
AcDbLine
  8
FORT
 62
7
370
-1
  6
CONTINUOUS
 10
33.1588399999999979
 20
51.275109999999998
 30
0.0
 11
33.1588399999999979
 21
162.2751100000000122
 31
0.0
  0
LINE
  5
292
100
AcDbEntity
100
AcDbLine
  8
FORT
 62
7
370
-1
  6
CONTINUOUS
 10
70.1588399999999979
 20
147.2751100000000122
 30
0.0
 11
70.1588399999999979
 21
179.2751100000000122
 31
0.0
  0
LINE
  5
293
100
AcDbEntity
100
AcDbLine
  8
FORT
 62
7
370
-1
  6
CONTINUOUS
 10
184.7347239999999999
 20
51.275109999999998
 30
0.0
 11
111.7347239999999999
 21
51.275109999999998
 31
0.0
  0
ARC
  5
294
100
AcDbEntity
  8
FORT
 62
7
370
-1
  6
CONTINUOUS
100
AcDbCircle
 10
115.7347239999999999
 20
63.275109999999998
 30
0.0
 40
8.0
100
AcDbArc
 50
180.0
 51
270.0
  0
ARC
  5
295
100
AcDbEntity
  8
FORT
 62
7
370
-1
  6
CONTINUOUS
100
AcDbCircle
 10
115.7347239999999999
 20
63.275109999999998
 30
0.0
 40
5.0
100
AcDbArc
 50
180.0
 51
270.0
  0
ARC
  5
296
100
AcDbEntity
  8
FORT
 62
7
370
-1
  6
CONTINUOUS
100
AcDbCircle
 10
115.7347239999999999
 20
63.275109999999998
 30
0.0
 40
6.7000000000000002
100
AcDbArc
 50
180.0
 51
270.0
  0
LINE
  5
297
100
AcDbEntity
100
AcDbLine
  8
FORT
 62
7
370
-1
  6
CONTINUOUS
 10
113.7347239999999999
 20
145.2751100000000122
 30
0.0
 11
110.7347239999999999
 21
145.2751100000000122
 31
0.0
  0
LINE
  5
298
100
AcDbEntity
100
AcDbLine
  8
FORT
 62
7
370
-1
  6
CONTINUOUS
 10
113.7347239999999999
 20
139.2751100000000122
 30
0.0
 11
110.7347239999999999
 21
139.2751100000000122
 31
0.0
  0
LINE
  5
299
100
AcDbEntity
100
AcDbLine
  8
FORT
 62
7
370
-1
  6
CONTINUOUS
 10
110.7347239999999999
 20
115.275109999999998
 30
0.0
 11
117.7347239999999999
 21
115.275109999999998
 31
0.0
  0
LINE
  5
29A
100
AcDbEntity
100
AcDbLine
  8
FORT
 62
7
370
-1
  6
CONTINUOUS
 10
113.7347239999999999
 20
108.275109999999998
 30
0.0
 11
110.7347239999999999
 21
108.275109999999998
 31
0.0
  0
LINE
  5
29B
100
AcDbEntity
100
AcDbLine
  8
FORT
 62
7
370
-1
  6
CONTINUOUS
 10
99.7347239999999999
 20
59.275109999999998
 30
0.0
 11
99.7347239999999999
 21
105.275109999999998
 31
0.0
  0
LINE
  5
29C
100
AcDbEntity
100
AcDbLine
  8
FORT
 62
7
370
-1
  6
CONTINUOUS
 10
110.7347239999999999
 20
63.275109999999998
 30
0.0
 11
110.7347239999999999
 21
145.2751100000000122
 31
0.0
  0
LINE
  5
29D
100
AcDbEntity
100
AcDbLine
  8
FORT
 62
7
370
-1
  6
CONTINUOUS
 10
109.0347239999999971
 20
63.275109999999998
 30
0.0
 11
109.0347239999999971
 21
145.2751100000000122
 31
0.0
  0
LWPOLYLINE
  5
29E
  8
FORT
 62
7
370
-1
  6
CONTINUOUS
100
AcDbEntity
100
AcDbPolyline
 90
6
 70
1
 10
56.1588399999999979
 20
103.9952430000000021
 10
37.3486529999999988
 20
93.1351769999999988
 10
37.3486529999999988
 20
71.4150439999999946
 10
56.1588399999999979
 20
60.5549779999999984
 10
74.969026999999997
 20
71.4150439999999946
 10
74.969026999999997
 20
93.1351769999999988
  0
CIRCLE
  5
29F
100
AcDbEntity
100
AcDbCircle
  8
FORT
 62
7
370
-1
  6
CONTINUOUS
 10
56.1588399999999979
 20
82.275109999999998
 30
0.0
 40
23.0
  0
LINE
  5
2A0
100
AcDbEntity
100
AcDbLine
  8
FORT
 62
7
370
-1
  6
CONTINUOUS
 10
82.1588399999999979
 20
53.275109999999998
 30
0.0
 11
82.1588399999999979
 21
91.775109999999998
 31
0.0
  0
LINE
  5
2A1
100
AcDbEntity
100
AcDbLine
  8
FORT
 62
7
370
-1
  6
CONTINUOUS
 10
81.1588399999999979
 20
55.275109999999998
 30
0.0
 11
27.1588400000000014
 21
55.275109999999998
 31
0.0
  0
LINE
  5
2A2
100
AcDbEntity
100
AcDbLine
  8
FORT
 62
7
370
-1
  6
CONTINUOUS
 10
81.1588399999999979
 20
51.275109999999998
 30
0.0
 11
33.1588399999999979
 21
51.275109999999998
 31
0.0
  0
LINE
  5
2A3
100
AcDbEntity
100
AcDbLine
  8
FORT
 62
7
370
-1
  6
CONTINUOUS
 10
23.1588400000000014
 20
66.775109999999998
 30
0.0
 11
23.1588400000000014
 21
62.0751100000000022
 31
0.0
  0
LINE
  5
2A4
100
AcDbEntity
100
AcDbLine
  8
FORT
 62
7
370
-1
  6
CONTINUOUS
 10
27.1588400000000014
 20
55.775109999999998
 30
0.0
 11
23.1588400000000014
 21
55.775109999999998
 31
0.0
  0
LINE
  5
2A5
100
AcDbEntity
100
AcDbLine
  8
FORT
 62
7
370
-1
  6
CONTINUOUS
 10
25.1588400000000014
 20
62.0751100000000022
 30
0.0
 11
23.1588400000000014
 21
62.0751100000000022
 31
0.0
  0
LINE
  5
2A6
100
AcDbEntity
100
AcDbLine
  8
FORT
 62
7
370
-1
  6
CONTINUOUS
 10
25.1588400000000014
 20
60.4751100000000008
 30
0.0
 11
23.1588400000000014
 21
60.4751100000000008
 31
0.0
  0
LINE
  5
2A7
100
AcDbEntity
100
AcDbLine
  8
FORT
 62
7
370
-1
  6
CONTINUOUS
 10
23.1588400000000014
 20
60.4751100000000008
 30
0.0
 11
23.1588400000000014
 21
55.775109999999998
 31
0.0
  0
LINE
  5
2A8
100
AcDbEntity
100
AcDbLine
  8
FORT
 62
7
370
-1
  6
CONTINUOUS
 10
25.1588400000000014
 20
62.0751100000000022
 30
0.0
 11
25.1588400000000014
 21
60.4751100000000008
 31
0.0
  0
LINE
  5
2A9
100
AcDbEntity
100
AcDbLine
  8
FORT
 62
7
370
-1
  6
CONTINUOUS
 10
27.1588400000000014
 20
66.775109999999998
 30
0.0
 11
23.1588400000000014
 21
66.775109999999998
 31
0.0
  0
LINE
  5
2AA
100
AcDbEntity
100
AcDbLine
  8
FORT
 62
7
370
-1
  6
CONTINUOUS
 10
108.8065200000000061
 20
59.275109999999998
 30
0.0
 11
99.7347239999999999
 21
59.275109999999998
 31
0.0
  0
LINE
  5
2AB
100
AcDbEntity
100
AcDbLine
  8
FORT
 62
7
370
-1
  6
CONTINUOUS
 10
111.7347239999999999
 20
56.3469070000000016
 30
0.0
 11
111.7347239999999999
 21
51.275109999999998
 31
0.0
  0
LINE
  5
2AC
100
AcDbEntity
100
AcDbLine
  8
FORT
 62
7
370
-1
  6
CONTINUOUS
 10
81.1588399999999979
 20
59.275109999999998
 30
0.0
 11
56.1588399999999979
 21
59.275109999999998
 31
0.0
  0
LINE
  5
2AD
100
AcDbEntity
100
AcDbLine
  8
FORT
 62
7
370
-1
  6
CONTINUOUS
 10
82.1588399999999979
 20
53.275109999999998
 30
0.0
 11
81.1588399999999979
 21
53.275109999999998
 31
0.0
  0
CIRCLE
  5
2AE
100
AcDbEntity
100
AcDbCircle
  8
FORT
 62
7
370
-1
  6
CONTINUOUS
 10
56.1588399999999979
 20
82.275109999999998
 30
0.0
 40
10.0
  0
LINE
  5
2AF
100
AcDbEntity
100
AcDbLine
  8
FORT
 62
7
370
-1
  6
CONTINUOUS
 10
54.1588399999999979
 20
84.275109999999998
 30
0.0
 11
48.4128729999999976
 21
84.275109999999998
 31
0.0
  0
LINE
  5
2B0
100
AcDbEntity
100
AcDbLine
  8
FORT
 62
7
370
-1
  6
CONTINUOUS
 10
54.1588399999999979
 20
80.275109999999998
 30
0.0
 11
48.4128729999999976
 21
80.275109999999998
 31
0.0
  0
ARC
  5
2B1
100
AcDbEntity
  8
FORT
 62
7
370
-1
  6
CONTINUOUS
100
AcDbCircle
 10
56.1588399999999979
 20
82.275109999999998
 30
0.0
 40
8.0
100
AcDbArc
 50
165.5224880000000098
 51
194.4775119999999902
  0
LINE
  5
2B2
100
AcDbEntity
100
AcDbLine
  8
FORT
 62
7
370
-1
  6
CONTINUOUS
 10
107.7347239999999999
 20
105.275109999999998
 30
0.0
 11
99.7347239999999999
 21
105.275109999999998
 31
0.0
  0
ARC
  5
2B3
100
AcDbEntity
  8
FORT
 62
7
370
-1
  6
CONTINUOUS
100
AcDbCircle
 10
56.1588399999999979
 20
82.275109999999998
 30
0.0
 40
8.0
100
AcDbArc
 50
75.5224879999999956
 51
104.4775120000000044
  0
ARC
  5
2B4
100
AcDbEntity
  8
FORT
 62
7
370
-1
  6
CONTINUOUS
100
AcDbCircle
 10
56.1588399999999979
 20
82.275109999999998
 30
0.0
 40
8.0
100
AcDbArc
 50
255.5224880000000098
 51
284.4775119999999902
  0
LINE
  5
2B5
100
AcDbEntity
100
AcDbLine
  8
FORT
 62
7
370
-1
  6
CONTINUOUS
 10
54.1588399999999979
 20
84.275109999999998
 30
0.0
 11
54.1588399999999979
 21
90.0210770000000053
 31
0.0
  0
LINE
  5
2B6
100
AcDbEntity
100
AcDbLine
  8
FORT
 62
7
370
-1
  6
CONTINUOUS
 10
54.1588399999999979
 20
74.5291440000000023
 30
0.0
 11
54.1588399999999979
 21
80.275109999999998
 31
0.0
  0
LINE
  5
2B7
100
AcDbEntity
100
AcDbLine
  8
FORT
 62
7
370
-1
  6
CONTINUOUS
 10
81.1588399999999979
 20
105.275109999999998
 30
0.0
 11
56.1588399999999979
 21
105.275109999999998
 31
0.0
  0
LINE
  5
2B8
100
AcDbEntity
100
AcDbLine
  8
FORT
 62
7
370
-1
  6
CONTINUOUS
 10
82.1588399999999979
 20
91.775109999999998
 30
0.0
 11
81.1588399999999979
 21
91.775109999999998
 31
0.0
  0
ARC
  5
2B9
100
AcDbEntity
  8
FORT
 62
7
370
-1
  6
CONTINUOUS
100
AcDbCircle
 10
56.1588399999999979
 20
82.275109999999998
 30
0.0
 40
8.0
100
AcDbArc
 50
345.5224880000000098
 51
14.477511999999999
  0
LINE
  5
2BA
100
AcDbEntity
100
AcDbLine
  8
FORT
 62
7
370
-1
  6
CONTINUOUS
 10
58.1588399999999979
 20
84.275109999999998
 30
0.0
 11
58.1588399999999979
 21
90.0210770000000053
 31
0.0
  0
LINE
  5
2BB
100
AcDbEntity
100
AcDbLine
  8
FORT
 62
7
370
-1
  6
CONTINUOUS
 10
63.9048069999999981
 20
80.275109999999998
 30
0.0
 11
58.1588399999999979
 21
80.275109999999998
 31
0.0
  0
LINE
  5
2BC
100
AcDbEntity
100
AcDbLine
  8
FORT
 62
7
370
-1
  6
CONTINUOUS
 10
63.9048069999999981
 20
84.275109999999998
 30
0.0
 11
58.1588399999999979
 21
84.275109999999998
 31
0.0
  0
LINE
  5
2BD
100
AcDbEntity
100
AcDbLine
  8
FORT
 62
7
370
-1
  6
CONTINUOUS
 10
58.1588399999999979
 20
74.5291440000000023
 30
0.0
 11
58.1588399999999979
 21
80.275109999999998
 31
0.0
  0
LINE
  5
2BE
100
AcDbEntity
100
AcDbLine
  8
FORT
 62
7
370
-1
  6
CONTINUOUS
 10
149.7347239999999999
 20
67.275109999999998
 30
0.0
 11
149.7347239999999999
 21
94.275109999999998
 31
0.0
  0
LINE
  5
2BF
100
AcDbEntity
100
AcDbLine
  8
FORT
 62
7
370
-1
  6
CONTINUOUS
 10
169.7347239999999999
 20
94.275109999999998
 30
0.0
 11
169.7347239999999999
 21
67.275109999999998
 31
0.0
  0
LINE
  5
2C0
100
AcDbEntity
100
AcDbLine
  8
FORT
 62
7
370
-1
  6
CONTINUOUS
 10
207.7347239999999999
 20
66.275109999999998
 30
0.0
 11
207.7347239999999999
 21
98.275109999999998
 31
0.0
  0
CIRCLE
  5
2C1
100
AcDbEntity
100
AcDbCircle
  8
FORT
 62
7
370
-1
  6
CONTINUOUS
 10
159.7347239999999999
 20
77.775109999999998
 30
0.0
 40
8.0
  0
LINE
  5
2C2
100
AcDbEntity
100
AcDbLine
  8
FORT
 62
7
370
-1
  6
CONTINUOUS
 10
113.7347239999999999
 20
58.6925349999999995
 30
0.0
 11
113.7347239999999999
 21
108.275109999999998
 31
0.0
  0
LINE
  5
2C3
100
AcDbEntity
100
AcDbLine
  8
FORT
 62
7
370
-1
  6
CONTINUOUS
 10
205.7347239999999999
 20
58.6925349999999995
 30
0.0
 11
205.7347239999999999
 21
108.275109999999998
 31
0.0
  0
LINE
  5
2C4
100
AcDbEntity
100
AcDbLine
  8
FORT
 62
7
370
-1
  6
CONTINUOUS
 10
217.7347239999999999
 20
75.275109999999998
 30
0.0
 11
222.7347239999999999
 21
71.275109999999998
 31
0.0
  0
LINE
  5
2C5
100
AcDbEntity
100
AcDbLine
  8
FORT
 62
7
370
-1
  6
CONTINUOUS
 10
141.0262260000000083
 20
61.5751100000000022
 30
0.0
 11
178.4432209999999941
 21
61.5751100000000022
 31
0.0
  0
LINE
  5
2C6
100
AcDbEntity
100
AcDbLine
  8
FORT
 62
7
370
-1
  6
CONTINUOUS
 10
177.026520000000005
 20
63.275109999999998
 30
0.0
 11
142.4429269999999974
 21
63.275109999999998
 31
0.0
  0
LINE
  5
2C7
100
AcDbEntity
100
AcDbLine
  8
FORT
 62
7
370
-1
  6
CONTINUOUS
 10
203.7347239999999999
 20
55.275109999999998
 30
0.0
 11
166.7347239999999999
 21
55.275109999999998
 31
0.0
  0
LINE
  5
2C8
100
AcDbEntity
100
AcDbLine
  8
FORT
 62
7
370
-1
  6
CONTINUOUS
 10
169.7347239999999999
 20
67.275109999999998
 30
0.0
 11
149.7347239999999999
 21
67.275109999999998
 31
0.0
  0
LINE
  5
2C9
100
AcDbEntity
100
AcDbLine
  8
FORT
 62
7
370
-1
  6
CONTINUOUS
 10
169.7347239999999999
 20
69.275109999999998
 30
0.0
 11
149.7347239999999999
 21
69.275109999999998
 31
0.0
  0
LINE
  5
2CA
100
AcDbEntity
100
AcDbLine
  8
FORT
 62
7
370
-1
  6
CONTINUOUS
 10
159.7347239999999999
 20
54.6957939999999994
 30
0.0
 11
159.7347239999999999
 21
56.6957939999999994
 31
0.0
  0
LINE
  5
2CB
100
AcDbEntity
100
AcDbLine
  8
FORT
 62
7
370
-1
  6
CONTINUOUS
 10
150.3161120000000039
 20
48.3624610000000033
 30
0.0
 11
159.7347239999999999
 21
48.3624610000000033
 31
0.0
  0
LINE
  5
2CC
100
AcDbEntity
100
AcDbLine
  8
FORT
 62
7
370
-1
  6
CONTINUOUS
 10
159.7347239999999999
 20
48.3624610000000033
 30
0.0
 11
156.9347239999999886
 21
49.2957940000000008
 31
0.0
  0
LINE
  5
2CD
100
AcDbEntity
100
AcDbLine
  8
FORT
 62
7
370
-1
  6
CONTINUOUS
 10
159.7347239999999999
 20
57.6957939999999994
 30
0.0
 11
159.7347239999999999
 21
61.5751100000000022
 31
0.0
  0
LINE
  5
2CE
100
AcDbEntity
100
AcDbLine
  8
FORT
 62
7
370
-1
  6
CONTINUOUS
 10
159.7347239999999999
 20
48.3624610000000033
 30
0.0
 11
156.9347239999999886
 21
47.4291279999999986
 31
0.0
  0
LINE
  5
2CF
100
AcDbEntity
100
AcDbLine
  8
FORT
 62
7
370
-1
  6
CONTINUOUS
 10
159.7347239999999999
 20
43.6957939999999994
 30
0.0
 11
159.7347239999999999
 21
53.6957939999999994
 31
0.0
  0
LINE
  5
2D0
100
AcDbEntity
100
AcDbLine
  8
FORT
 62
7
370
-1
  6
CONTINUOUS
 10
126.7347239999999999
 20
58.275109999999998
 30
0.0
 11
115.7347239999999999
 21
58.275109999999998
 31
0.0
  0
LINE
  5
2D1
100
AcDbEntity
100
AcDbLine
  8
FORT
 62
7
370
-1
  6
CONTINUOUS
 10
115.7347239999999999
 20
56.5751100000000022
 30
0.0
 11
126.7347239999999999
 21
56.5751100000000022
 31
0.0
  0
LINE
  5
2D2
100
AcDbEntity
100
AcDbLine
  8
FORT
 62
7
370
-1
  6
CONTINUOUS
 10
130.4347239999999886
 20
61.275109999999998
 30
0.0
 11
130.4347239999999886
 21
60.275109999999998
 31
0.0
  0
ARC
  5
2D3
100
AcDbEntity
  8
FORT
 62
7
370
-1
  6
CONTINUOUS
100
AcDbCircle
 10
126.7347239999999999
 20
60.275109999999998
 30
0.0
 40
3.7000000000000002
100
AcDbArc
 50
270.0
 51
0.0
  0
ARC
  5
2D4
100
AcDbEntity
  8
FORT
 62
7
370
-1
  6
CONTINUOUS
100
AcDbCircle
 10
126.7347239999999999
 20
60.275109999999998
 30
0.0
 40
2.0
100
AcDbArc
 50
270.0
 51
0.0
  0
LINE
  5
2D5
100
AcDbEntity
100
AcDbLine
  8
FORT
 62
7
370
-1
  6
CONTINUOUS
 10
128.7347239999999999
 20
60.275109999999998
 30
0.0
 11
128.7347239999999999
 21
61.275109999999998
 31
0.0
  0
LINE
  5
2D6
100
AcDbEntity
100
AcDbLine
  8
FORT
 62
7
370
-1
  6
CONTINUOUS
 10
134.7347239999999999
 20
51.275109999999998
 30
0.0
 11
134.7347239999999999
 21
55.275109999999998
 31
0.0
  0
CIRCLE
  5
2D7
100
AcDbEntity
100
AcDbCircle
  8
FORT
 62
7
370
-1
  6
CONTINUOUS
 10
135.7347239999999999
 20
61.275109999999998
 30
0.0
 40
2.2000000000000002
  0
LINE
  5
2D8
100
AcDbEntity
100
AcDbLine
  8
FORT
 62
7
370
-1
  6
CONTINUOUS
 10
152.7347239999999999
 20
51.275109999999998
 30
0.0
 11
152.7347239999999999
 21
55.275109999999998
 31
0.0
  0
LINE
  5
2D9
100
AcDbEntity
100
AcDbLine
  8
FORT
 62
7
370
-1
  6
CONTINUOUS
 10
152.7347239999999999
 20
55.275109999999998
 30
0.0
 11
115.7347239999999999
 21
55.275109999999998
 31
0.0
  0
ARC
  5
2DA
100
AcDbEntity
  8
FIN
 62
5
370
-1
  6
CONTINUOUS
100
AcDbCircle
 10
135.7347239999999999
 20
61.275109999999998
 30
0.0
 40
3.0
100
AcDbArc
 50
180.0
 51
90.0
  0
ARC
  5
2DB
100
AcDbEntity
  8
FORT
 62
7
370
-1
  6
CONTINUOUS
100
AcDbCircle
 10
135.7347239999999999
 20
61.275109999999998
 30
0.0
 40
5.2999999999999998
100
AcDbArc
 50
3.2448920000000001
 51
180.0
  0
ARC
  5
2DC
100
AcDbEntity
  8
FORT
 62
7
370
-1
  6
CONTINUOUS
100
AcDbCircle
 10
135.7347239999999999
 20
61.275109999999998
 30
0.0
 40
7.0
100
AcDbArc
 50
16.6015499999999996
 51
180.0
  0
LINE
  5
2DD
100
AcDbEntity
100
AcDbLine
  8
FORT
 62
7
370
-1
  6
CONTINUOUS
 10
166.7347239999999999
 20
51.275109999999998
 30
0.0
 11
166.7347239999999999
 21
55.275109999999998
 31
0.0
  0
LINE
  5
2DE
100
AcDbEntity
100
AcDbLine
  8
FORT
 62
7
370
-1
  6
CONTINUOUS
 10
222.7347239999999999
 20
71.275109999999998
 30
0.0
 11
222.7347239999999999
 21
69.275109999999998
 31
0.0
  0
LWPOLYLINE
  5
2DF
  8
HACHURE
 62
5
370
-1
  6
CONTINUOUS
100
AcDbEntity
100
AcDbPolyline
 90
2
 70
1
 10
222.2347239999999999
 20
63.025109999999998
 42
0.9999999999999999
 10
219.7347239999999999
 20
63.025109999999998
 42
0.9999999999999999
  0
INSERT
  5
2E0
100
AcDbEntity
100
AcDbBlockReference
  8
HACHURE
 62
256
370
-1
  6
ByLayer
  2
DESENS-G2
 10
0.0
 20
0.0
 30
0.0
  0
CIRCLE
  5
2E1
100
AcDbEntity
100
AcDbCircle
  8
FORT
 62
7
370
-1
  6
CONTINUOUS
 10
220.9847239999999999
 20
63.025109999999998
 30
0.0
 40
1.25
  0
LINE
  5
2E2
100
AcDbEntity
100
AcDbLine
  8
FORT
 62
7
370
-1
  6
CONTINUOUS
 10
222.2347239999999999
 20
61.775109999999998
 30
0.0
 11
219.7347239999999999
 21
61.775109999999998
 31
0.0
  0
LINE
  5
2E3
100
AcDbEntity
100
AcDbLine
  8
FORT
 62
7
370
-1
  6
CONTINUOUS
 10
207.7347239999999999
 20
69.275109999999998
 30
0.0
 11
222.7347239999999999
 21
69.275109999999998
 31
0.0
  0
LINE
  5
2E4
100
AcDbEntity
100
AcDbLine
  8
FORT
 62
7
370
-1
  6
CONTINUOUS
 10
222.2347239999999999
 20
64.275109999999998
 30
0.0
 11
211.7347239999999999
 21
64.275109999999998
 31
0.0
  0
LINE
  5
2E5
100
AcDbEntity
100
AcDbLine
  8
FORT
 62
7
370
-1
  6
CONTINUOUS
 10
223.7347239999999999
 20
59.275109999999998
 30
0.0
 11
210.6629269999999963
 21
59.275109999999998
 31
0.0
  0
LWPOLYLINE
  5
2E6
  8
HACHURE
 62
5
370
-1
  6
CONTINUOUS
100
AcDbEntity
100
AcDbPolyline
 90
13
 70
1
 10
219.7347239999999999
 20
64.275109999999998
 10
211.7347239999999999
 20
64.275109999999998
 10
209.7347239999999999
 20
66.275109999999998
 10
205.7347239999999999
 20
66.275109999999998
 10
205.7347239999999999
 20
58.6925349999999995
 42
-0.1032439999999997
 10
203.7347239999999999
 20
58.2751100000000051
 10
198.2958989999999915
 20
58.275109999999998
 10
198.4664820000000134
 20
57.3578800000000015
 10
197.9978240000000085
 20
56.5751100000000022
 10
198.2200840000000142
 20
55.275109999999998
 10
203.7347239999999999
 20
55.275109999999998
 42
0.2679489999999997
 10
210.6629269999999963
 20
59.275109999999998
 10
219.7347239999999999
 20
59.275109999999998
  0
INSERT
  5
2E7
100
AcDbEntity
100
AcDbBlockReference
  8
HACHURE
 62
256
370
-1
  6
ByLayer
  2
DESENS-G3
 10
0.0
 20
0.0
 30
0.0
  0
LWPOLYLINE
  5
2E8
  8
HACHURE
 62
5
370
-1
  6
CONTINUOUS
100
AcDbEntity
100
AcDbPolyline
 90
4
 70
0
 10
198.2958989999999915
 20
58.275109999999998
 10
198.4664820000000134
 20
57.3578800000000015
 10
197.9978240000000085
 20
56.5751100000000022
 10
198.2200840000000142
 20
55.275109999999998
  0
LINE
  5
2E9
100
AcDbEntity
100
AcDbLine
  8
FORT
 62
7
370
-1
  6
CONTINUOUS
 10
219.7347239999999999
 20
59.275109999999998
 30
0.0
 11
219.7347239999999999
 21
64.275109999999998
 31
0.0
  0
LINE
  5
2EA
100
AcDbEntity
100
AcDbLine
  8
FORT
 62
7
370
-1
  6
CONTINUOUS
 10
183.7347239999999999
 20
68.275109999999998
 30
0.0
 11
205.7347239999999999
 21
68.275109999999998
 31
0.0
  0
LINE
  5
2EB
100
AcDbEntity
100
AcDbLine
  8
FORT
 62
7
370
-1
  6
CONTINUOUS
 10
209.7347239999999999
 20
66.275109999999998
 30
0.0
 11
205.7347239999999999
 21
66.275109999999998
 31
0.0
  0
LINE
  5
2EC
100
AcDbEntity
100
AcDbLine
  8
FORT
 62
7
370
-1
  6
CONTINUOUS
 10
190.7347239999999999
 20
61.275109999999998
 30
0.0
 11
205.7347239999999999
 21
61.275109999999998
 31
0.0
  0
ARC
  5
2ED
100
AcDbEntity
  8
FORT
 62
7
370
-1
  6
CONTINUOUS
100
AcDbCircle
 10
192.7347239999999999
 20
60.275109999999998
 30
0.0
 40
3.7000000000000002
100
AcDbArc
 50
180.0
 51
270.0
  0
LINE
  5
2EE
100
AcDbEntity
100
AcDbLine
  8
FORT
 62
7
370
-1
  6
CONTINUOUS
 10
189.0347240000000113
 20
61.275109999999998
 30
0.0
 11
189.0347240000000113
 21
60.275109999999998
 31
0.0
  0
ARC
  5
2EF
100
AcDbEntity
  8
FORT
 62
7
370
-1
  6
CONTINUOUS
100
AcDbCircle
 10
192.7347239999999999
 20
60.275109999999998
 30
0.0
 40
2.0
100
AcDbArc
 50
180.0
 51
270.0
  0
LINE
  5
2F0
100
AcDbEntity
100
AcDbLine
  8
FORT
 62
7
370
-1
  6
CONTINUOUS
 10
190.7347239999999999
 20
61.275109999999998
 30
0.0
 11
190.7347239999999999
 21
60.275109999999998
 31
0.0
  0
ARC
  5
2F1
100
AcDbEntity
  8
FIN
 62
5
370
-1
  6
CONTINUOUS
100
AcDbCircle
 10
183.7347239999999999
 20
61.275109999999998
 30
0.0
 40
3.0
100
AcDbArc
 50
180.0
 51
90.0
  0
CIRCLE
  5
2F2
100
AcDbEntity
100
AcDbCircle
  8
FORT
 62
7
370
-1
  6
CONTINUOUS
 10
183.7347239999999999
 20
61.275109999999998
 30
0.0
 40
2.2000000000000002
  0
LINE
  5
2F3
100
AcDbEntity
100
AcDbLine
  8
FORT
 62
7
370
-1
  6
CONTINUOUS
 10
184.7347239999999999
 20
51.275109999999998
 30
0.0
 11
184.7347239999999999
 21
55.275109999999998
 31
0.0
  0
LINE
  5
2F4
100
AcDbEntity
100
AcDbLine
  8
FIN
 62
5
370
-1
  6
CONTINUOUS
 10
211.7347239999999999
 20
64.275109999999998
 30
0.0
 11
205.7347239999999999
 21
64.275109999999998
 31
0.0
  0
ARC
  5
2F5
100
AcDbEntity
  8
FORT
 62
7
370
-1
  6
CONTINUOUS
100
AcDbCircle
 10
203.7347239999999999
 20
63.275109999999998
 30
0.0
 40
5.0
100
AcDbArc
 50
270.0
 51
293.5781779999999799
  0
ARC
  5
2F6
100
AcDbEntity
  8
FORT
 62
7
370
-1
  6
CONTINUOUS
100
AcDbCircle
 10
203.7347239999999999
 20
63.275109999999998
 30
0.0
 40
8.0
100
AcDbArc
 50
270.0
 51
330.0
  0
LINE
  5
2F7
100
AcDbEntity
100
AcDbLine
  8
FORT
 62
7
370
-1
  6
CONTINUOUS
 10
197.9978240000000085
 20
56.5751100000000022
 30
0.0
 11
192.7347239999999999
 21
56.5751100000000022
 31
0.0
  0
LINE
  5
2F8
100
AcDbEntity
100
AcDbLine
  8
FORT
 62
7
370
-1
  6
CONTINUOUS
 10
203.7347239999999999
 20
58.275109999999998
 30
0.0
 11
192.7347239999999999
 21
58.275109999999998
 31
0.0
  0
LINE
  5
2F9
100
AcDbEntity
100
AcDbLine
  8
FORT
 62
7
370
-1
  6
CONTINUOUS
 10
211.7347239999999999
 20
64.275109999999998
 30
0.0
 11
209.7347239999999999
 21
66.275109999999998
 31
0.0
  0
ARC
  5
2FA
100
AcDbEntity
  8
FORT
 62
7
370
-1
  6
CONTINUOUS
100
AcDbCircle
 10
183.7347239999999999
 20
61.275109999999998
 30
0.0
 40
5.2999999999999998
100
AcDbArc
 50
0.0
 51
176.755108000000007
  0
ARC
  5
2FB
100
AcDbEntity
  8
FORT
 62
7
370
-1
  6
CONTINUOUS
100
AcDbCircle
 10
183.7347239999999999
 20
61.275109999999998
 30
0.0
 40
7.0
100
AcDbArc
 50
0.0
 51
163.3984499999999969
  0
LINE
  5
2FC
100
AcDbEntity
100
AcDbLine
  8
FIN
 62
5
370
-1
  6
CONTINUOUS
 10
219.7347239999999999
 20
66.275109999999998
 30
0.0
 11
209.7347239999999999
 21
66.275109999999998
 31
0.0
  0
LINE
  5
2FD
100
AcDbEntity
100
AcDbLine
  8
FORT
 62
7
370
-1
  6
CONTINUOUS
 10
222.2347239999999999
 20
64.275109999999998
 30
0.0
 11
222.2347239999999999
 21
61.775109999999998
 31
0.0
  0
LINE
  5
2FE
100
AcDbEntity
100
AcDbLine
  8
FORT
 62
7
370
-1
  6
CONTINUOUS
 10
223.7347239999999999
 20
59.275109999999998
 30
0.0
 11
223.7347239999999999
 21
60.5549779999999984
 31
0.0
  0
LINE
  5
2FF
100
AcDbEntity
100
AcDbLine
  8
FORT
 62
7
370
-1
  6
CONTINUOUS
 10
223.7347239999999999
 20
60.5549779999999984
 30
0.0
 11
230.7347239999999999
 21
60.5549779999999984
 31
0.0
  0
LINE
  5
300
100
AcDbEntity
100
AcDbLine
  8
FORT
 62
7
370
-1
  6
CONTINUOUS
 10
176.7347239999999999
 20
144.2751100000000122
 30
0.0
 11
142.7347239999999999
 21
144.2751100000000122
 31
0.0
  0
LINE
  5
301
100
AcDbEntity
100
AcDbLine
  8
FORT
 62
7
370
-1
  6
CONTINUOUS
 10
176.7347239999999999
 20
147.2751100000000122
 30
0.0
 11
142.7347239999999999
 21
147.2751100000000122
 31
0.0
  0
ARC
  5
302
100
AcDbEntity
  8
FORT
 62
7
370
-1
  6
CONTINUOUS
100
AcDbCircle
 10
117.7347239999999999
 20
105.275109999999998
 30
0.0
 40
10.0
100
AcDbArc
 50
270.0
 51
90.0
  0
LINE
  5
303
100
AcDbEntity
100
AcDbLine
  8
FORT
 62
7
370
-1
  6
CONTINUOUS
 10
167.6719769999999983
 20
76.775109999999998
 30
0.0
 11
151.7974700000000041
 21
76.775109999999998
 31
0.0
  0
LINE
  5
304
100
AcDbEntity
100
AcDbLine
  8
FORT
 62
7
370
-1
  6
CONTINUOUS
 10
167.6719769999999983
 20
78.775109999999998
 30
0.0
 11
151.7974700000000041
 21
78.775109999999998
 31
0.0
  0
LINE
  5
305
100
AcDbEntity
100
AcDbLine
  8
FORT
 62
7
370
-1
  6
CONTINUOUS
 10
169.7347239999999999
 20
86.275109999999998
 30
0.0
 11
149.7347239999999999
 21
86.275109999999998
 31
0.0
  0
LINE
  5
306
100
AcDbEntity
100
AcDbLine
  8
FORT
 62
7
370
-1
  6
CONTINUOUS
 10
169.7347239999999999
 20
88.275109999999998
 30
0.0
 11
149.7347239999999999
 21
88.275109999999998
 31
0.0
  0
LINE
  5
307
100
AcDbEntity
100
AcDbLine
  8
FORT
 62
7
370
-1
  6
CONTINUOUS
 10
169.7347239999999999
 20
94.275109999999998
 30
0.0
 11
149.7347239999999999
 21
94.275109999999998
 31
0.0
  0
LINE
  5
308
100
AcDbEntity
100
AcDbLine
  8
FORT
 62
7
370
-1
  6
CONTINUOUS
 10
113.7347239999999999
 20
95.275109999999998
 30
0.0
 11
117.7347239999999999
 21
95.275109999999998
 31
0.0
  0
LINE
  5
309
100
AcDbEntity
100
AcDbLine
  8
FORT
 62
7
370
-1
  6
CONTINUOUS
 10
134.1498200000000054
 20
74.6436790000000059
 30
0.0
 11
137.1498200000000054
 21
74.6436790000000059
 31
0.0
  0
LINE
  5
30A
100
AcDbEntity
100
AcDbLine
  8
FORT
 62
7
370
-1
  6
CONTINUOUS
 10
132.6498200000000054
 20
76.443679000000003
 30
0.0
 11
138.6498200000000054
 21
76.443679000000003
 31
0.0
  0
LINE
  5
30B
100
AcDbEntity
100
AcDbLine
  8
FORT
 62
7
370
-1
  6
CONTINUOUS
 10
131.1498200000000054
 20
78.2436790000000002
 30
0.0
 11
140.1498200000000054
 21
78.2436790000000002
 31
0.0
  0
LINE
  5
30C
100
AcDbEntity
100
AcDbLine
  8
FORT
 62
7
370
-1
  6
CONTINUOUS
 10
129.6498200000000054
 20
80.0436789999999974
 30
0.0
 11
141.6498200000000054
 21
80.0436789999999974
 31
0.0
  0
LINE
  5
30D
100
AcDbEntity
100
AcDbLine
  8
FORT
 62
7
370
-1
  6
CONTINUOUS
 10
135.6498200000000054
 20
80.0436789999999974
 30
0.0
 11
135.6498200000000054
 21
85.443679000000003
 31
0.0
  0
ARC
  5
30E
100
AcDbEntity
  8
FIN
 62
5
370
-1
  6
CONTINUOUS
100
AcDbCircle
 10
118.7347239999999999
 20
143.2751100000000122
 30
0.0
 40
5.0
100
AcDbArc
 50
90.0
 51
180.0
  0
LINE
  5
30F
100
AcDbEntity
100
AcDbLine
  8
FORT
 62
7
370
-1
  6
CONTINUOUS
 10
142.7347239999999999
 20
144.2751100000000122
 30
0.0
 11
142.7347239999999999
 21
147.2751100000000122
 31
0.0
  0
ARC
  5
310
100
AcDbEntity
  8
FIN
 62
5
370
-1
  6
CONTINUOUS
100
AcDbCircle
 10
136.9347239999999886
 20
143.2751100000000122
 30
0.0
 40
5.0
100
AcDbArc
 50
0.0
 51
90.0
  0
ARC
  5
311
100
AcDbEntity
  8
FORT
 62
7
370
-1
  6
CONTINUOUS
100
AcDbCircle
 10
134.7347239999999999
 20
131.2751100000000122
 30
0.0
 40
10.0
100
AcDbArc
 50
180.0
 51
0.0
  0
LINE
  5
312
100
AcDbEntity
100
AcDbLine
  8
FORT
 62
7
370
-1
  6
CONTINUOUS
 10
113.7347239999999999
 20
145.2751100000000122
 30
0.0
 11
113.7347239999999999
 21
139.2751100000000122
 31
0.0
  0
LINE
  5
313
100
AcDbEntity
100
AcDbLine
  8
FORT
 62
7
370
-1
  6
CONTINUOUS
 10
144.7347239999999999
 20
144.2751100000000122
 30
0.0
 11
144.7347239999999999
 21
131.2751100000000122
 31
0.0
  0
LWPOLYLINE
  5
314
  8
HACHURE
 62
5
370
-1
  6
CONTINUOUS
100
AcDbEntity
100
AcDbPolyline
 90
12
 70
1
 10
219.7347239999999999
 20
105.275109999999998
 10
211.7347239999999999
 20
105.275109999999998
 10
211.7347239999999999
 20
112.3293570000000017
 10
210.4347239999999886
 20
112.6697499999999934
 10
209.666560000000004
 20
112.3293570000000017
 10
208.7347239999999999
 20
112.6078600000000023
 10
208.7347239999999999
 20
108.275109999999998
 10
205.7347239999999999
 20
108.275109999999998
 10
205.7347239999999999
 20
98.275109999999998
 10
209.7347239999999999
 20
98.275109999999998
 10
211.7347239999999999
 20
100.275109999999998
 10
219.7347239999999999
 20
100.275109999999998
  0
INSERT
  5
315
100
AcDbEntity
100
AcDbBlockReference
  8
HACHURE
 62
256
370
-1
  6
ByLayer
  2
DESENS-G4
 10
0.0
 20
0.0
 30
0.0
  0
ARC
  5
316
100
AcDbEntity
  8
FORT
 62
7
370
-1
  6
CONTINUOUS
100
AcDbCircle
 10
201.7347239999999999
 20
105.275109999999998
 30
0.0
 40
10.0
100
AcDbArc
 50
90.0
 51
270.0
  0
LINE
  5
317
100
AcDbEntity
100
AcDbLine
  8
FORT
 62
7
370
-1
  6
CONTINUOUS
 10
208.7347239999999999
 20
108.275109999999998
 30
0.0
 11
208.7347239999999999
 21
145.2751100000000122
 31
0.0
  0
LWPOLYLINE
  5
318
  8
HACHURE
 62
5
370
-1
  6
CONTINUOUS
100
AcDbEntity
100
AcDbPolyline
 90
2
 70
1
 10
219.7347239999999999
 20
101.525109999999998
 42
0.9999999999999999
 10
222.2347239999999999
 20
101.525109999999998
 42
0.9999999999999999
  0
INSERT
  5
319
100
AcDbEntity
100
AcDbBlockReference
  8
HACHURE
 62
256
370
-1
  6
ByLayer
  2
DESENS-G5
 10
0.0
 20
0.0
 30
0.0
  0
CIRCLE
  5
31A
100
AcDbEntity
100
AcDbCircle
  8
FORT
 62
7
370
-1
  6
CONTINUOUS
 10
220.9847239999999999
 20
101.525109999999998
 30
0.0
 40
1.25
  0
LINE
  5
31B
100
AcDbEntity
100
AcDbLine
  8
FORT
 62
7
370
-1
  6
CONTINUOUS
 10
222.2347239999999999
 20
102.775109999999998
 30
0.0
 11
219.7347239999999999
 21
102.775109999999998
 31
0.0
  0
LINE
  5
31C
100
AcDbEntity
100
AcDbLine
  8
FORT
 62
7
370
-1
  6
CONTINUOUS
 10
217.7347239999999999
 20
89.275109999999998
 30
0.0
 11
222.7347239999999999
 21
93.275109999999998
 31
0.0
  0
LINE
  5
31D
100
AcDbEntity
100
AcDbLine
  8
FORT
 62
7
370
-1
  6
CONTINUOUS
 10
223.7347239999999999
 20
105.275109999999998
 30
0.0
 11
211.7347239999999999
 21
105.275109999999998
 31
0.0
  0
LINE
  5
31E
100
AcDbEntity
100
AcDbLine
  8
FORT
 62
7
370
-1
  6
CONTINUOUS
 10
222.2347239999999999
 20
100.275109999999998
 30
0.0
 11
211.7347239999999999
 21
100.275109999999998
 31
0.0
  0
LINE
  5
31F
100
AcDbEntity
100
AcDbLine
  8
FORT
 62
7
370
-1
  6
CONTINUOUS
 10
207.7347239999999999
 20
95.275109999999998
 30
0.0
 11
222.7347239999999999
 21
95.275109999999998
 31
0.0
  0
LINE
  5
320
100
AcDbEntity
100
AcDbLine
  8
FORT
 62
7
370
-1
  6
CONTINUOUS
 10
217.7347239999999999
 20
89.275109999999998
 30
0.0
 11
217.7347239999999999
 21
75.275109999999998
 31
0.0
  0
LINE
  5
321
100
AcDbEntity
100
AcDbLine
  8
FORT
 62
7
370
-1
  6
CONTINUOUS
 10
219.7347239999999999
 20
100.275109999999998
 30
0.0
 11
219.7347239999999999
 21
105.275109999999998
 31
0.0
  0
LINE
  5
322
100
AcDbEntity
100
AcDbLine
  8
FIN
 62
5
370
-1
  6
CONTINUOUS
 10
211.7347239999999999
 20
100.275109999999998
 30
0.0
 11
205.7347239999999999
 21
100.275109999999998
 31
0.0
  0
LINE
  5
323
100
AcDbEntity
100
AcDbLine
  8
FORT
 62
7
370
-1
  6
CONTINUOUS
 10
209.7347239999999999
 20
98.275109999999998
 30
0.0
 11
205.7347239999999999
 21
98.275109999999998
 31
0.0
  0
LINE
  5
324
100
AcDbEntity
100
AcDbLine
  8
FORT
 62
7
370
-1
  6
CONTINUOUS
 10
211.7347239999999999
 20
100.275109999999998
 30
0.0
 11
209.7347239999999999
 21
98.275109999999998
 31
0.0
  0
LINE
  5
325
100
AcDbEntity
100
AcDbLine
  8
FORT
 62
7
370
-1
  6
CONTINUOUS
 10
205.7347239999999999
 20
95.275109999999998
 30
0.0
 11
201.7347239999999999
 21
95.275109999999998
 31
0.0
  0
LINE
  5
326
100
AcDbEntity
100
AcDbLine
  8
FIN
 62
5
370
-1
  6
CONTINUOUS
 10
209.7347239999999999
 20
98.275109999999998
 30
0.0
 11
219.7347239999999999
 21
98.275109999999998
 31
0.0
  0
LINE
  5
327
100
AcDbEntity
100
AcDbLine
  8
FORT
 62
7
370
-1
  6
CONTINUOUS
 10
223.7347239999999999
 20
103.9952430000000021
 30
0.0
 11
223.7347239999999999
 21
105.275109999999998
 31
0.0
  0
LINE
  5
328
100
AcDbEntity
100
AcDbLine
  8
FORT
 62
7
370
-1
  6
CONTINUOUS
 10
223.7347239999999999
 20
103.9952430000000021
 30
0.0
 11
230.7347239999999999
 21
103.9952430000000021
 31
0.0
  0
LINE
  5
329
100
AcDbEntity
100
AcDbLine
  8
FORT
 62
7
370
-1
  6
CONTINUOUS
 10
222.2347239999999999
 20
100.275109999999998
 30
0.0
 11
222.2347239999999999
 21
102.775109999999998
 31
0.0
  0
LINE
  5
32A
100
AcDbEntity
100
AcDbLine
  8
FORT
 62
7
370
-1
  6
CONTINUOUS
 10
222.7347239999999999
 20
93.275109999999998
 30
0.0
 11
222.7347239999999999
 21
95.275109999999998
 31
0.0
  0
LINE
  5
32B
100
AcDbEntity
100
AcDbLine
  8
FORT
 62
7
370
-1
  6
CONTINUOUS
 10
222.7347239999999999
 20
93.275109999999998
 30
0.0
 11
222.7347239999999999
 21
95.275109999999998
 31
0.0
  0
LINE
  5
32C
100
AcDbEntity
100
AcDbLine
  8
FORT
 62
7
370
-1
  6
CONTINUOUS
 10
223.7347239999999999
 20
74.275109999999998
 30
0.0
 11
223.7347239999999999
 21
90.275109999999998
 31
0.0
  0
LINE
  5
32D
100
AcDbEntity
100
AcDbLine
  8
FORT
 62
7
370
-1
  6
CONTINUOUS
 10
208.7347239999999999
 20
108.275109999999998
 30
0.0
 11
205.7347239999999999
 21
108.275109999999998
 31
0.0
  0
CIRCLE
  5
32E
100
AcDbEntity
100
AcDbCircle
  8
FORT
 62
7
370
-1
  6
CONTINUOUS
 10
220.9847239999999999
 20
101.525109999999998
 30
0.0
 40
0.25
  0
CIRCLE
  5
32F
100
AcDbEntity
100
AcDbCircle
  8
FORT
 62
7
370
-1
  6
CONTINUOUS
 10
227.4434620000000109
 20
97.7800589999999943
 30
0.0
 40
0.25
  0
ARC
  5
330
100
AcDbEntity
  8
FIN
 62
5
370
-1
  6
CONTINUOUS
100
AcDbCircle
 10
182.5347240000000113
 20
143.2751100000000122
 30
0.0
 40
5.0
100
AcDbArc
 50
90.0
 51
180.0
  0
LINE
  5
331
100
AcDbEntity
100
AcDbLine
  8
FORT
 62
7
370
-1
  6
CONTINUOUS
 10
176.7347239999999999
 20
147.2751100000000122
 30
0.0
 11
176.7347239999999999
 21
144.2751100000000122
 31
0.0
  0
ARC
  5
332
100
AcDbEntity
  8
FIN
 62
5
370
-1
  6
CONTINUOUS
100
AcDbCircle
 10
200.7347239999999999
 20
143.2751100000000122
 30
0.0
 40
5.0
100
AcDbArc
 50
0.0
 51
90.0
  0
LWPOLYLINE
  5
333
  8
HACHURE
 62
5
370
-1
  6
CONTINUOUS
100
AcDbEntity
100
AcDbPolyline
 90
4
 70
0
 10
208.7347239999999999
 20
112.6078600000000023
 10
209.666560000000004
 20
112.3293570000000017
 10
210.4347239999999886
 20
112.6697499999999934
 10
211.7347239999999999
 20
112.3293570000000017
  0
LINE
  5
334
100
AcDbEntity
100
AcDbLine
  8
FORT
 62
7
370
-1
  6
CONTINUOUS
 10
210.4347239999999886
 20
112.6697499999999934
 30
0.0
 11
210.4347239999999886
 21
145.2751100000000122
 31
0.0
  0
LINE
  5
335
100
AcDbEntity
100
AcDbLine
  8
FORT
 62
7
370
-1
  6
CONTINUOUS
 10
208.7347239999999999
 20
145.2751100000000122
 30
0.0
 11
205.7347239999999999
 21
145.2751100000000122
 31
0.0
  0
ARC
  5
336
100
AcDbEntity
  8
FORT
 62
7
370
-1
  6
CONTINUOUS
100
AcDbCircle
 10
184.7347239999999999
 20
131.2751100000000122
 30
0.0
 40
10.0
100
AcDbArc
 50
180.0
 51
0.0
  0
LINE
  5
337
100
AcDbEntity
100
AcDbLine
  8
FORT
 62
7
370
-1
  6
CONTINUOUS
 10
208.7347239999999999
 20
139.2751100000000122
 30
0.0
 11
205.7347239999999999
 21
139.2751100000000122
 31
0.0
  0
LINE
  5
338
100
AcDbEntity
100
AcDbLine
  8
FORT
 62
7
370
-1
  6
CONTINUOUS
 10
208.7347239999999999
 20
115.275109999999998
 30
0.0
 11
201.7347239999999999
 21
115.275109999999998
 31
0.0
  0
LINE
  5
339
100
AcDbEntity
100
AcDbLine
  8
FORT
 62
7
370
-1
  6
CONTINUOUS
 10
174.7347239999999999
 20
131.2751100000000122
 30
0.0
 11
174.7347239999999999
 21
144.2751100000000122
 31
0.0
  0
LINE
  5
33A
100
AcDbEntity
100
AcDbLine
  8
FORT
 62
7
370
-1
  6
CONTINUOUS
 10
205.7347239999999999
 20
139.2751100000000122
 30
0.0
 11
205.7347239999999999
 21
145.2751100000000122
 31
0.0
  0
LINE
  5
33B
100
AcDbEntity
100
AcDbLine
  8
FIN
 62
5
370
-1
  6
CONTINUOUS
 10
200.7347239999999999
 20
148.2751100000000122
 30
0.0
 11
182.5347240000000113
 21
148.2751100000000122
 31
0.0
  0
ARC
  5
33C
100
AcDbEntity
  8
FORT
 62
7
370
-1
  6
CONTINUOUS
100
AcDbCircle
 10
115.7347239999999999
 20
171.2751100000000122
 30
0.0
 40
8.0
100
AcDbArc
 50
90.0
 51
180.0
  0
LINE
  5
33D
100
AcDbEntity
100
AcDbLine
  8
FORT
 62
7
370
-1
  6
CONTINUOUS
 10
72.1588399999999979
 20
219.2751100000000122
 30
0.0
 11
72.1588399999999979
 21
228.2751100000000122
 31
0.0
  0
LINE
  5
33E
100
AcDbEntity
100
AcDbLine
  8
FORT
 62
7
370
-1
  6
CONTINUOUS
 10
36.1588399999999979
 20
228.2751100000000122
 30
0.0
 11
36.1588399999999979
 21
219.2751100000000122
 31
0.0
  0
LINE
  5
33F
100
AcDbEntity
100
AcDbLine
  8
FORT
 62
7
370
-1
  6
CONTINUOUS
 10
70.1588399999999979
 20
153.2751100000000122
 30
0.0
 11
27.1588400000000014
 21
153.2751100000000122
 31
0.0
  0
LINE
  5
340
100
AcDbEntity
100
AcDbLine
  8
FORT
 62
7
370
-1
  6
CONTINUOUS
 10
81.1588399999999979
 20
215.2751100000000122
 30
0.0
 11
27.1588400000000014
 21
215.2751100000000122
 31
0.0
  0
LINE
  5
341
100
AcDbEntity
100
AcDbLine
  8
FORT
 62
7
370
-1
  6
CONTINUOUS
 10
81.1588399999999979
 20
213.2751100000000122
 30
0.0
 11
27.1588400000000014
 21
213.2751100000000122
 31
0.0
  0
LINE
  5
342
100
AcDbEntity
100
AcDbLine
  8
FORT
 62
7
370
-1
  6
CONTINUOUS
 10
81.1588399999999979
 20
180.2751100000000122
 30
0.0
 11
27.1588400000000014
 21
180.2751100000000122
 31
0.0
  0
LINE
  5
343
100
AcDbEntity
100
AcDbLine
  8
FORT
 62
7
370
-1
  6
CONTINUOUS
 10
25.1588400000000014
 20
157.0751099999999951
 30
0.0
 11
25.1588400000000014
 21
155.4751100000000008
 31
0.0
  0
LINE
  5
344
100
AcDbEntity
100
AcDbLine
  8
FORT
 62
7
370
-1
  6
CONTINUOUS
 10
27.1588400000000014
 20
150.7751100000000122
 30
0.0
 11
23.1588400000000014
 21
150.7751100000000122
 31
0.0
  0
LINE
  5
345
100
AcDbEntity
100
AcDbLine
  8
FORT
 62
7
370
-1
  6
CONTINUOUS
 10
25.1588400000000014
 20
155.4751100000000008
 30
0.0
 11
23.1588400000000014
 21
155.4751100000000008
 31
0.0
  0
LINE
  5
346
100
AcDbEntity
100
AcDbLine
  8
FORT
 62
7
370
-1
  6
CONTINUOUS
 10
23.1588400000000014
 20
155.4751100000000008
 30
0.0
 11
23.1588400000000014
 21
150.7751100000000122
 31
0.0
  0
LINE
  5
347
100
AcDbEntity
100
AcDbLine
  8
FORT
 62
7
370
-1
  6
CONTINUOUS
 10
33.1588399999999979
 20
162.2751100000000122
 30
0.0
 11
27.1588400000000014
 21
162.2751100000000122
 31
0.0
  0
LINE
  5
348
100
AcDbEntity
100
AcDbLine
  8
FORT
 62
7
370
-1
  6
CONTINUOUS
 10
23.1588400000000014
 20
161.7751100000000122
 30
0.0
 11
23.1588400000000014
 21
157.0751099999999951
 31
0.0
  0
LINE
  5
349
100
AcDbEntity
100
AcDbLine
  8
FORT
 62
7
370
-1
  6
CONTINUOUS
 10
25.1588400000000014
 20
157.0751099999999951
 30
0.0
 11
23.1588400000000014
 21
157.0751099999999951
 31
0.0
  0
LINE
  5
34A
100
AcDbEntity
100
AcDbLine
  8
FORT
 62
7
370
-1
  6
CONTINUOUS
 10
27.1588400000000014
 20
161.7751100000000122
 30
0.0
 11
23.1588400000000014
 21
161.7751100000000122
 31
0.0
  0
LINE
  5
34B
100
AcDbEntity
100
AcDbLine
  8
FORT
 62
7
370
-1
  6
CONTINUOUS
 10
39.6588399999999979
 20
215.2751100000000122
 30
0.0
 11
39.6588399999999979
 21
219.2751100000000122
 31
0.0
  0
LINE
  5
34C
100
AcDbEntity
100
AcDbLine
  8
FORT
 62
7
370
-1
  6
CONTINUOUS
 10
34.9588400000000021
 20
217.2751100000000122
 30
0.0
 11
34.9588400000000021
 21
219.2751100000000122
 31
0.0
  0
LINE
  5
34D
100
AcDbEntity
100
AcDbLine
  8
FORT
 62
7
370
-1
  6
CONTINUOUS
 10
28.6588400000000014
 20
215.2751100000000122
 30
0.0
 11
28.6588400000000014
 21
219.2751100000000122
 31
0.0
  0
LINE
  5
34E
100
AcDbEntity
100
AcDbLine
  8
FORT
 62
7
370
-1
  6
CONTINUOUS
 10
33.3588400000000007
 20
217.2751100000000122
 30
0.0
 11
33.3588400000000007
 21
219.2751100000000122
 31
0.0
  0
LINE
  5
34F
100
AcDbEntity
100
AcDbLine
  8
FORT
 62
7
370
-1
  6
CONTINUOUS
 10
34.9588400000000021
 20
217.2751100000000122
 30
0.0
 11
33.3588400000000007
 21
217.2751100000000122
 31
0.0
  0
LINE
  5
350
100
AcDbEntity
100
AcDbLine
  8
FORT
 62
7
370
-1
  6
CONTINUOUS
 10
39.6588399999999979
 20
219.2751100000000122
 30
0.0
 11
34.9588400000000021
 21
219.2751100000000122
 31
0.0
  0
LINE
  5
351
100
AcDbEntity
100
AcDbLine
  8
FORT
 62
7
370
-1
  6
CONTINUOUS
 10
33.3588400000000007
 20
219.2751100000000122
 30
0.0
 11
28.6588400000000014
 21
219.2751100000000122
 31
0.0
  0
LINE
  5
352
100
AcDbEntity
100
AcDbLine
  8
FORT
 62
7
370
-1
  6
CONTINUOUS
 10
82.1588399999999979
 20
179.2751100000000122
 30
0.0
 11
82.1588399999999979
 21
158.2751100000000122
 31
0.0
  0
LINE
  5
353
100
AcDbEntity
100
AcDbLine
  8
FORT
 62
7
370
-1
  6
CONTINUOUS
 10
82.1588399999999979
 20
158.2751100000000122
 30
0.0
 11
81.1588399999999979
 21
158.2751100000000122
 31
0.0
  0
LINE
  5
354
100
AcDbEntity
100
AcDbLine
  8
FORT
 62
7
370
-1
  6
CONTINUOUS
 10
70.1588399999999979
 20
179.2751100000000122
 30
0.0
 11
82.1588399999999979
 21
179.2751100000000122
 31
0.0
  0
LINE
  5
355
100
AcDbEntity
100
AcDbLine
  8
FORT
 62
7
370
-1
  6
CONTINUOUS
 10
68.6588399999999979
 20
215.2751100000000122
 30
0.0
 11
68.6588399999999979
 21
219.2751100000000122
 31
0.0
  0
LINE
  5
356
100
AcDbEntity
100
AcDbLine
  8
FORT
 62
7
370
-1
  6
CONTINUOUS
 10
79.6588399999999979
 20
215.2751100000000122
 30
0.0
 11
79.6588399999999979
 21
219.2751100000000122
 31
0.0
  0
LINE
  5
357
100
AcDbEntity
100
AcDbLine
  8
FORT
 62
7
370
-1
  6
CONTINUOUS
 10
73.3588400000000007
 20
217.2751100000000122
 30
0.0
 11
73.3588400000000007
 21
219.2751100000000122
 31
0.0
  0
LINE
  5
358
100
AcDbEntity
100
AcDbLine
  8
FORT
 62
7
370
-1
  6
CONTINUOUS
 10
74.958839999999995
 20
217.2751100000000122
 30
0.0
 11
74.958839999999995
 21
219.2751100000000122
 31
0.0
  0
LINE
  5
359
100
AcDbEntity
100
AcDbLine
  8
FORT
 62
7
370
-1
  6
CONTINUOUS
 10
73.3588400000000007
 20
217.2751100000000122
 30
0.0
 11
74.958839999999995
 21
217.2751100000000122
 31
0.0
  0
LINE
  5
35A
100
AcDbEntity
100
AcDbLine
  8
FORT
 62
7
370
-1
  6
CONTINUOUS
 10
73.3588400000000007
 20
219.2751100000000122
 30
0.0
 11
68.6588399999999979
 21
219.2751100000000122
 31
0.0
  0
LINE
  5
35B
100
AcDbEntity
100
AcDbLine
  8
FORT
 62
7
370
-1
  6
CONTINUOUS
 10
74.958839999999995
 20
219.2751100000000122
 30
0.0
 11
79.6588399999999979
 21
219.2751100000000122
 31
0.0
  0
ARC
  5
35C
100
AcDbEntity
  8
FORT
 62
7
370
-1
  6
CONTINUOUS
100
AcDbCircle
 10
54.1588399999999979
 20
254.7751100000000122
 30
0.0
 40
11.5
100
AcDbArc
 50
69.6455940000000027
 51
110.3544059999999973
  0
LINE
  5
35D
100
AcDbEntity
100
AcDbLine
  8
FORT
 62
7
370
-1
  6
CONTINUOUS
 10
65.9088399999999979
 20
236.2751100000000122
 30
0.0
 11
42.4088399999999979
 21
236.2751100000000122
 31
0.0
  0
LINE
  5
35E
100
AcDbEntity
100
AcDbLine
  8
FORT
 62
7
370
-1
  6
CONTINUOUS
 10
58.1588399999999979
 20
241.2751100000000122
 30
0.0
 11
50.1588399999999979
 21
241.2751100000000122
 31
0.0
  0
ARC
  5
35F
100
AcDbEntity
  8
FORT
 62
7
370
-1
  6
CONTINUOUS
100
AcDbCircle
 10
54.1588399999999979
 20
254.7751100000000122
 30
0.0
 40
11.5
100
AcDbArc
 50
249.6455939999999885
 51
290.3544059999999831
  0
LINE
  5
360
100
AcDbEntity
100
AcDbLine
  8
FORT
 62
7
370
-1
  6
CONTINUOUS
 10
67.8453319999999991
 20
234.7751100000000122
 30
0.0
 11
40.4723479999999967
 21
234.7751100000000122
 31
0.0
  0
LINE
  5
361
100
AcDbEntity
100
AcDbLine
  8
FORT
 62
7
370
-1
  6
CONTINUOUS
 10
67.1588399999999979
 20
233.2751100000000122
 30
0.0
 11
41.1588399999999979
 21
233.2751100000000122
 31
0.0
  0
LINE
  5
362
100
AcDbEntity
100
AcDbLine
  8
FORT
 62
7
370
-1
  6
CONTINUOUS
 10
50.1588399999999979
 20
241.2751100000000122
 30
0.0
 11
50.1588399999999979
 21
265.5570399999999722
 31
0.0
  0
ARC
  5
363
100
AcDbEntity
  8
FORT
 62
7
370
-1
  6
CONTINUOUS
100
AcDbCircle
 10
54.1588399999999979
 20
249.0251100000000122
 30
0.0
 40
14.3200029999999998
100
AcDbArc
 50
106.2201940000000064
 51
134.2926809999999875
  0
LINE
  5
364
100
AcDbEntity
100
AcDbLine
  8
FORT
 62
7
370
-1
  6
CONTINUOUS
 10
50.1588399999999979
 20
259.2751099999999838
 30
0.0
 11
44.1588399999999979
 21
259.2751099999999838
 31
0.0
  0
LINE
  5
365
100
AcDbEntity
100
AcDbLine
  8
FORT
 62
7
370
-1
  6
CONTINUOUS
 10
44.1588399999999979
 20
236.2751100000000122
 30
0.0
 11
44.1588399999999979
 21
259.2751099999999838
 31
0.0
  0
ARC
  5
366
100
AcDbEntity
  8
FORT
 62
7
370
-1
  6
CONTINUOUS
100
AcDbCircle
 10
41.1588399999999979
 20
228.2751100000000122
 30
0.0
 40
5.0
100
AcDbArc
 50
90.0
 51
180.0
  0
ARC
  5
367
100
AcDbEntity
  8
FORT
 62
7
370
-1
  6
CONTINUOUS
100
AcDbCircle
 10
42.4088399999999979
 20
234.2751100000000122
 30
0.0
 40
2.0
100
AcDbArc
 50
90.0
 51
165.5224880000000098
  0
ARC
  5
368
100
AcDbEntity
  8
FORT
 62
7
370
-1
  6
CONTINUOUS
100
AcDbCircle
 10
41.1588399999999979
 20
234.0251100000000122
 30
0.0
 40
0.75
100
AcDbArc
 50
90.0
 51
270.0
  0
LINE
  5
369
100
AcDbEntity
100
AcDbLine
  8
FORT
 62
7
370
-1
  6
CONTINUOUS
 10
58.1588399999999979
 20
241.2751100000000122
 30
0.0
 11
58.1588399999999979
 21
265.5570399999999722
 31
0.0
  0
ARC
  5
36A
100
AcDbEntity
  8
FORT
 62
7
370
-1
  6
CONTINUOUS
100
AcDbCircle
 10
54.1588399999999979
 20
249.0251100000000122
 30
0.0
 40
14.3200029999999998
100
AcDbArc
 50
45.7073189999999983
 51
73.7798059999999936
  0
LINE
  5
36B
100
AcDbEntity
100
AcDbLine
  8
FORT
 62
7
370
-1
  6
CONTINUOUS
 10
64.1588399999999979
 20
259.2751099999999838
 30
0.0
 11
64.1588399999999979
 21
236.2751100000000122
 31
0.0
  0
LINE
  5
36C
100
AcDbEntity
100
AcDbLine
  8
FORT
 62
7
370
-1
  6
CONTINUOUS
 10
64.1588399999999979
 20
259.2751099999999838
 30
0.0
 11
58.1588399999999979
 21
259.2751099999999838
 31
0.0
  0
ARC
  5
36D
100
AcDbEntity
  8
FORT
 62
7
370
-1
  6
CONTINUOUS
100
AcDbCircle
 10
67.1588399999999979
 20
228.2751100000000122
 30
0.0
 40
5.0
100
AcDbArc
 50
0.0
 51
90.0
  0
ARC
  5
36E
100
AcDbEntity
  8
FORT
 62
7
370
-1
  6
CONTINUOUS
100
AcDbCircle
 10
65.9088399999999979
 20
234.2751100000000122
 30
0.0
 40
2.0
100
AcDbArc
 50
14.477511999999999
 51
90.0
  0
ARC
  5
36F
100
AcDbEntity
  8
FORT
 62
7
370
-1
  6
CONTINUOUS
100
AcDbCircle
 10
67.1588399999999979
 20
234.0251100000000122
 30
0.0
 40
0.75
100
AcDbArc
 50
270.0
 51
90.0
  0
LINE
  5
370
100
AcDbEntity
100
AcDbLine
  8
FORT
 62
7
370
-1
  6
CONTINUOUS
 10
141.7347239999999999
 20
228.2751100000000122
 30
0.0
 11
141.7347239999999999
 21
219.2751100000000122
 31
0.0
  0
LINE
  5
371
100
AcDbEntity
100
AcDbLine
  8
FORT
 62
7
370
-1
  6
CONTINUOUS
 10
177.7347239999999999
 20
219.2751100000000122
 30
0.0
 11
177.7347239999999999
 21
228.2751100000000122
 31
0.0
  0
LINE
  5
372
100
AcDbEntity
100
AcDbLine
  8
FORT
 62
7
370
-1
  6
CONTINUOUS
 10
186.7347239999999999
 20
180.2751100000000122
 30
0.0
 11
132.7347239999999999
 21
180.2751100000000122
 31
0.0
  0
LINE
  5
373
100
AcDbEntity
100
AcDbLine
  8
FORT
 62
7
370
-1
  6
CONTINUOUS
 10
186.7347239999999999
 20
162.2751100000000122
 30
0.0
 11
132.7347239999999999
 21
162.2751100000000122
 31
0.0
  0
LINE
  5
374
100
AcDbEntity
100
AcDbLine
  8
FORT
 62
7
370
-1
  6
CONTINUOUS
 10
186.7347239999999999
 20
213.2751100000000122
 30
0.0
 11
132.7347239999999999
 21
213.2751100000000122
 31
0.0
  0
LINE
  5
375
100
AcDbEntity
100
AcDbLine
  8
FORT
 62
7
370
-1
  6
CONTINUOUS
 10
186.7347239999999999
 20
215.2751100000000122
 30
0.0
 11
132.7347239999999999
 21
215.2751100000000122
 31
0.0
  0
LINE
  5
376
100
AcDbEntity
100
AcDbLine
  8
FORT
 62
7
370
-1
  6
CONTINUOUS
 10
203.7347239999999999
 20
151.9751100000000008
 30
0.0
 11
115.7347239999999999
 21
151.9751100000000008
 31
0.0
  0
LINE
  5
377
100
AcDbEntity
100
AcDbLine
  8
FORT
 62
7
370
-1
  6
CONTINUOUS
 10
203.7347239999999999
 20
150.2751100000000122
 30
0.0
 11
115.7347239999999999
 21
150.2751100000000122
 31
0.0
  0
LINE
  5
378
100
AcDbEntity
100
AcDbLine
  8
FORT
 62
7
370
-1
  6
CONTINUOUS
 10
132.7347239999999999
 20
161.2751100000000122
 30
0.0
 11
132.7347239999999999
 21
215.2751100000000122
 31
0.0
  0
LINE
  5
379
100
AcDbEntity
100
AcDbLine
  8
FORT
 62
7
370
-1
  6
CONTINUOUS
 10
132.7347239999999999
 20
179.2751100000000122
 30
0.0
 11
115.7347239999999999
 21
179.2751100000000122
 31
0.0
  0
LINE
  5
37A
100
AcDbEntity
100
AcDbLine
  8
FORT
 62
7
370
-1
  6
CONTINUOUS
 10
135.7347239999999999
 20
161.2751100000000122
 30
0.0
 11
135.7347239999999999
 21
162.2751100000000122
 31
0.0
  0
ARC
  5
37B
100
AcDbEntity
  8
FORT
 62
7
370
-1
  6
CONTINUOUS
100
AcDbCircle
 10
118.7347239999999999
 20
168.2751100000000122
 30
0.0
 40
6.0
100
AcDbArc
 50
303.5573099999999727
 51
56.4426899999999989
  0
LINE
  5
37C
100
AcDbEntity
100
AcDbLine
  8
FORT
 62
7
370
-1
  6
CONTINUOUS
 10
115.418098999999998
 20
163.2751100000000122
 30
0.0
 11
122.0513480000000044
 21
163.2751100000000122
 31
0.0
  0
LINE
  5
37D
100
AcDbEntity
100
AcDbLine
  8
FORT
 62
7
370
-1
  6
CONTINUOUS
 10
115.418098999999998
 20
173.2751100000000122
 30
0.0
 11
122.0513480000000044
 21
173.2751100000000122
 31
0.0
  0
ARC
  5
37E
100
AcDbEntity
  8
FORT
 62
7
370
-1
  6
CONTINUOUS
100
AcDbCircle
 10
118.7347239999999999
 20
168.2751100000000122
 30
0.0
 40
6.0
100
AcDbArc
 50
123.5573100000000011
 51
236.4426899999999989
  0
LINE
  5
37F
100
AcDbEntity
100
AcDbLine
  8
FORT
 62
7
370
-1
  6
CONTINUOUS
 10
124.7347239999999999
 20
153.2751100000000122
 30
0.0
 11
115.7347239999999999
 21
153.2751100000000122
 31
0.0
  0
ARC
  5
380
100
AcDbEntity
  8
FORT
 62
7
370
-1
  6
CONTINUOUS
100
AcDbCircle
 10
124.7347239999999999
 20
161.2751100000000122
 30
0.0
 40
8.0
100
AcDbArc
 50
270.0
 51
0.0
  0
CIRCLE
  5
381
100
AcDbEntity
100
AcDbCircle
  8
FORT
 62
7
370
-1
  6
CONTINUOUS
 10
135.7347239999999999
 20
156.2751100000000122
 30
0.0
 40
2.2000000000000002
  0
LINE
  5
382
100
AcDbEntity
100
AcDbLine
  8
FORT
 62
7
370
-1
  6
CONTINUOUS
 10
140.7347239999999999
 20
156.2751100000000122
 30
0.0
 11
142.7347239999999999
 21
156.2751100000000122
 31
0.0
  0
LINE
  5
383
100
AcDbEntity
100
AcDbLine
  8
FORT
 62
7
370
-1
  6
CONTINUOUS
 10
142.7347239999999999
 20
162.2751100000000122
 30
0.0
 11
142.7347239999999999
 21
156.2751100000000122
 31
0.0
  0
ARC
  5
384
100
AcDbEntity
  8
FORT
 62
7
370
-1
  6
CONTINUOUS
100
AcDbCircle
 10
135.7347239999999999
 20
156.2751100000000122
 30
0.0
 40
5.0
100
AcDbArc
 50
0.0
 51
90.0
  0
ARC
  5
385
100
AcDbEntity
  8
FIN
 62
5
370
-1
  6
CONTINUOUS
100
AcDbCircle
 10
135.7347239999999999
 20
156.2751100000000122
 30
0.0
 40
3.0
100
AcDbArc
 50
180.0
 51
90.0
  0
LINE
  5
386
100
AcDbEntity
100
AcDbLine
  8
FORT
 62
7
370
-1
  6
CONTINUOUS
 10
145.2347239999999999
 20
219.2751100000000122
 30
0.0
 11
134.2347239999999999
 21
219.2751100000000122
 31
0.0
  0
LINE
  5
387
100
AcDbEntity
100
AcDbLine
  8
FORT
 62
7
370
-1
  6
CONTINUOUS
 10
134.2347239999999999
 20
215.2751100000000122
 30
0.0
 11
134.2347239999999999
 21
219.2751100000000122
 31
0.0
  0
LINE
  5
388
100
AcDbEntity
100
AcDbLine
  8
FORT
 62
7
370
-1
  6
CONTINUOUS
 10
145.2347239999999999
 20
215.2751100000000122
 30
0.0
 11
145.2347239999999999
 21
219.2751100000000122
 31
0.0
  0
LINE
  5
389
100
AcDbEntity
100
AcDbLine
  8
FORT
 62
7
370
-1
  6
CONTINUOUS
 10
186.7347239999999999
 20
161.2751100000000122
 30
0.0
 11
186.7347239999999999
 21
215.2751100000000122
 31
0.0
  0
LINE
  5
38A
100
AcDbEntity
100
AcDbLine
  8
FORT
 62
7
370
-1
  6
CONTINUOUS
 10
203.7347239999999999
 20
179.2751100000000122
 30
0.0
 11
186.7347239999999999
 21
179.2751100000000122
 31
0.0
  0
ARC
  5
38B
100
AcDbEntity
  8
FORT
 62
7
370
-1
  6
CONTINUOUS
100
AcDbCircle
 10
183.7347239999999999
 20
156.2751100000000122
 30
0.0
 40
5.0
100
AcDbArc
 50
90.0
 51
180.0
  0
LINE
  5
38C
100
AcDbEntity
100
AcDbLine
  8
FORT
 62
7
370
-1
  6
CONTINUOUS
 10
178.7347239999999999
 20
156.2751100000000122
 30
0.0
 11
176.7347239999999999
 21
156.2751100000000122
 31
0.0
  0
LINE
  5
38D
100
AcDbEntity
100
AcDbLine
  8
FORT
 62
7
370
-1
  6
CONTINUOUS
 10
176.7347239999999999
 20
162.2751100000000122
 30
0.0
 11
176.7347239999999999
 21
156.2751100000000122
 31
0.0
  0
ARC
  5
38E
100
AcDbEntity
  8
FIN
 62
5
370
-1
  6
CONTINUOUS
100
AcDbCircle
 10
183.7347239999999999
 20
156.2751100000000122
 30
0.0
 40
3.0
100
AcDbArc
 50
180.0
 51
90.0
  0
CIRCLE
  5
38F
100
AcDbEntity
100
AcDbCircle
  8
FORT
 62
7
370
-1
  6
CONTINUOUS
 10
183.7347239999999999
 20
156.2751100000000122
 30
0.0
 40
2.2000000000000002
  0
LINE
  5
390
100
AcDbEntity
100
AcDbLine
  8
FORT
 62
7
370
-1
  6
CONTINUOUS
 10
183.7347239999999999
 20
161.2751100000000122
 30
0.0
 11
183.7347239999999999
 21
162.2751100000000122
 31
0.0
  0
ARC
  5
391
100
AcDbEntity
  8
FORT
 62
7
370
-1
  6
CONTINUOUS
100
AcDbCircle
 10
194.7347239999999999
 20
161.2751100000000122
 30
0.0
 40
8.0
100
AcDbArc
 50
180.0
 51
270.0
  0
ARC
  5
392
100
AcDbEntity
  8
FORT
 62
7
370
-1
  6
CONTINUOUS
100
AcDbCircle
 10
200.7347239999999999
 20
168.2751100000000122
 30
0.0
 40
6.0
100
AcDbArc
 50
123.5573100000000011
 51
236.4426899999999989
  0
ARC
  5
393
100
AcDbEntity
  8
FORT
 62
7
370
-1
  6
CONTINUOUS
100
AcDbCircle
 10
200.7347239999999999
 20
168.2751100000000122
 30
0.0
 40
6.0
100
AcDbArc
 50
303.5573099999999727
 51
56.4426899999999989
  0
LINE
  5
394
100
AcDbEntity
100
AcDbLine
  8
FORT
 62
7
370
-1
  6
CONTINUOUS
 10
204.0513479999999902
 20
163.2751100000000122
 30
0.0
 11
197.4180990000000122
 21
163.2751100000000122
 31
0.0
  0
LINE
  5
395
100
AcDbEntity
100
AcDbLine
  8
FORT
 62
7
370
-1
  6
CONTINUOUS
 10
204.0513479999999902
 20
173.2751100000000122
 30
0.0
 11
197.4180990000000122
 21
173.2751100000000122
 31
0.0
  0
LINE
  5
396
100
AcDbEntity
100
AcDbLine
  8
FORT
 62
7
370
-1
  6
CONTINUOUS
 10
194.7347239999999999
 20
153.2751100000000122
 30
0.0
 11
203.7347239999999999
 21
153.2751100000000122
 31
0.0
  0
ARC
  5
397
100
AcDbEntity
  8
FORT
 62
7
370
-1
  6
CONTINUOUS
100
AcDbCircle
 10
203.7347239999999999
 20
171.2751100000000122
 30
0.0
 40
8.0
100
AcDbArc
 50
0.0
 51
90.0
  0
LINE
  5
398
100
AcDbEntity
100
AcDbLine
  8
FORT
 62
7
370
-1
  6
CONTINUOUS
 10
185.2347239999999999
 20
219.2751100000000122
 30
0.0
 11
174.2347239999999999
 21
219.2751100000000122
 31
0.0
  0
LINE
  5
399
100
AcDbEntity
100
AcDbLine
  8
FORT
 62
7
370
-1
  6
CONTINUOUS
 10
185.2347239999999999
 20
215.2751100000000122
 30
0.0
 11
185.2347239999999999
 21
219.2751100000000122
 31
0.0
  0
LINE
  5
39A
100
AcDbEntity
100
AcDbLine
  8
FORT
 62
7
370
-1
  6
CONTINUOUS
 10
174.2347239999999999
 20
215.2751100000000122
 30
0.0
 11
174.2347239999999999
 21
219.2751100000000122
 31
0.0
  0
ARC
  5
39B
100
AcDbEntity
  8
FORT
 62
7
370
-1
  6
CONTINUOUS
100
AcDbCircle
 10
171.4847239999999999
 20
234.2751100000000122
 30
0.0
 40
2.0
100
AcDbArc
 50
14.477511999999999
 51
90.0
  0
LINE
  5
39C
100
AcDbEntity
100
AcDbLine
  8
FORT
 62
7
370
-1
  6
CONTINUOUS
 10
172.7347239999999999
 20
233.2751100000000122
 30
0.0
 11
146.7347239999999999
 21
233.2751100000000122
 31
0.0
  0
LINE
  5
39D
100
AcDbEntity
100
AcDbLine
  8
FORT
 62
7
370
-1
  6
CONTINUOUS
 10
173.4212149999999895
 20
234.7751100000000122
 30
0.0
 11
146.0482320000000129
 21
234.7751100000000122
 31
0.0
  0
ARC
  5
39E
100
AcDbEntity
  8
FORT
 62
7
370
-1
  6
CONTINUOUS
100
AcDbCircle
 10
159.7347239999999999
 20
254.7751100000000122
 30
0.0
 40
10.7819289999999999
100
AcDbArc
 50
328.2168290000000184
 51
211.7831710000000101
  0
ARC
  5
39F
100
AcDbEntity
  8
FORT
 62
7
370
-1
  6
CONTINUOUS
100
AcDbCircle
 10
159.7347239999999999
 20
254.7751100000000122
 30
0.0
 40
11.5
100
AcDbArc
 50
322.8416950000000156
 51
217.1583050000000128
  0
ARC
  5
3A0
100
AcDbEntity
  8
FORT
 62
7
370
-1
  6
CONTINUOUS
100
AcDbCircle
 10
159.7347239999999999
 20
249.0251100000000122
 30
0.0
 40
13.75
100
AcDbArc
 50
48.1981559999999973
 51
131.8018439999999885
  0
LINE
  5
3A1
100
AcDbEntity
100
AcDbLine
  8
FORT
 62
7
370
-1
  6
CONTINUOUS
 10
159.7347239999999999
 20
262.9199629999999956
 30
0.0
 11
159.7347239999999999
 21
260.9199629999999956
 31
0.0
  0
LINE
  5
3A2
100
AcDbEntity
100
AcDbLine
  8
FORT
 62
7
370
-1
  6
CONTINUOUS
 10
168.8998750000000086
 20
259.2751099999999838
 30
0.0
 11
150.5695719999999937
 21
259.2751099999999838
 31
0.0
  0
CIRCLE
  5
3A3
100
AcDbEntity
100
AcDbCircle
  8
FORT
 62
7
370
-1
  6
CONTINUOUS
 10
159.7347239999999999
 20
254.7751100000000122
 30
0.0
 40
4.0
  0
LINE
  5
3A4
100
AcDbEntity
100
AcDbLine
  8
FORT
 62
7
370
-1
  6
CONTINUOUS
 10
159.7347239999999999
 20
259.9199629999999956
 30
0.0
 11
159.7347239999999999
 21
256.0406469999999786
 31
0.0
  0
LINE
  5
3A5
100
AcDbEntity
100
AcDbLine
  8
FORT
 62
7
370
-1
  6
CONTINUOUS
 10
150.5695719999999937
 20
241.2751100000000122
 30
0.0
 11
150.5695719999999937
 21
259.2751099999999838
 31
0.0
  0
CIRCLE
  5
3A6
100
AcDbEntity
100
AcDbCircle
  8
FORT
 62
7
370
-1
  6
CONTINUOUS
 10
159.7347239999999999
 20
254.7751100000000122
 30
0.0
 40
2.0
  0
LINE
  5
3A7
100
AcDbEntity
100
AcDbLine
  8
FORT
 62
7
370
-1
  6
CONTINUOUS
 10
168.8998750000000086
 20
241.2751100000000122
 30
0.0
 11
168.8998750000000086
 21
259.2751099999999838
 31
0.0
  0
LINE
  5
3A8
100
AcDbEntity
100
AcDbLine
  8
FORT
 62
7
370
-1
  6
CONTINUOUS
 10
161.7120960000000025
 20
254.2751100000000122
 30
0.0
 11
163.7234579999999937
 21
254.2751100000000122
 31
0.0
  0
LINE
  5
3A9
100
AcDbEntity
100
AcDbLine
  8
FORT
 62
7
370
-1
  6
CONTINUOUS
 10
161.7120960000000025
 20
255.2751100000000122
 30
0.0
 11
163.7234579999999937
 21
255.2751100000000122
 31
0.0
  0
LINE
  5
3AA
100
AcDbEntity
100
AcDbLine
  8
FORT
 62
7
370
-1
  6
CONTINUOUS
 10
171.4847239999999999
 20
236.2751100000000122
 30
0.0
 11
147.9847239999999999
 21
236.2751100000000122
 31
0.0
  0
LINE
  5
3AB
100
AcDbEntity
100
AcDbLine
  8
FORT
 62
7
370
-1
  6
CONTINUOUS
 10
155.7459890000000087
 20
254.2751100000000122
 30
0.0
 11
157.7573519999999974
 21
254.2751100000000122
 31
0.0
  0
LINE
  5
3AC
100
AcDbEntity
100
AcDbLine
  8
FORT
 62
7
370
-1
  6
CONTINUOUS
 10
155.7459890000000087
 20
255.2751100000000122
 30
0.0
 11
157.7573519999999974
 21
255.2751100000000122
 31
0.0
  0
LINE
  5
3AD
100
AcDbEntity
100
AcDbLine
  8
FORT
 62
7
370
-1
  6
CONTINUOUS
 10
156.7347239999999999
 20
238.2751100000000122
 30
0.0
 11
156.7347239999999999
 21
236.2751100000000122
 31
0.0
  0
LINE
  5
3AE
100
AcDbEntity
100
AcDbLine
  8
FORT
 62
7
370
-1
  6
CONTINUOUS
 10
149.7347239999999999
 20
241.2751100000000122
 30
0.0
 11
149.7347239999999999
 21
236.2751100000000122
 31
0.0
  0
LINE
  5
3AF
100
AcDbEntity
100
AcDbLine
  8
FORT
 62
7
370
-1
  6
CONTINUOUS
 10
150.5695719999999937
 20
241.2751100000000122
 30
0.0
 11
149.7347239999999999
 21
241.2751100000000122
 31
0.0
  0
ARC
  5
3B0
100
AcDbEntity
  8
FORT
 62
7
370
-1
  6
CONTINUOUS
100
AcDbCircle
 10
147.9847239999999999
 20
234.2751100000000122
 30
0.0
 40
2.0
100
AcDbArc
 50
90.0
 51
165.5224880000000098
  0
ARC
  5
3B1
100
AcDbEntity
  8
FORT
 62
7
370
-1
  6
CONTINUOUS
100
AcDbCircle
 10
146.7347239999999999
 20
228.2751100000000122
 30
0.0
 40
5.0
100
AcDbArc
 50
90.0
 51
180.0
  0
LINE
  5
3B2
100
AcDbEntity
100
AcDbLine
  8
FORT
 62
7
370
-1
  6
CONTINUOUS
 10
162.7347239999999999
 20
236.2751100000000122
 30
0.0
 11
162.7347239999999999
 21
238.2751100000000122
 31
0.0
  0
LINE
  5
3B3
100
AcDbEntity
100
AcDbLine
  8
FORT
 62
7
370
-1
  6
CONTINUOUS
 10
169.7347239999999999
 20
241.2751100000000122
 30
0.0
 11
169.7347239999999999
 21
236.2751100000000122
 31
0.0
  0
LINE
  5
3B4
100
AcDbEntity
100
AcDbLine
  8
FORT
 62
7
370
-1
  6
CONTINUOUS
 10
169.7347239999999999
 20
241.2751100000000122
 30
0.0
 11
168.8998750000000086
 21
241.2751100000000122
 31
0.0
  0
ARC
  5
3B5
100
AcDbEntity
  8
FORT
 62
7
370
-1
  6
CONTINUOUS
100
AcDbCircle
 10
159.7347239999999999
 20
229.5251100000000122
 30
0.0
 40
9.25
100
AcDbArc
 50
71.0753559999999993
 51
108.9246440000000007
  0
ARC
  5
3B6
100
AcDbEntity
  8
FORT
 62
7
370
-1
  6
CONTINUOUS
100
AcDbCircle
 10
146.7347239999999999
 20
234.0251100000000122
 30
0.0
 40
0.75
100
AcDbArc
 50
90.0
 51
270.0
  0
LINE
  5
3B7
100
AcDbEntity
100
AcDbLine
  8
FORT
 62
7
370
-1
  6
CONTINUOUS
 10
159.7347239999999999
 20
269.2532959999999775
 30
0.0
 11
156.9347239999999886
 21
270.1866289999999822
 31
0.0
  0
LINE
  5
3B8
100
AcDbEntity
100
AcDbLine
  8
FORT
 62
7
370
-1
  6
CONTINUOUS
 10
159.7347239999999999
 20
269.2532959999999775
 30
0.0
 11
156.9347239999999886
 21
268.3199629999999729
 31
0.0
  0
LINE
  5
3B9
100
AcDbEntity
100
AcDbLine
  8
FORT
 62
7
370
-1
  6
CONTINUOUS
 10
150.3161120000000039
 20
269.2532959999999775
 30
0.0
 11
159.7347239999999999
 21
269.2532959999999775
 31
0.0
  0
LINE
  5
3BA
100
AcDbEntity
100
AcDbLine
  8
FORT
 62
7
370
-1
  6
CONTINUOUS
 10
159.7347239999999999
 20
273.9199629999999956
 30
0.0
 11
159.7347239999999999
 21
263.9199629999999956
 31
0.0
  0
ARC
  5
3BB
100
AcDbEntity
  8
FORT
 62
7
370
-1
  6
CONTINUOUS
100
AcDbCircle
 10
172.7347239999999999
 20
228.2751100000000122
 30
0.0
 40
5.0
100
AcDbArc
 50
0.0
 51
90.0
  0
ARC
  5
3BC
100
AcDbEntity
  8
FORT
 62
7
370
-1
  6
CONTINUOUS
100
AcDbCircle
 10
172.7347239999999999
 20
234.0251100000000122
 30
0.0
 40
0.75
100
AcDbArc
 50
270.0
 51
90.0
  0
LINE
  5
3BD
100
AcDbEntity
100
AcDbLine
  8
FORT
 62
7
370
-1
  6
CONTINUOUS
 10
319.5183660000000145
 20
162.2751100000000122
 30
0.0
 11
319.5183660000000145
 21
55.275109999999998
 31
0.0
  0
LINE
  5
3BE
100
AcDbEntity
100
AcDbLine
  8
FORT
 62
7
370
-1
  6
CONTINUOUS
 10
322.5183660000000145
 20
215.2751100000000122
 30
0.0
 11
322.5183660000000145
 21
55.275109999999998
 31
0.0
  0
LINE
  5
3BF
100
AcDbEntity
100
AcDbLine
  8
FORT
 62
7
370
-1
  6
CONTINUOUS
 10
268.5183660000000145
 20
91.775109999999998
 30
0.0
 11
268.5183660000000145
 21
215.2751100000000122
 31
0.0
  0
LINE
  5
3C0
100
AcDbEntity
100
AcDbLine
  8
FORT
 62
7
370
-1
  6
CONTINUOUS
 10
316.5183660000000145
 20
150.2751100000000122
 30
0.0
 11
316.5183660000000145
 21
63.275109999999998
 31
0.0
  0
LINE
  5
3C1
100
AcDbEntity
100
AcDbLine
  8
FIN
 62
5
370
-1
  6
CONTINUOUS
 10
291.0693360000000212
 20
155.1162109999999927
 30
0.0
 11
254.626544999999993
 21
137.9811939999999879
 31
0.0
  0
LINE
  5
3C2
100
AcDbEntity
100
AcDbLine
  8
FORT
 62
7
370
-1
  6
CONTINUOUS
 10
287.5183660000000145
 20
147.2751100000000122
 30
0.0
 11
287.5183660000000145
 21
149.2751100000000122
 31
0.0
  0
LINE
  5
3C3
100
AcDbEntity
100
AcDbLine
  8
FIN
 62
5
370
-1
  6
CONTINUOUS
 10
286.5183660000000145
 20
157.3169320000000084
 30
0.0
 11
254.626544999999993
 21
147.9811939999999879
 31
0.0
  0
LINE
  5
3C4
100
AcDbEntity
100
AcDbLine
  8
FORT
 62
7
370
-1
  6
CONTINUOUS
 10
314.5183660000000145
 20
150.2751100000000122
 30
0.0
 11
308.7586239999999975
 21
147.2751100000000122
 31
0.0
  0
LINE
  5
3C5
100
AcDbEntity
100
AcDbLine
  8
FORT
 62
7
370
-1
  6
CONTINUOUS
 10
303.5183660000000145
 20
147.2751100000000122
 30
0.0
 11
303.5183660000000145
 21
149.2751100000000122
 31
0.0
  0
CIRCLE
  5
3C6
100
AcDbEntity
100
AcDbCircle
  8
FORT
 62
7
370
-1
  6
CONTINUOUS
 10
379.0623049999999807
 20
151.3341719999999953
 30
0.0
 40
13.0
  0
ARC
  5
3C7
100
AcDbEntity
  8
FORT
 62
7
370
-1
  6
CONTINUOUS
100
AcDbCircle
 10
379.0623049999999807
 20
151.3341719999999953
 30
0.0
 40
10.0
100
AcDbArc
 50
17.4576029999999989
 51
342.542396999999994
  0
LINE
  5
3C8
100
AcDbEntity
100
AcDbLine
  8
FORT
 62
7
370
-1
  6
CONTINUOUS
 10
386.0623049999999807
 20
154.3341719999999953
 30
0.0
 11
386.0623049999999807
 21
148.3341719999999953
 31
0.0
  0
LWPOLYLINE
  5
3C9
  8
HACHURE
 62
5
370
-1
  6
CONTINUOUS
100
AcDbEntity
100
AcDbPolyline
 90
30
 70
1
 10
277.8317840000000274
 20
94.275109999999998
 10
271.5183660000000145
 20
94.275109999999998
 10
271.5183660000000145
 20
143.5226539999999886
 42
-0.3761320000464278
 10
273.2556349999999838
 20
145.5053220000000067
 10
286.6111549999999966
 20
147.2751100000000122
 10
287.5183660000000145
 20
147.2751100000000122
 10
287.5183660000000145
 20
149.2751100000000122
 10
282.5183660000000145
 20
149.2751100000000122
 10
282.5183660000000145
 20
159.2751100000000122
 10
276.5183660000000145
 20
159.2751100000000122
 10
276.5183660000000145
 20
164.2751100000000122
 10
273.5183660000000145
 20
166.2751100000000122
 10
273.5183660000000145
 20
180.2751100000000122
 10
268.5183660000000145
 20
180.2751100000000122
 10
268.5183660000000145
 20
161.2751100000000122
 10
272.5183660000000145
 20
161.2751100000000122
 10
272.5183660000000145
 20
156.2751100000000122
 10
279.5183660000000145
 20
156.2751100000000122
 10
279.5183660000000145
 20
151.2751100000000122
 10
268.5183660000000145
 20
151.2751100000000122
 10
268.5183660000000145
 20
91.775109999999998
 10
267.5183660000000145
 20
91.775109999999998
 10
267.5183660000000145
 20
83.775109999999998
 10
274.5183660000000145
 20
83.775109999999998
 10
274.5183660000000145
 20
81.775109999999998
 10
283.5183660000000145
 20
81.775109999999998
 10
283.5183660000000145
 20
86.275109999999998
 10
286.5183660000000145
 20
86.275109999999998
 10
286.5183660000000145
 20
88.275109999999998
 10
283.8317840000000274
 20
88.275109999999998
  0
INSERT
  5
3CA
100
AcDbEntity
100
AcDbBlockReference
  8
HACHURE
 62
256
370
-1
  6
ByLayer
  2
DESENS-G6
 10
0.0
 20
0.0
 30
0.0
  0
LWPOLYLINE
  5
3CB
  8
HACHURE
 62
5
370
-1
  6
CONTINUOUS
100
AcDbEntity
100
AcDbPolyline
 90
4
 70
1
 10
322.5183660000000145
 20
162.2751100000000122
 10
319.5183660000000145
 20
162.2751100000000122
 10
319.5183660000000145
 20
55.275109999999998
 10
322.5183660000000145
 20
55.275109999999998
  0
INSERT
  5
3CC
100
AcDbEntity
100
AcDbBlockReference
  8
HACHURE
 62
256
370
-1
  6
ByLayer
  2
DESENS-G7
 10
0.0
 20
0.0
 30
0.0
  0
LWPOLYLINE
  5
3CD
  8
HACHURE
 62
5
370
-1
  6
CONTINUOUS
100
AcDbEntity
100
AcDbPolyline
 90
12
 70
1
 10
319.5183660000000145
 20
162.2751100000000122
 10
316.5183660000000145
 20
162.2751100000000122
 10
316.5183660000000145
 20
151.9751100000000008
 10
317.0183660000000145
 20
151.9751100000000008
 10
317.0183660000000145
 20
150.2751100000000122
 10
316.5183660000000145
 20
150.2751100000000122
 10
316.5183660000000145
 20
63.275109999999998
 10
317.0183660000000145
 20
63.275109999999998
 10
317.0183660000000145
 20
61.5751100000000022
 10
316.5183660000000145
 20
61.5751100000000022
 10
316.5183660000000145
 20
55.275109999999998
 10
319.5183660000000145
 20
55.275109999999998
  0
INSERT
  5
3CE
100
AcDbEntity
100
AcDbBlockReference
  8
HACHURE
 62
256
370
-1
  6
ByLayer
  2
DESENS-G8
 10
0.0
 20
0.0
 30
0.0
  0
LWPOLYLINE
  5
3CF
  8
HACHURE
 62
5
370
-1
  6
CONTINUOUS
100
AcDbEntity
100
AcDbPolyline
 90
16
 70
1
 10
316.5183660000000145
 20
162.2751100000000122
 10
322.5183660000000145
 20
162.2751100000000122
 10
322.5183660000000145
 20
180.2751100000000122
 10
317.5183660000000145
 20
180.2751100000000122
 10
317.5183660000000145
 20
166.2751100000000122
 10
314.5183660000000145
 20
164.2751100000000122
 10
314.5183660000000145
 20
159.2751100000000122
 10
308.5183660000000145
 20
159.2751100000000122
 10
308.5183660000000145
 20
149.2751100000000122
 10
303.5183660000000145
 20
149.2751100000000122
 10
303.5183660000000145
 20
147.2751100000000122
 10
308.7586239999999975
 20
147.2751100000000122
 10
314.5183660000000145
 20
150.2751100000000122
 10
317.0183660000000145
 20
150.2751100000000122
 10
317.0183660000000145
 20
151.9751100000000008
 10
316.5183660000000145
 20
151.9751100000000008
  0
INSERT
  5
3D0
100
AcDbEntity
100
AcDbBlockReference
  8
HACHURE
 62
256
370
-1
  6
ByLayer
  2
DESENS-G9
 10
0.0
 20
0.0
 30
0.0
  0
LINE
  5
3D1
100
AcDbEntity
100
AcDbLine
  8
FORT
 62
7
370
-1
  6
CONTINUOUS
 10
267.5183660000000145
 20
53.275109999999998
 30
0.0
 11
267.5183660000000145
 21
91.775109999999998
 31
0.0
  0
ARC
  5
3D2
100
AcDbEntity
  8
FORT
 62
7
370
-1
  6
CONTINUOUS
100
AcDbCircle
 10
293.5183660000000145
 20
82.275109999999998
 30
0.0
 40
23.0
100
AcDbArc
 50
322.5047500000000014
 51
90.0
  0
ARC
  5
3D3
100
AcDbEntity
  8
FIN
 62
5
370
-1
  6
CONTINUOUS
100
AcDbCircle
 10
293.5183660000000145
 20
82.275109999999998
 30
0.0
 40
18.0
100
AcDbArc
 50
308.9424409999999739
 51
0.0
  0
LINE
  5
3D4
100
AcDbEntity
100
AcDbLine
  8
FORT
 62
7
370
-1
  6
CONTINUOUS
 10
283.5183660000000145
 20
69.275109999999998
 30
0.0
 11
283.5183660000000145
 21
86.275109999999998
 31
0.0
  0
ARC
  5
3D5
100
AcDbEntity
  8
FORT
 62
7
370
-1
  6
CONTINUOUS
100
AcDbCircle
 10
293.5183660000000145
 20
82.275109999999998
 30
0.0
 40
16.0
100
AcDbArc
 50
298.9550239999999803
 51
144.3767400000000123
  0
LINE
  5
3D6
100
AcDbEntity
100
AcDbLine
  8
FORT
 62
7
370
-1
  6
CONTINUOUS
 10
287.5183660000000145
 20
76.775109999999998
 30
0.0
 11
287.5183660000000145
 21
69.775109999999998
 31
0.0
  0
ARC
  5
3D7
100
AcDbEntity
  8
FORT
 62
7
370
-1
  6
CONTINUOUS
100
AcDbCircle
 10
256.0183660000000145
 20
77.775109999999998
 30
0.0
 40
32.5
100
AcDbArc
 50
345.7499670000000265
 51
358.2367750000000228
  0
ARC
  5
3D8
100
AcDbEntity
  8
FORT
 62
7
370
-1
  6
CONTINUOUS
100
AcDbCircle
 10
293.5183660000000145
 20
82.275109999999998
 30
0.0
 40
13.0
100
AcDbArc
 50
243.5349270000000388
 51
146.5675799999999924
  0
ARC
  5
3D9
100
AcDbEntity
  8
FORT
 62
7
370
-1
  6
CONTINUOUS
100
AcDbCircle
 10
293.5183660000000145
 20
82.275109999999998
 30
0.0
 40
11.0
100
AcDbArc
 50
240.5996379999999988
 51
146.9442689999999914
  0
LINE
  5
3DA
100
AcDbEntity
100
AcDbLine
  8
FORT
 62
7
370
-1
  6
CONTINUOUS
 10
274.5183660000000145
 20
73.775109999999998
 30
0.0
 11
274.5183660000000145
 21
71.775109999999998
 31
0.0
  0
LINE
  5
3DB
100
AcDbEntity
100
AcDbLine
  8
FORT
 62
7
370
-1
  6
CONTINUOUS
 10
268.5183660000000145
 20
71.775109999999998
 30
0.0
 11
268.5183660000000145
 21
83.775109999999998
 31
0.0
  0
LINE
  5
3DC
100
AcDbEntity
100
AcDbLine
  8
FIN
 62
5
370
-1
  6
CONTINUOUS
 10
254.626544999999993
 20
67.9811940000000021
 30
0.0
 11
278.260830999999996
 21
76.1175779999999946
 31
0.0
  0
LWPOLYLINE
  5
3DD
  8
HACHURE
 62
5
370
-1
  6
CONTINUOUS
100
AcDbEntity
100
AcDbPolyline
 90
14
 70
1
 10
277.5183660000000145
 20
63.275109999999998
 10
271.5183660000000145
 20
63.275109999999998
 10
271.5183660000000145
 20
67.275109999999998
 10
286.5183660000000145
 20
67.275109999999998
 10
286.5183660000000145
 20
69.275109999999998
 10
283.5183660000000145
 20
69.275109999999998
 10
283.5183660000000145
 20
73.775109999999998
 10
274.5183660000000145
 20
73.775109999999998
 10
274.5183660000000145
 20
71.775109999999998
 10
267.5183660000000145
 20
71.775109999999998
 10
267.5183660000000145
 20
53.275109999999998
 10
268.5183660000000145
 20
53.275109999999998
 10
268.5183660000000145
 20
51.275109999999998
 10
277.5183660000000145
 20
51.275109999999998
  0
INSERT
  5
3DE
100
AcDbEntity
100
AcDbBlockReference
  8
HACHURE
 62
256
370
-1
  6
ByLayer
  2
DESENS-G10
 10
0.0
 20
0.0
 30
0.0
  0
LWPOLYLINE
  5
3DF
  8
HACHURE
 62
5
370
-1
  6
CONTINUOUS
100
AcDbEntity
100
AcDbPolyline
 90
8
 70
1
 10
269.5183660000000145
 20
82.775109999999998
 10
274.5183660000000145
 20
82.775109999999998
 10
274.5183660000000145
 20
83.775109999999998
 10
268.5183660000000145
 20
83.775109999999998
 10
268.5183660000000145
 20
71.775109999999998
 10
274.5183660000000145
 20
71.775109999999998
 10
274.5183660000000145
 20
72.775109999999998
 10
269.5183660000000145
 20
72.775109999999998
  0
INSERT
  5
3E0
100
AcDbEntity
100
AcDbBlockReference
  8
HACHURE
 62
256
370
-1
  6
ByLayer
  2
DESENS-G11
 10
0.0
 20
0.0
 30
0.0
  0
LINE
  5
3E1
100
AcDbEntity
100
AcDbLine
  8
FORT
 62
7
370
-1
  6
CONTINUOUS
 10
316.5183660000000145
 20
51.275109999999998
 30
0.0
 11
268.5183660000000145
 21
51.275109999999998
 31
0.0
  0
LINE
  5
3E2
100
AcDbEntity
100
AcDbLine
  8
FORT
 62
7
370
-1
  6
CONTINUOUS
 10
317.0183660000000145
 20
63.275109999999998
 30
0.0
 11
271.5183660000000145
 21
63.275109999999998
 31
0.0
  0
LINE
  5
3E3
100
AcDbEntity
100
AcDbLine
  8
FORT
 62
7
370
-1
  6
CONTINUOUS
 10
316.5183660000000145
 20
68.275109999999998
 30
0.0
 11
286.5183660000000145
 21
68.275109999999998
 31
0.0
  0
LINE
  5
3E4
100
AcDbEntity
100
AcDbLine
  8
FORT
 62
7
370
-1
  6
CONTINUOUS
 10
271.5183660000000145
 20
63.275109999999998
 30
0.0
 11
271.5183660000000145
 21
67.275109999999998
 31
0.0
  0
LINE
  5
3E5
100
AcDbEntity
100
AcDbLine
  8
FORT
 62
7
370
-1
  6
CONTINUOUS
 10
277.5183660000000145
 20
63.275109999999998
 30
0.0
 11
277.5183660000000145
 21
51.275109999999998
 31
0.0
  0
LINE
  5
3E6
100
AcDbEntity
100
AcDbLine
  8
FIN
 62
5
370
-1
  6
CONTINUOUS
 10
275.5183660000000145
 20
51.275109999999998
 30
0.0
 11
275.5183660000000145
 21
63.275109999999998
 31
0.0
  0
LINE
  5
3E7
100
AcDbEntity
100
AcDbLine
  8
FORT
 62
7
370
-1
  6
CONTINUOUS
 10
267.5183660000000145
 20
53.275109999999998
 30
0.0
 11
268.5183660000000145
 21
53.275109999999998
 31
0.0
  0
LINE
  5
3E8
100
AcDbEntity
100
AcDbLine
  8
FORT
 62
7
370
-1
  6
CONTINUOUS
 10
268.5183660000000145
 20
51.275109999999998
 30
0.0
 11
268.5183660000000145
 21
53.275109999999998
 31
0.0
  0
LINE
  5
3E9
100
AcDbEntity
100
AcDbLine
  8
FORT
 62
7
370
-1
  6
CONTINUOUS
 10
286.5183660000000145
 20
67.275109999999998
 30
0.0
 11
271.5183660000000145
 21
67.275109999999998
 31
0.0
  0
LINE
  5
3EA
100
AcDbEntity
100
AcDbLine
  8
FORT
 62
7
370
-1
  6
CONTINUOUS
 10
286.5183660000000145
 20
67.275109999999998
 30
0.0
 11
286.5183660000000145
 21
69.275109999999998
 31
0.0
  0
LINE
  5
3EB
100
AcDbEntity
100
AcDbLine
  8
FORT
 62
7
370
-1
  6
CONTINUOUS
 10
286.5183660000000145
 20
69.275109999999998
 30
0.0
 11
283.5183660000000145
 21
69.275109999999998
 31
0.0
  0
LINE
  5
3EC
100
AcDbEntity
100
AcDbLine
  8
FORT
 62
7
370
-1
  6
CONTINUOUS
 10
287.5183660000000145
 20
69.775109999999998
 30
0.0
 11
283.5183660000000145
 21
69.775109999999998
 31
0.0
  0
LINE
  5
3ED
100
AcDbEntity
100
AcDbLine
  8
FORT
 62
7
370
-1
  6
CONTINUOUS
 10
274.5183660000000145
 20
71.775109999999998
 30
0.0
 11
267.5183660000000145
 21
71.775109999999998
 31
0.0
  0
LINE
  5
3EE
100
AcDbEntity
100
AcDbLine
  8
FORT
 62
7
370
-1
  6
CONTINUOUS
 10
326.5183660000000145
 20
66.775109999999998
 30
0.0
 11
326.5183660000000145
 21
62.0751100000000022
 31
0.0
  0
LINE
  5
3EF
100
AcDbEntity
100
AcDbLine
  8
FORT
 62
7
370
-1
  6
CONTINUOUS
 10
324.5183660000000145
 20
62.0751100000000022
 30
0.0
 11
324.5183660000000145
 21
60.4751100000000008
 31
0.0
  0
LINE
  5
3F0
100
AcDbEntity
100
AcDbLine
  8
FORT
 62
7
370
-1
  6
CONTINUOUS
 10
326.5183660000000145
 20
60.4751100000000008
 30
0.0
 11
326.5183660000000145
 21
55.775109999999998
 31
0.0
  0
LINE
  5
3F1
100
AcDbEntity
100
AcDbLine
  8
FORT
 62
7
370
-1
  6
CONTINUOUS
 10
324.5183660000000145
 20
60.4751100000000008
 30
0.0
 11
326.5183660000000145
 21
60.4751100000000008
 31
0.0
  0
LINE
  5
3F2
100
AcDbEntity
100
AcDbLine
  8
FORT
 62
7
370
-1
  6
CONTINUOUS
 10
324.5183660000000145
 20
62.0751100000000022
 30
0.0
 11
326.5183660000000145
 21
62.0751100000000022
 31
0.0
  0
LINE
  5
3F3
100
AcDbEntity
100
AcDbLine
  8
FORT
 62
7
370
-1
  6
CONTINUOUS
 10
322.5183660000000145
 20
55.775109999999998
 30
0.0
 11
326.5183660000000145
 21
55.775109999999998
 31
0.0
  0
LINE
  5
3F4
100
AcDbEntity
100
AcDbLine
  8
FORT
 62
7
370
-1
  6
CONTINUOUS
 10
322.5183660000000145
 20
55.275109999999998
 30
0.0
 11
316.5183660000000145
 21
55.275109999999998
 31
0.0
  0
LINE
  5
3F5
100
AcDbEntity
100
AcDbLine
  8
FORT
 62
7
370
-1
  6
CONTINUOUS
 10
309.5183660000000145
 20
51.275109999999998
 30
0.0
 11
309.5183660000000145
 21
63.275109999999998
 31
0.0
  0
LINE
  5
3F6
100
AcDbEntity
100
AcDbLine
  8
FIN
 62
5
370
-1
  6
CONTINUOUS
 10
311.5183660000000145
 20
51.275109999999998
 30
0.0
 11
311.5183660000000145
 21
63.275109999999998
 31
0.0
  0
LINE
  5
3F7
100
AcDbEntity
100
AcDbLine
  8
FORT
 62
7
370
-1
  6
CONTINUOUS
 10
317.0183660000000145
 20
61.5751100000000022
 30
0.0
 11
317.0183660000000145
 21
63.275109999999998
 31
0.0
  0
LINE
  5
3F8
100
AcDbEntity
100
AcDbLine
  8
FORT
 62
7
370
-1
  6
CONTINUOUS
 10
316.5183660000000145
 20
51.275109999999998
 30
0.0
 11
316.5183660000000145
 21
61.5751100000000022
 31
0.0
  0
LINE
  5
3F9
100
AcDbEntity
100
AcDbLine
  8
FORT
 62
7
370
-1
  6
CONTINUOUS
 10
317.0183660000000145
 20
61.5751100000000022
 30
0.0
 11
316.5183660000000145
 21
61.5751100000000022
 31
0.0
  0
LINE
  5
3FA
100
AcDbEntity
100
AcDbLine
  8
FORT
 62
7
370
-1
  6
CONTINUOUS
 10
322.5183660000000145
 20
66.775109999999998
 30
0.0
 11
326.5183660000000145
 21
66.775109999999998
 31
0.0
  0
LINE
  5
3FB
100
AcDbEntity
100
AcDbLine
  8
FORT
 62
7
370
-1
  6
CONTINUOUS
 10
329.3412539999999922
 20
66.4766740000000027
 30
0.0
 11
326.5183660000000145
 21
66.775109999999998
 31
0.0
  0
LINE
  5
3FC
100
AcDbEntity
100
AcDbLine
  8
FORT
 62
7
370
-1
  6
CONTINUOUS
 10
329.2854629999999929
 20
67.4083009999999945
 30
0.0
 11
326.5183660000000145
 21
66.775109999999998
 31
0.0
  0
LINE
  5
3FD
100
AcDbEntity
100
AcDbLine
  8
FIN
 62
5
370
-1
  6
CONTINUOUS
 10
336.4101870000000076
 20
67.9811940000000021
 30
0.0
 11
326.5183660000000145
 21
66.775109999999998
 31
0.0
  0
LWPOLYLINE
  5
3FE
  8
HACHURE
 62
5
370
-1
  6
CONTINUOUS
100
AcDbEntity
100
AcDbPolyline
 90
6
 70
1
 10
316.5183660000000145
 20
61.5751100000000022
 10
317.0183660000000145
 20
61.5751100000000022
 10
317.0183660000000145
 20
63.275109999999998
 10
309.5183660000000145
 20
63.275109999999998
 10
309.5183660000000145
 20
51.275109999999998
 10
316.5183660000000145
 20
51.275109999999998
  0
INSERT
  5
3FF
100
AcDbEntity
100
AcDbBlockReference
  8
HACHURE
 62
256
370
-1
  6
ByLayer
  2
DESENS-G12
 10
0.0
 20
0.0
 30
0.0
  0
LINE
  5
400
100
AcDbEntity
100
AcDbLine
  8
FORT
 62
7
370
-1
  6
CONTINUOUS
 10
303.5183660000000145
 20
108.275109999999998
 30
0.0
 11
274.5183660000000145
 21
108.275109999999998
 31
0.0
  0
LINE
  5
401
100
AcDbEntity
100
AcDbLine
  8
FORT
 62
7
370
-1
  6
CONTINUOUS
 10
303.5183660000000145
 20
139.2751100000000122
 30
0.0
 11
274.5183660000000145
 21
139.2751100000000122
 31
0.0
  0
ARC
  5
402
100
AcDbEntity
  8
FORT
 62
7
370
-1
  6
CONTINUOUS
100
AcDbCircle
 10
293.5183660000000145
 20
82.275109999999998
 30
0.0
 40
7.0
100
AcDbArc
 50
210.0
 51
150.0
  0
LINE
  5
403
100
AcDbEntity
100
AcDbLine
  8
FORT
 62
7
370
-1
  6
CONTINUOUS
 10
303.5183660000000145
 20
145.2751100000000122
 30
0.0
 11
274.5183660000000145
 21
145.2751100000000122
 31
0.0
  0
LINE
  5
404
100
AcDbEntity
100
AcDbLine
  8
FORT
 62
7
370
-1
  6
CONTINUOUS
 10
308.7586239999999975
 20
147.2751100000000122
 30
0.0
 11
286.6111549999999966
 21
147.2751100000000122
 31
0.0
  0
ARC
  5
405
100
AcDbEntity
  8
FIN
 62
5
370
-1
  6
CONTINUOUS
100
AcDbCircle
 10
293.5183660000000145
 20
82.275109999999998
 30
0.0
 40
18.0
100
AcDbArc
 50
90.0
 51
143.3270070000000089
  0
LINE
  5
406
100
AcDbEntity
100
AcDbLine
  8
FORT
 62
7
370
-1
  6
CONTINUOUS
 10
293.5183660000000145
 20
105.275109999999998
 30
0.0
 11
289.4638289999999756
 21
105.275109999999998
 31
0.0
  0
LINE
  5
407
100
AcDbEntity
100
AcDbLine
  8
FORT
 62
7
370
-1
  6
CONTINUOUS
 10
271.5183660000000145
 20
94.275109999999998
 30
0.0
 11
271.5183660000000145
 21
143.5226539999999886
 31
0.0
  0
LINE
  5
408
100
AcDbEntity
100
AcDbLine
  8
FORT
 62
7
370
-1
  6
CONTINUOUS
 10
274.5183660000000145
 20
95.275109999999998
 30
0.0
 11
274.5183660000000145
 21
115.275109999999998
 31
0.0
  0
LINE
  5
409
100
AcDbEntity
100
AcDbLine
  8
FORT
 62
7
370
-1
  6
CONTINUOUS
 10
231.7347239999999999
 20
72.275109999999998
 30
0.0
 11
231.7347239999999999
 21
92.275109999999998
 31
0.0
  0
LINE
  5
40A
100
AcDbEntity
100
AcDbLine
  8
FORT
 62
7
370
-1
  6
CONTINUOUS
 10
277.8317840000000274
 20
94.275109999999998
 30
0.0
 11
271.5183660000000145
 21
94.275109999999998
 31
0.0
  0
LINE
  5
40B
100
AcDbEntity
100
AcDbLine
  8
FORT
 62
7
370
-1
  6
CONTINUOUS
 10
283.5183660000000145
 20
81.775109999999998
 30
0.0
 11
272.5183660000000145
 21
81.775109999999998
 31
0.0
  0
LINE
  5
40C
100
AcDbEntity
100
AcDbLine
  8
FORT
 62
7
370
-1
  6
CONTINUOUS
 10
283.5183660000000145
 20
73.775109999999998
 30
0.0
 11
272.5183660000000145
 21
73.775109999999998
 31
0.0
  0
LINE
  5
40D
100
AcDbEntity
100
AcDbLine
  8
FIN
 62
5
370
-1
  6
CONTINUOUS
 10
283.5183660000000145
 20
80.775109999999998
 30
0.0
 11
271.5183660000000145
 21
80.775109999999998
 31
0.0
  0
LINE
  5
40E
100
AcDbEntity
100
AcDbLine
  8
FIN
 62
5
370
-1
  6
CONTINUOUS
 10
283.5183660000000145
 20
74.775109999999998
 30
0.0
 11
271.5183660000000145
 21
74.775109999999998
 31
0.0
  0
LINE
  5
40F
100
AcDbEntity
100
AcDbLine
  8
FORT
 62
7
370
-1
  6
CONTINUOUS
 10
289.4638289999999756
 20
102.275109999999998
 30
0.0
 11
274.5183660000000145
 21
102.275109999999998
 31
0.0
  0
LINE
  5
410
100
AcDbEntity
100
AcDbLine
  8
FORT
 62
7
370
-1
  6
CONTINUOUS
 10
289.4638289999999756
 20
105.275109999999998
 30
0.0
 11
289.4638289999999756
 21
102.275109999999998
 31
0.0
  0
LINE
  5
411
100
AcDbEntity
100
AcDbLine
  8
FORT
 62
7
370
-1
  6
CONTINUOUS
 10
286.5183660000000145
 20
86.275109999999998
 30
0.0
 11
283.5183660000000145
 21
86.275109999999998
 31
0.0
  0
LINE
  5
412
100
AcDbEntity
100
AcDbLine
  8
FORT
 62
7
370
-1
  6
CONTINUOUS
 10
286.5183660000000145
 20
86.275109999999998
 30
0.0
 11
286.5183660000000145
 21
88.275109999999998
 31
0.0
  0
LINE
  5
413
100
AcDbEntity
100
AcDbLine
  8
FORT
 62
7
370
-1
  6
CONTINUOUS
 10
283.8317840000000274
 20
88.275109999999998
 30
0.0
 11
277.8317840000000274
 21
94.275109999999998
 31
0.0
  0
LINE
  5
414
100
AcDbEntity
100
AcDbLine
  8
FORT
 62
7
370
-1
  6
CONTINUOUS
 10
286.4719140000000266
 20
88.275109999999998
 30
0.0
 11
283.8317840000000274
 21
88.275109999999998
 31
0.0
  0
LINE
  5
415
100
AcDbEntity
100
AcDbLine
  8
FORT
 62
7
370
-1
  6
CONTINUOUS
 10
286.5183660000000145
 20
76.775109999999998
 30
0.0
 11
286.5183660000000145
 21
78.775109999999998
 31
0.0
  0
LINE
  5
416
100
AcDbEntity
100
AcDbLine
  8
FORT
 62
7
370
-1
  6
CONTINUOUS
 10
288.5029779999999846
 20
78.775109999999998
 30
0.0
 11
286.5183660000000145
 21
78.775109999999998
 31
0.0
  0
LINE
  5
417
100
AcDbEntity
100
AcDbLine
  8
FORT
 62
7
370
-1
  6
CONTINUOUS
 10
288.5029779999999846
 20
76.775109999999998
 30
0.0
 11
286.5183660000000145
 21
76.775109999999998
 31
0.0
  0
LINE
  5
418
100
AcDbEntity
100
AcDbLine
  8
FORT
 62
7
370
-1
  6
CONTINUOUS
 10
287.5183660000000145
 20
85.775109999999998
 30
0.0
 11
287.5183660000000145
 21
78.775109999999998
 31
0.0
  0
LINE
  5
419
100
AcDbEntity
100
AcDbLine
  8
FORT
 62
7
370
-1
  6
CONTINUOUS
 10
287.5183660000000145
 20
85.775109999999998
 30
0.0
 11
283.5183660000000145
 21
85.775109999999998
 31
0.0
  0
ARC
  5
41A
100
AcDbEntity
  8
FORT
 62
7
370
-1
  6
CONTINUOUS
100
AcDbCircle
 10
256.0183660000000145
 20
77.775109999999998
 30
0.0
 40
32.5
100
AcDbArc
 50
1.763225
 51
14.2500330000000002
  0
LINE
  5
41B
100
AcDbEntity
100
AcDbLine
  8
FORT
 62
7
370
-1
  6
CONTINUOUS
 10
274.5183660000000145
 20
83.775109999999998
 30
0.0
 11
267.5183660000000145
 21
83.775109999999998
 31
0.0
  0
LINE
  5
41C
100
AcDbEntity
100
AcDbLine
  8
FORT
 62
7
370
-1
  6
CONTINUOUS
 10
274.5183660000000145
 20
82.775109999999998
 30
0.0
 11
269.5183660000000145
 21
82.775109999999998
 31
0.0
  0
LINE
  5
41D
100
AcDbEntity
100
AcDbLine
  8
FORT
 62
7
370
-1
  6
CONTINUOUS
 10
274.5183660000000145
 20
72.775109999999998
 30
0.0
 11
269.5183660000000145
 21
72.775109999999998
 31
0.0
  0
LINE
  5
41E
100
AcDbEntity
100
AcDbLine
  8
FORT
 62
7
370
-1
  6
CONTINUOUS
 10
272.5183660000000145
 20
81.775109999999998
 30
0.0
 11
271.5183660000000145
 21
80.775109999999998
 31
0.0
  0
LINE
  5
41F
100
AcDbEntity
100
AcDbLine
  8
FORT
 62
7
370
-1
  6
CONTINUOUS
 10
271.5183660000000145
 20
74.775109999999998
 30
0.0
 11
271.5183660000000145
 21
80.775109999999998
 31
0.0
  0
LINE
  5
420
100
AcDbEntity
100
AcDbLine
  8
FORT
 62
7
370
-1
  6
CONTINUOUS
 10
271.5183660000000145
 20
74.775109999999998
 30
0.0
 11
272.5183660000000145
 21
73.775109999999998
 31
0.0
  0
LINE
  5
421
100
AcDbEntity
100
AcDbLine
  8
FORT
 62
7
370
-1
  6
CONTINUOUS
 10
272.5183660000000145
 20
81.775109999999998
 30
0.0
 11
272.5183660000000145
 21
73.775109999999998
 31
0.0
  0
LINE
  5
422
100
AcDbEntity
100
AcDbLine
  8
FORT
 62
7
370
-1
  6
CONTINUOUS
 10
274.5183660000000145
 20
81.775109999999998
 30
0.0
 11
274.5183660000000145
 21
83.775109999999998
 31
0.0
  0
LINE
  5
423
100
AcDbEntity
100
AcDbLine
  8
FORT
 62
7
370
-1
  6
CONTINUOUS
 10
274.5183660000000145
 20
95.275109999999998
 30
0.0
 11
271.5183660000000145
 21
95.275109999999998
 31
0.0
  0
LINE
  5
424
100
AcDbEntity
100
AcDbLine
  8
FORT
 62
7
370
-1
  6
CONTINUOUS
 10
267.5183660000000145
 20
91.775109999999998
 30
0.0
 11
268.5183660000000145
 21
91.775109999999998
 31
0.0
  0
LINE
  5
425
100
AcDbEntity
100
AcDbLine
  8
FORT
 62
7
370
-1
  6
CONTINUOUS
 10
269.5183660000000145
 20
72.775109999999998
 30
0.0
 11
269.5183660000000145
 21
82.775109999999998
 31
0.0
  0
LINE
  5
426
100
AcDbEntity
100
AcDbLine
  8
FIN
 62
5
370
-1
  6
CONTINUOUS
 10
254.626544999999993
 20
77.9811940000000021
 30
0.0
 11
268.5183660000000145
 21
80.4703389999999956
 31
0.0
  0
LINE
  5
427
100
AcDbEntity
100
AcDbLine
  8
FIN
 62
5
370
-1
  6
CONTINUOUS
 10
254.626544999999993
 20
87.9811940000000021
 30
0.0
 11
275.0844920000000116
 21
87.9811940000000021
 31
0.0
  0
CIRCLE
  5
428
100
AcDbEntity
100
AcDbCircle
  8
FORT
 62
7
370
-1
  6
CONTINUOUS
 10
275.0844920000000116
 20
87.9811940000000021
 30
0.0
 40
0.25
  0
CIRCLE
  5
429
100
AcDbEntity
100
AcDbCircle
  8
FORT
 62
7
370
-1
  6
CONTINUOUS
 10
278.260830999999996
 20
76.1175779999999946
 30
0.0
 40
0.25
  0
LINE
  5
42A
100
AcDbEntity
100
AcDbLine
  8
FORT
 62
7
370
-1
  6
CONTINUOUS
 10
265.6801159999999982
 20
80.424508000000003
 30
0.0
 11
268.5183660000000145
 21
80.4703389999999956
 31
0.0
  0
LINE
  5
42B
100
AcDbEntity
100
AcDbLine
  8
FORT
 62
7
370
-1
  6
CONTINUOUS
 10
265.8483870000000024
 20
79.5065069999999992
 30
0.0
 11
268.5183660000000145
 21
80.4703389999999956
 31
0.0
  0
LINE
  5
42C
100
AcDbEntity
100
AcDbLine
  8
FORT
 62
7
370
-1
  6
CONTINUOUS
 10
286.6111549999999966
 20
147.2751100000000122
 30
0.0
 11
273.2556349999999838
 21
145.5053220000000067
 31
0.0
  0
LINE
  5
42D
100
AcDbEntity
100
AcDbLine
  8
FORT
 62
7
370
-1
  6
CONTINUOUS
 10
274.5183660000000145
 20
121.275109999999998
 30
0.0
 11
274.5183660000000145
 21
145.6726510000000019
 31
0.0
  0
LINE
  5
42E
100
AcDbEntity
100
AcDbLine
  8
FORT
 62
7
370
-1
  6
CONTINUOUS
 10
274.5183660000000145
 20
115.275109999999998
 30
0.0
 11
271.5183660000000145
 21
115.275109999999998
 31
0.0
  0
LINE
  5
42F
100
AcDbEntity
100
AcDbLine
  8
FORT
 62
7
370
-1
  6
CONTINUOUS
 10
274.5183660000000145
 20
121.275109999999998
 30
0.0
 11
271.5183660000000145
 21
121.275109999999998
 31
0.0
  0
ARC
  5
430
100
AcDbEntity
  8
FORT
 62
7
370
-1
  6
CONTINUOUS
100
AcDbCircle
 10
273.5183660000000145
 20
143.5226539999999886
 30
0.0
 40
2.0
100
AcDbArc
 50
97.548491999999996
 51
180.0
  0
LINE
  5
431
100
AcDbEntity
100
AcDbLine
  8
FORT
 62
7
370
-1
  6
CONTINUOUS
 10
303.5183660000000145
 20
102.9874259999999992
 30
0.0
 11
303.5183660000000145
 21
108.275109999999998
 31
0.0
  0
CIRCLE
  5
432
100
AcDbEntity
100
AcDbCircle
  8
FORT
 62
7
370
-1
  6
CONTINUOUS
 10
317.9152189999999791
 20
87.9811940000000021
 30
0.0
 40
0.25
  0
LINE
  5
433
100
AcDbEntity
100
AcDbLine
  8
FORT
 62
7
370
-1
  6
CONTINUOUS
 10
325.3157749999999737
 20
77.4992600000000067
 30
0.0
 11
322.5183660000000145
 21
77.9811940000000021
 31
0.0
  0
LINE
  5
434
100
AcDbEntity
100
AcDbLine
  8
FORT
 62
7
370
-1
  6
CONTINUOUS
 10
325.320873000000006
 20
78.432541999999998
 30
0.0
 11
322.5183660000000145
 21
77.9811940000000021
 31
0.0
  0
LINE
  5
435
100
AcDbEntity
100
AcDbLine
  8
FIN
 62
5
370
-1
  6
CONTINUOUS
 10
336.6589849999999728
 20
87.9811940000000021
 30
0.0
 11
317.9152189999999791
 21
87.9811940000000021
 31
0.0
  0
LINE
  5
436
100
AcDbEntity
100
AcDbLine
  8
FIN
 62
5
370
-1
  6
CONTINUOUS
 10
336.4101870000000076
 20
77.9811940000000021
 30
0.0
 11
322.5183660000000145
 21
77.9811940000000021
 31
0.0
  0
LINE
  5
437
100
AcDbEntity
100
AcDbLine
  8
FORT
 62
7
370
-1
  6
CONTINUOUS
 10
292.7091110000000072
 20
128.3146340000000123
 30
0.0
 11
293.6424450000000093
 21
125.5146340000000009
 31
0.0
  0
LINE
  5
438
100
AcDbEntity
100
AcDbLine
  8
FORT
 62
7
370
-1
  6
CONTINUOUS
 10
292.7091110000000072
 20
128.3146340000000123
 30
0.0
 11
291.7757780000000025
 21
125.5146340000000009
 31
0.0
  0
LINE
  5
439
100
AcDbEntity
100
AcDbLine
  8
FORT
 62
7
370
-1
  6
CONTINUOUS
 10
292.7091110000000072
 20
118.8960229999999996
 30
0.0
 11
292.7091110000000072
 21
128.3146340000000123
 31
0.0
  0
LINE
  5
43A
100
AcDbEntity
100
AcDbLine
  8
FORT
 62
7
370
-1
  6
CONTINUOUS
 10
303.5183660000000145
 20
139.2751100000000122
 30
0.0
 11
303.5183660000000145
 21
145.2751100000000122
 31
0.0
  0
LWPOLYLINE
  5
43B
  8
FORT
 62
7
370
-1
  6
CONTINUOUS
100
AcDbEntity
100
AcDbPolyline
 90
6
 70
1
 10
393.0623049999999807
 20
88.2663679999999999
 10
393.0623049999999807
 20
72.100560999999999
 10
379.0623049999999807
 20
64.0176569999999998
 10
365.0623049999999807
 20
72.100560999999999
 10
365.0623049999999807
 20
88.2663679999999999
 10
379.0623049999999807
 20
96.3492719999999991
  0
CIRCLE
  5
43C
100
AcDbEntity
100
AcDbCircle
  8
FORT
 62
7
370
-1
  6
CONTINUOUS
 10
379.0623049999999807
 20
80.1834649999999982
 30
0.0
 40
3.0
  0
CIRCLE
  5
43D
100
AcDbEntity
100
AcDbCircle
  8
FORT
 62
7
370
-1
  6
CONTINUOUS
 10
379.0623049999999807
 20
80.1834649999999982
 30
0.0
 40
5.0
  0
LINE
  5
43E
100
AcDbEntity
100
AcDbLine
  8
FORT
 62
7
370
-1
  6
CONTINUOUS
 10
386.0623049999999807
 20
148.3341719999999953
 30
0.0
 11
388.6016970000000015
 21
148.3341719999999953
 31
0.0
  0
LINE
  5
43F
100
AcDbEntity
100
AcDbLine
  8
FORT
 62
7
370
-1
  6
CONTINUOUS
 10
285.5183660000000145
 20
177.2751100000000122
 30
0.0
 11
285.5183660000000145
 21
233.2751100000000122
 31
0.0
  0
LINE
  5
440
100
AcDbEntity
100
AcDbLine
  8
FORT
 62
7
370
-1
  6
CONTINUOUS
 10
302.5183660000000145
 20
177.2751100000000122
 30
0.0
 11
302.5183660000000145
 21
231.2751100000000122
 31
0.0
  0
LINE
  5
441
100
AcDbEntity
100
AcDbLine
  8
FIN
 62
5
370
-1
  6
CONTINUOUS
 10
254.626544999999993
 20
232.9811939999999879
 30
0.0
 11
270.0183660000000145
 21
219.2751100000000122
 31
0.0
  0
LINE
  5
442
100
AcDbEntity
100
AcDbLine
  8
FORT
 62
7
370
-1
  6
CONTINUOUS
 10
313.5183660000000145
 20
213.2751100000000122
 30
0.0
 11
313.5183660000000145
 21
228.2751100000000122
 31
0.0
  0
LINE
  5
443
100
AcDbEntity
100
AcDbLine
  8
FORT
 62
7
370
-1
  6
CONTINUOUS
 10
305.0707689999999843
 20
216.2751100000000122
 30
0.0
 11
305.0707689999999843
 21
233.2751100000000122
 31
0.0
  0
LINE
  5
444
100
AcDbEntity
100
AcDbLine
  8
FORT
 62
7
370
-1
  6
CONTINUOUS
 10
310.5183660000000145
 20
210.2751100000000122
 30
0.0
 11
310.5183660000000145
 21
228.2751100000000122
 31
0.0
  0
LINE
  5
445
100
AcDbEntity
100
AcDbLine
  8
FORT
 62
7
370
-1
  6
CONTINUOUS
 10
277.5183660000000145
 20
228.2751100000000122
 30
0.0
 11
277.5183660000000145
 21
213.2751100000000122
 31
0.0
  0
LINE
  5
446
100
AcDbEntity
100
AcDbLine
  8
FORT
 62
7
370
-1
  6
CONTINUOUS
 10
280.5183660000000145
 20
210.2751100000000122
 30
0.0
 11
280.5183660000000145
 21
228.2751100000000122
 31
0.0
  0
LWPOLYLINE
  5
447
  8
HACHURE
 62
5
370
-1
  6
CONTINUOUS
100
AcDbEntity
100
AcDbPolyline
 90
16
 70
1
 10
288.5183660000000145
 20
236.2751100000000122
 10
283.7683660000000145
 20
236.2751100000000122
 42
0.3419990000000043
 10
281.8318739999999707
 20
234.7751100000000122
 10
282.5183660000000145
 20
234.7751100000000122
 42
-0.9999999999999999
 10
282.5183660000000145
 20
233.2751100000000122
 42
0.4142140000192041
 10
277.5183660000000145
 20
228.2751099996721678
 10
277.5183660000000145
 20
213.2751100000000122
 10
273.5183660000000145
 20
213.2751100000000122
 10
273.5183660000000145
 20
210.2751100000000122
 10
280.5183660000000145
 20
210.2751100000000122
 10
280.5183660000000145
 20
228.2751100000000122
 42
-0.4142140000378062
 10
282.5183660000000145
 20
230.2751100000000122
 10
283.0183660000000145
 20
230.2751100000000122
 42
0.4142140000192059
 10
285.5183660000000145
 20
232.7751100001639486
 10
285.5183660000000145
 20
233.2751100000000122
 10
288.5183660000000145
 20
233.2751100000000122
  0
INSERT
  5
448
100
AcDbEntity
100
AcDbBlockReference
  8
HACHURE
 62
256
370
-1
  6
ByLayer
  2
DESENS-G13
 10
0.0
 20
0.0
 30
0.0
  0
LWPOLYLINE
  5
449
  8
HACHURE
 62
5
370
-1
  6
CONTINUOUS
100
AcDbEntity
100
AcDbPolyline
 90
16
 70
1
 10
308.5183660000000145
 20
233.2751100000000122
 42
-0.9999999999999999
 10
308.5183660000000145
 20
234.7751100000000122
 10
309.2048570000000041
 20
234.7751100000000122
 42
0.3419989999999988
 10
307.2683660000000145
 20
236.2751100000000122
 10
302.5183660000000145
 20
236.2751100000000122
 10
302.5183660000000145
 20
233.2751100000000122
 10
305.5183660000000145
 20
233.2751100000000122
 10
305.5183660000000145
 20
232.7751100000000122
 42
0.414214000037803
 10
308.0183660000000145
 20
230.2751100000000122
 10
308.5183660000000145
 20
230.2751100000000122
 42
-0.4142140000192008
 10
310.5183660000000145
 20
228.2751099998688744
 10
310.5183660000000145
 20
210.2751100000000122
 10
317.5183660000000145
 20
210.2751100000000122
 10
317.5183660000000145
 20
213.2751100000000122
 10
313.5183660000000145
 20
213.2751100000000122
 10
313.5183660000000145
 20
228.2751100000000122
 42
0.4142140000378079
  0
INSERT
  5
44A
100
AcDbEntity
100
AcDbBlockReference
  8
HACHURE
 62
256
370
-1
  6
ByLayer
  2
DESENS-G14
 10
0.0
 20
0.0
 30
0.0
  0
LINE
  5
44B
100
AcDbEntity
100
AcDbLine
  8
FORT
 62
7
370
-1
  6
CONTINUOUS
 10
300.5183660000000145
 20
237.2751100000000122
 30
0.0
 11
300.5183660000000145
 21
192.2751100000000122
 31
0.0
  0
LINE
  5
44C
100
AcDbEntity
100
AcDbLine
  8
FORT
 62
7
370
-1
  6
CONTINUOUS
 10
290.5183660000000145
 20
192.2751100000000122
 30
0.0
 11
290.5183660000000145
 21
237.2751100000000122
 31
0.0
  0
LINE
  5
44D
100
AcDbEntity
100
AcDbLine
  8
FIN
 62
5
370
-1
  6
CONTINUOUS
 10
336.4101870000000076
 20
222.9811939999999879
 30
0.0
 11
298.9492569999999887
 21
231.5756000000000085
 31
0.0
  0
LWPOLYLINE
  5
44E
  8
HACHURE
 62
5
370
-1
  6
CONTINUOUS
100
AcDbEntity
100
AcDbPolyline
 90
27
 70
1
 10
305.5183660000000145
 20
250.7751100000000122
 10
299.5183660000000145
 20
250.7751100000000122
 10
299.5183660000000145
 20
241.2751100000000122
 10
291.5183660000000145
 20
241.2751100000000122
 10
291.5183660000000145
 20
250.7751100000000122
 10
285.5183660000000145
 20
250.7751100000000122
 10
285.5183660000000145
 20
236.2751100000000122
 10
288.5183660000000145
 20
236.2751100000000122
 10
288.5183660000000145
 20
233.2751100000000122
 10
285.5183660000000145
 20
233.2751100000000122
 10
285.5183660000000145
 20
177.2751100000000122
 10
289.5183660000000145
 20
177.2751100000000122
 10
289.5183660000000145
 20
191.2751100000000122
 10
290.5183660000000145
 20
192.2751100000000122
 10
290.5183660000000145
 20
237.2751100000000122
 10
295.5183660000000145
 20
240.1618620000000135
 10
300.5183660000000145
 20
237.2751100000000122
 10
300.5183660000000145
 20
192.2751100000000122
 10
301.5183660000000145
 20
191.2751100000000122
 10
301.5183660000000145
 20
177.2751100000000122
 10
302.5183660000000145
 20
177.2751100000000122
 10
302.5183660000000145
 20
231.2751100000000122
 42
-0.0462729999714308
 10
302.7038559999999734
 20
233.2751100000000122
 10
302.5183660000000145
 20
233.2751100000000122
 10
302.5183660000000145
 20
236.2751100000000122
 10
303.735952999999995
 20
236.2751100000000122
 42
-0.070938
 10
305.5183660000000145
 20
238.7751100000000122
  0
INSERT
  5
44F
100
AcDbEntity
100
AcDbBlockReference
  8
HACHURE
 62
256
370
-1
  6
ByLayer
  2
DESENS-G15
 10
0.0
 20
0.0
 30
0.0
  0
LINE
  5
450
100
AcDbEntity
100
AcDbLine
  8
FORT
 62
7
370
-1
  6
CONTINUOUS
 10
303.0183660000000145
 20
156.2751100000000122
 30
0.0
 11
288.0183660000000145
 21
156.2751100000000122
 31
0.0
  0
LINE
  5
451
100
AcDbEntity
100
AcDbLine
  8
FORT
 62
7
370
-1
  6
CONTINUOUS
 10
303.0183660000000145
 20
154.2751100000000122
 30
0.0
 11
288.0183660000000145
 21
154.2751100000000122
 31
0.0
  0
LINE
  5
452
100
AcDbEntity
100
AcDbLine
  8
FORT
 62
7
370
-1
  6
CONTINUOUS
 10
303.5183660000000145
 20
152.7751100000000122
 30
0.0
 11
287.5183660000000145
 21
152.7751100000000122
 31
0.0
  0
LINE
  5
453
100
AcDbEntity
100
AcDbLine
  8
FORT
 62
7
370
-1
  6
CONTINUOUS
 10
308.5183660000000145
 20
149.2751100000000122
 30
0.0
 11
282.5183660000000145
 21
149.2751100000000122
 31
0.0
  0
LINE
  5
454
100
AcDbEntity
100
AcDbLine
  8
FORT
 62
7
370
-1
  6
CONTINUOUS
 10
300.5183660000000145
 20
195.2751100000000122
 30
0.0
 11
290.5183660000000145
 21
195.2751100000000122
 31
0.0
  0
LINE
  5
455
100
AcDbEntity
100
AcDbLine
  8
FORT
 62
7
370
-1
  6
CONTINUOUS
 10
300.5183660000000145
 20
192.2751100000000122
 30
0.0
 11
290.5183660000000145
 21
192.2751100000000122
 31
0.0
  0
LINE
  5
456
100
AcDbEntity
100
AcDbLine
  8
FORT
 62
7
370
-1
  6
CONTINUOUS
 10
289.5183660000000145
 20
202.0015019999999879
 30
0.0
 11
301.5183660000000145
 21
202.0015019999999879
 31
0.0
  0
LINE
  5
457
100
AcDbEntity
100
AcDbLine
  8
FORT
 62
7
370
-1
  6
CONTINUOUS
 10
292.5183660000000145
 20
166.2751100000000122
 30
0.0
 11
273.5183660000000145
 21
166.2751100000000122
 31
0.0
  0
LINE
  5
458
100
AcDbEntity
100
AcDbLine
  8
FORT
 62
7
370
-1
  6
CONTINUOUS
 10
292.5183660000000145
 20
170.2751100000000122
 30
0.0
 11
290.5183660000000145
 21
170.2751100000000122
 31
0.0
  0
LINE
  5
459
100
AcDbEntity
100
AcDbLine
  8
FORT
 62
7
370
-1
  6
CONTINUOUS
 10
292.5183660000000145
 20
165.0251100000000122
 30
0.0
 11
285.2683660000000145
 21
165.0251100000000122
 31
0.0
  0
CIRCLE
  5
45A
100
AcDbEntity
100
AcDbCircle
  8
FORT
 62
7
370
-1
  6
CONTINUOUS
 10
291.0693360000000212
 20
155.1162109999999927
 30
0.0
 40
0.25
  0
LWPOLYLINE
  5
45B
  8
HACHURE
 62
5
370
-1
  6
CONTINUOUS
100
AcDbEntity
100
AcDbPolyline
 90
4
 70
1
 10
303.0183660000000145
 20
156.2751100000000122
 10
288.0183660000000145
 20
156.2751100000000122
 10
288.0183660000000145
 20
154.2751100000000122
 10
303.0183660000000145
 20
154.2751100000000122
  0
INSERT
  5
45C
100
AcDbEntity
100
AcDbBlockReference
  8
HACHURE
 62
256
370
-1
  6
ByLayer
  2
DESENS-G16
 10
0.0
 20
0.0
 30
0.0
  0
LWPOLYLINE
  5
45D
  8
HACHURE
 62
5
370
-1
  6
CONTINUOUS
100
AcDbEntity
100
AcDbPolyline
 90
34
 70
1
 10
282.5183660000000145
 20
162.2751100000000122
 10
282.5183660000000145
 20
160.7751100000000122
 10
276.5183660000000145
 20
160.7751100000000122
 10
276.5183660000000145
 20
159.2751100000000122
 10
282.9402099999999791
 20
159.2751100000000122
 42
0.4142140000192091
 10
283.9402099999999791
 20
160.2751100000655526
 10
283.9402099999999791
 20
162.2751100000000122
 42
-0.9999999999999999
 10
286.5183660000000145
 20
162.2751100000000122
 10
286.5183660000000145
 20
153.7751100000000122
 42
0.4142140000378061
 10
287.5183660000000145
 20
152.7751100000000122
 10
303.5183660000000145
 20
152.7751100000000122
 42
0.4142140000192091
 10
304.5183660000000145
 20
153.7751100000655526
 10
304.5183660000000145
 20
162.2751100000000122
 42
-0.9999999999999999
 10
307.09652200000005
 20
162.2751100000000122
 10
307.0965219999999931
 20
160.2751100000000122
 42
0.4142140000378061
 10
308.0965219999999931
 20
159.2751100000000122
 10
314.5183660000000145
 20
159.2751100000000122
 10
314.5183660000000145
 20
160.7751100000000122
 10
308.5183660000000145
 20
160.7751100000000122
 10
308.5183660000000145
 20
162.2751100000000122
 42
0.9999999999999999
 10
303.0183660000000145
 20
162.2751100000000122
 10
303.0183660000000145
 20
158.2751100000000122
 42
-0.2679489999211224
 10
302.5183660000000145
 20
157.409085000000033
 42
0.2679489999599277
 10
302.0183660000000145
 20
156.543060000149552
 10
302.0183660000000145
 20
156.2751100000000122
 10
303.0183660000000145
 20
156.2751100000000122
 10
303.0183660000000145
 20
154.2751100000000122
 10
288.0183660000000145
 20
154.2751100000000122
 10
288.0183660000000145
 20
156.2751100000000122
 10
289.0183660000000145
 20
156.2751100000000122
 10
289.0183660000000145
 20
156.543059999999997
 42
0.2679489999211225
 10
288.5183660000000145
 20
157.4090849999999762
 42
-0.2679489999599275
 10
288.0183660000000145
 20
158.2751099998504571
 10
288.0183660000000145
 20
162.2751100000000122
 42
0.9999999999999999
  0
INSERT
  5
45E
100
AcDbEntity
100
AcDbBlockReference
  8
HACHURE
 62
256
370
-1
  6
ByLayer
  2
DESENS-G17
 10
0.0
 20
0.0
 30
0.0
  0
LWPOLYLINE
  5
45F
  8
HACHURE
 62
5
370
-1
  6
CONTINUOUS
100
AcDbEntity
100
AcDbPolyline
 90
9
 70
1
 10
292.5183660000000145
 20
192.2751100000000122
 10
290.5183660000000145
 20
192.2751100000000122
 10
289.5183660000000145
 20
191.2751100000000122
 10
289.5183660000000145
 20
177.2751100000000122
 10
281.5183660000000145
 20
177.2751100000000122
 10
281.5183660000000145
 20
173.2751100000000122
 10
290.5183660000000145
 20
173.2751100000000122
 10
290.5183660000000145
 20
170.2751100000000122
 10
292.5183660000000145
 20
170.2751100000000122
  0
INSERT
  5
460
100
AcDbEntity
100
AcDbBlockReference
  8
HACHURE
 62
256
370
-1
  6
ByLayer
  2
DESENS-G18
 10
0.0
 20
0.0
 30
0.0
  0
LINE
  5
461
100
AcDbEntity
100
AcDbLine
  8
FORT
 62
7
370
-1
  6
CONTINUOUS
 10
282.5183660000000145
 20
216.2751100000000122
 30
0.0
 11
282.5183660000000145
 21
177.2751100000000122
 31
0.0
  0
LINE
  5
462
100
AcDbEntity
100
AcDbLine
  8
FORT
 62
7
370
-1
  6
CONTINUOUS
 10
289.5183660000000145
 20
177.2751100000000122
 30
0.0
 11
289.5183660000000145
 21
191.2751100000000122
 31
0.0
  0
LINE
  5
463
100
AcDbEntity
100
AcDbLine
  8
FORT
 62
7
370
-1
  6
CONTINUOUS
 10
279.0183660000000145
 20
177.2751100000000122
 30
0.0
 11
279.0183660000000145
 21
207.2751100000000122
 31
0.0
  0
LINE
  5
464
100
AcDbEntity
100
AcDbLine
  8
FORT
 62
7
370
-1
  6
CONTINUOUS
 10
271.5183660000000145
 20
207.2751100000000122
 30
0.0
 11
271.5183660000000145
 21
180.2751100000000122
 31
0.0
  0
LINE
  5
465
100
AcDbEntity
100
AcDbLine
  8
FIN
 62
5
370
-1
  6
CONTINUOUS
 10
290.5183660000000145
 20
179.0071609999999964
 30
0.0
 11
290.5183660000000145
 21
192.2751100000000122
 31
0.0
  0
LWPOLYLINE
  5
466
  8
HACHURE
 62
5
370
-1
  6
CONTINUOUS
100
AcDbEntity
100
AcDbPolyline
 90
12
 70
1
 10
282.5183660000000145
 20
216.2751100000000122
 10
280.5183660000000145
 20
216.2751100000000122
 10
280.5183660000000145
 20
210.2751100000000122
 10
273.5183660000000145
 20
210.2751100000000122
 10
273.5183660000000145
 20
213.2751100000000122
 10
268.5183660000000145
 20
213.2751100000000122
 10
268.5183660000000145
 20
180.2751100000000122
 10
271.5183660000000145
 20
180.2751100000000122
 10
271.5183660000000145
 20
207.2751100000000122
 10
279.0183660000000145
 20
207.2751100000000122
 10
279.0183660000000145
 20
177.2751100000000122
 10
282.5183660000000145
 20
177.2751100000000122
  0
INSERT
  5
467
100
AcDbEntity
100
AcDbBlockReference
  8
HACHURE
 62
256
370
-1
  6
ByLayer
  2
DESENS-G19
 10
0.0
 20
0.0
 30
0.0
  0
LWPOLYLINE
  5
468
  8
HACHURE
 62
5
370
-1
  6
CONTINUOUS
100
AcDbEntity
100
AcDbPolyline
 90
4
 70
1
 10
285.5183660000000145
 20
189.2751100000000122
 10
282.5183660000000145
 20
189.2751100000000122
 10
282.5183660000000145
 20
177.2751100000000122
 10
285.5183660000000145
 20
177.2751100000000122
  0
INSERT
  5
469
100
AcDbEntity
100
AcDbBlockReference
  8
HACHURE
 62
256
370
-1
  6
ByLayer
  2
DESENS-G20
 10
0.0
 20
0.0
 30
0.0
  0
LINE
  5
46A
100
AcDbEntity
100
AcDbLine
  8
FORT
 62
7
370
-1
  6
CONTINUOUS
 10
279.0183660000000145
 20
180.2751100000000122
 30
0.0
 11
268.5183660000000145
 21
180.2751100000000122
 31
0.0
  0
LINE
  5
46B
100
AcDbEntity
100
AcDbLine
  8
FORT
 62
7
370
-1
  6
CONTINUOUS
 10
279.5183660000000145
 20
151.2751100000000122
 30
0.0
 11
268.5183660000000145
 21
151.2751100000000122
 31
0.0
  0
LINE
  5
46C
100
AcDbEntity
100
AcDbLine
  8
FORT
 62
7
370
-1
  6
CONTINUOUS
 10
279.5183660000000145
 20
156.2751100000000122
 30
0.0
 11
272.5183660000000145
 21
156.2751100000000122
 31
0.0
  0
LINE
  5
46D
100
AcDbEntity
100
AcDbLine
  8
FORT
 62
7
370
-1
  6
CONTINUOUS
 10
279.9210580000000164
 20
160.7751100000000122
 30
0.0
 11
276.5183660000000145
 21
161.5614009999999894
 31
0.0
  0
LINE
  5
46E
100
AcDbEntity
100
AcDbLine
  8
FORT
 62
7
370
-1
  6
CONTINUOUS
 10
282.5183660000000145
 20
160.7751100000000122
 30
0.0
 11
276.5183660000000145
 21
160.7751100000000122
 31
0.0
  0
LINE
  5
46F
100
AcDbEntity
100
AcDbLine
  8
FORT
 62
7
370
-1
  6
CONTINUOUS
 10
286.5183660000000145
 20
159.2751100000000122
 30
0.0
 11
276.5183660000000145
 21
159.2751100000000122
 31
0.0
  0
LINE
  5
470
100
AcDbEntity
100
AcDbLine
  8
FORT
 62
7
370
-1
  6
CONTINUOUS
 10
283.3809069999999792
 20
164.2751100000000122
 30
0.0
 11
276.5183660000000145
 21
164.2751100000000122
 31
0.0
  0
LINE
  5
471
100
AcDbEntity
100
AcDbLine
  8
FORT
 62
7
370
-1
  6
CONTINUOUS
 10
276.8602389999999787
 20
163.0408649999999966
 30
0.0
 11
276.5183660000000145
 21
161.5614009999999894
 31
0.0
  0
LINE
  5
472
100
AcDbEntity
100
AcDbLine
  8
FORT
 62
7
370
-1
  6
CONTINUOUS
 10
281.5183660000000145
 20
173.2751100000000122
 30
0.0
 11
281.5183660000000145
 21
177.2751100000000122
 31
0.0
  0
LINE
  5
473
100
AcDbEntity
100
AcDbLine
  8
FORT
 62
7
370
-1
  6
CONTINUOUS
 10
290.5183660000000145
 20
173.2751100000000122
 30
0.0
 11
281.5183660000000145
 21
173.2751100000000122
 31
0.0
  0
LINE
  5
474
100
AcDbEntity
100
AcDbLine
  8
FORT
 62
7
370
-1
  6
CONTINUOUS
 10
290.5183660000000145
 20
173.2751100000000122
 30
0.0
 11
290.5183660000000145
 21
170.2751100000000122
 31
0.0
  0
LINE
  5
475
100
AcDbEntity
100
AcDbLine
  8
FORT
 62
7
370
-1
  6
CONTINUOUS
 10
288.0183660000000145
 20
154.2751100000000122
 30
0.0
 11
288.0183660000000145
 21
156.2751100000000122
 31
0.0
  0
ARC
  5
476
100
AcDbEntity
  8
FORT
 62
7
370
-1
  6
CONTINUOUS
100
AcDbCircle
 10
287.5183660000000145
 20
153.7751100000000122
 30
0.0
 40
1.0
100
AcDbArc
 50
180.0
 51
270.0
  0
LINE
  5
477
100
AcDbEntity
100
AcDbLine
  8
FORT
 62
7
370
-1
  6
CONTINUOUS
 10
289.0183660000000145
 20
156.2751100000000122
 30
0.0
 11
289.0183660000000145
 21
156.543059999999997
 31
0.0
  0
ARC
  5
478
100
AcDbEntity
  8
FORT
 62
7
370
-1
  6
CONTINUOUS
100
AcDbCircle
 10
288.0183660000000145
 20
156.543059999999997
 30
0.0
 40
1.0
100
AcDbArc
 50
0.0
 51
59.9999999999999929
  0
ARC
  5
479
100
AcDbEntity
  8
FORT
 62
7
370
-1
  6
CONTINUOUS
100
AcDbCircle
 10
289.0183660000000145
 20
158.2751100000000122
 30
0.0
 40
1.0
100
AcDbArc
 50
180.0
 51
239.9999999999999716
  0
ARC
  5
47A
100
AcDbEntity
  8
FORT
 62
7
370
-1
  6
CONTINUOUS
100
AcDbCircle
 10
282.9402099999999791
 20
160.2751100000000122
 30
0.0
 40
1.0
100
AcDbArc
 50
270.0
 51
0.0
  0
LINE
  5
47B
100
AcDbEntity
100
AcDbLine
  8
FORT
 62
7
370
-1
  6
CONTINUOUS
 10
282.5183660000000145
 20
162.2751100000000122
 30
0.0
 11
282.5183660000000145
 21
160.7751100000000122
 31
0.0
  0
ARC
  5
47C
100
AcDbEntity
  8
FORT
 62
7
370
-1
  6
CONTINUOUS
100
AcDbCircle
 10
285.2292879999999968
 20
162.2751100000000122
 30
0.0
 40
1.2890779999999999
100
AcDbArc
 50
0.0
 51
180.0
  0
ARC
  5
47D
100
AcDbEntity
  8
FORT
 62
7
370
-1
  6
CONTINUOUS
100
AcDbCircle
 10
285.2683660000000145
 20
162.2751100000000122
 30
0.0
 40
2.75
100
AcDbArc
 50
0.0
 51
180.0
  0
LINE
  5
47E
100
AcDbEntity
100
AcDbLine
  8
FORT
 62
7
370
-1
  6
CONTINUOUS
 10
283.9402099999999791
 20
160.2751100000000122
 30
0.0
 11
283.9402099999999791
 21
162.2751100000000122
 31
0.0
  0
LINE
  5
47F
100
AcDbEntity
100
AcDbLine
  8
FORT
 62
7
370
-1
  6
CONTINUOUS
 10
282.5183660000000145
 20
149.2751100000000122
 30
0.0
 11
282.5183660000000145
 21
159.2751100000000122
 31
0.0
  0
LINE
  5
480
100
AcDbEntity
100
AcDbLine
  8
FORT
 62
7
370
-1
  6
CONTINUOUS
 10
286.5183660000000145
 20
153.7751100000000122
 30
0.0
 11
286.5183660000000145
 21
162.2751100000000122
 31
0.0
  0
LINE
  5
481
100
AcDbEntity
100
AcDbLine
  8
FORT
 62
7
370
-1
  6
CONTINUOUS
 10
288.0183660000000145
 20
158.2751100000000122
 30
0.0
 11
288.0183660000000145
 21
162.2751100000000122
 31
0.0
  0
LINE
  5
482
100
AcDbEntity
100
AcDbLine
  8
FORT
 62
7
370
-1
  6
CONTINUOUS
 10
279.5183660000000145
 20
156.2751100000000122
 30
0.0
 11
279.5183660000000145
 21
151.2751100000000122
 31
0.0
  0
LINE
  5
483
100
AcDbEntity
100
AcDbLine
  8
FORT
 62
7
370
-1
  6
CONTINUOUS
 10
280.1740589999999997
 20
162.2751100000000122
 30
0.0
 11
276.8602389999999787
 21
163.0408649999999966
 31
0.0
  0
LINE
  5
484
100
AcDbEntity
100
AcDbLine
  8
FORT
 62
7
370
-1
  6
CONTINUOUS
 10
282.5183660000000145
 20
162.2751100000000122
 30
0.0
 11
280.1740589999999997
 21
162.2751100000000122
 31
0.0
  0
LINE
  5
485
100
AcDbEntity
100
AcDbLine
  8
FORT
 62
7
370
-1
  6
CONTINUOUS
 10
267.5183660000000145
 20
179.2751100000000122
 30
0.0
 11
267.5183660000000145
 21
158.2751100000000122
 31
0.0
  0
LINE
  5
486
100
AcDbEntity
100
AcDbLine
  8
FORT
 62
7
370
-1
  6
CONTINUOUS
 10
273.5183660000000145
 20
166.2751100000000122
 30
0.0
 11
273.5183660000000145
 21
180.2751100000000122
 31
0.0
  0
LINE
  5
487
100
AcDbEntity
100
AcDbLine
  8
FORT
 62
7
370
-1
  6
CONTINUOUS
 10
267.5183660000000145
 20
158.2751100000000122
 30
0.0
 11
268.5183660000000145
 21
158.2751100000000122
 31
0.0
  0
LINE
  5
488
100
AcDbEntity
100
AcDbLine
  8
FORT
 62
7
370
-1
  6
CONTINUOUS
 10
272.5183660000000145
 20
161.2751100000000122
 30
0.0
 11
268.5183660000000145
 21
161.2751100000000122
 31
0.0
  0
LINE
  5
489
100
AcDbEntity
100
AcDbLine
  8
FORT
 62
7
370
-1
  6
CONTINUOUS
 10
272.5183660000000145
 20
156.2751100000000122
 30
0.0
 11
272.5183660000000145
 21
161.2751100000000122
 31
0.0
  0
LINE
  5
48A
100
AcDbEntity
100
AcDbLine
  8
FORT
 62
7
370
-1
  6
CONTINUOUS
 10
276.5183660000000145
 20
164.2751100000000122
 30
0.0
 11
273.5183660000000145
 21
166.2751100000000122
 31
0.0
  0
LINE
  5
48B
100
AcDbEntity
100
AcDbLine
  8
FORT
 62
7
370
-1
  6
CONTINUOUS
 10
276.5183660000000145
 20
159.2751100000000122
 30
0.0
 11
276.5183660000000145
 21
164.2751100000000122
 31
0.0
  0
LINE
  5
48C
100
AcDbEntity
100
AcDbLine
  8
FORT
 62
7
370
-1
  6
CONTINUOUS
 10
268.5183660000000145
 20
179.2751100000000122
 30
0.0
 11
267.5183660000000145
 21
179.2751100000000122
 31
0.0
  0
LINE
  5
48D
100
AcDbEntity
100
AcDbLine
  8
FORT
 62
7
370
-1
  6
CONTINUOUS
 10
279.0183660000000145
 20
177.2751100000000122
 30
0.0
 11
289.5183660000000145
 21
177.2751100000000122
 31
0.0
  0
LINE
  5
48E
100
AcDbEntity
100
AcDbLine
  8
FIN
 62
5
370
-1
  6
CONTINUOUS
 10
289.5183660000000145
 20
177.2751100000000122
 30
0.0
 11
290.5183660000000145
 21
179.0071609999999964
 31
0.0
  0
LINE
  5
48F
100
AcDbEntity
100
AcDbLine
  8
FIN
 62
5
370
-1
  6
CONTINUOUS
 10
254.626544999999993
 20
157.9811939999999879
 30
0.0
 11
279.6330270000000269
 21
161.6312200000000132
 31
0.0
  0
CIRCLE
  5
490
100
AcDbEntity
100
AcDbCircle
  8
FORT
 62
7
370
-1
  6
CONTINUOUS
 10
279.6330270000000269
 20
161.6312200000000132
 30
0.0
 40
0.25
  0
LINE
  5
491
100
AcDbEntity
100
AcDbLine
  8
FORT
 62
7
370
-1
  6
CONTINUOUS
 10
283.7021609999999896
 20
156.9609079999999892
 30
0.0
 11
286.5183660000000145
 21
157.3169320000000084
 31
0.0
  0
LINE
  5
492
100
AcDbEntity
100
AcDbLine
  8
FORT
 62
7
370
-1
  6
CONTINUOUS
 10
283.9698399999999765
 20
156.0668220000000019
 30
0.0
 11
286.5183660000000145
 21
157.3169320000000084
 31
0.0
  0
LINE
  5
493
100
AcDbEntity
100
AcDbLine
  8
FIN
 62
5
370
-1
  6
CONTINUOUS
 10
254.626544999999993
 20
167.9811939999999879
 30
0.0
 11
270.0070029999999974
 21
186.493456000000009
 31
0.0
  0
CIRCLE
  5
494
100
AcDbEntity
100
AcDbCircle
  8
FORT
 62
7
370
-1
  6
CONTINUOUS
 10
270.0070029999999974
 20
186.493456000000009
 30
0.0
 40
0.25
  0
LWPOLYLINE
  5
495
  8
HACHURE
 62
5
370
-1
  6
CONTINUOUS
100
AcDbEntity
100
AcDbPolyline
 90
6
 70
1
 10
282.5183660000000145
 20
162.2751100000000122
 10
280.1740589999999997
 20
162.2751100000000122
 10
276.8602389999999787
 20
163.0408649999999966
 10
276.5183660000000145
 20
161.5614009999999894
 10
279.9210580000000164
 20
160.7751100000000122
 10
282.5183660000000145
 20
160.7751100000000122
  0
INSERT
  5
496
100
AcDbEntity
100
AcDbBlockReference
  8
HACHURE
 62
256
370
-1
  6
ByLayer
  2
DESENS-G21
 10
0.0
 20
0.0
 30
0.0
  0
LINE
  5
497
100
AcDbEntity
100
AcDbLine
  8
FORT
 62
7
370
-1
  6
CONTINUOUS
 10
277.5183660000000145
 20
215.2751100000000122
 30
0.0
 11
268.5183660000000145
 21
215.2751100000000122
 31
0.0
  0
LINE
  5
498
100
AcDbEntity
100
AcDbLine
  8
FORT
 62
7
370
-1
  6
CONTINUOUS
 10
277.5183660000000145
 20
213.2751100000000122
 30
0.0
 11
268.5183660000000145
 21
213.2751100000000122
 31
0.0
  0
LINE
  5
499
100
AcDbEntity
100
AcDbLine
  8
FORT
 62
7
370
-1
  6
CONTINUOUS
 10
279.0183660000000145
 20
207.2751100000000122
 30
0.0
 11
271.5183660000000145
 21
207.2751100000000122
 31
0.0
  0
LINE
  5
49A
100
AcDbEntity
100
AcDbLine
  8
FORT
 62
7
370
-1
  6
CONTINUOUS
 10
290.5183660000000145
 20
192.2751100000000122
 30
0.0
 11
289.5183660000000145
 21
191.2751100000000122
 31
0.0
  0
LINE
  5
49B
100
AcDbEntity
100
AcDbLine
  8
FORT
 62
7
370
-1
  6
CONTINUOUS
 10
285.5183660000000145
 20
204.2751100000000122
 30
0.0
 11
282.5183660000000145
 21
204.2751100000000122
 31
0.0
  0
LINE
  5
49C
100
AcDbEntity
100
AcDbLine
  8
FORT
 62
7
370
-1
  6
CONTINUOUS
 10
285.5183660000000145
 20
189.2751100000000122
 30
0.0
 11
282.5183660000000145
 21
189.2751100000000122
 31
0.0
  0
LINE
  5
49D
100
AcDbEntity
100
AcDbLine
  8
FIN
 62
5
370
-1
  6
CONTINUOUS
 10
289.5183660000000145
 20
191.2751100000000122
 30
0.0
 11
289.5183660000000145
 21
202.0015019999999879
 31
0.0
  0
LINE
  5
49E
100
AcDbEntity
100
AcDbLine
  8
FIN
 62
5
370
-1
  6
CONTINUOUS
 10
254.626544999999993
 20
222.9811939999999879
 30
0.0
 11
268.5183660000000145
 21
215.2751100000000122
 31
0.0
  0
LINE
  5
49F
100
AcDbEntity
100
AcDbLine
  8
FORT
 62
7
370
-1
  6
CONTINUOUS
 10
268.2487610000000018
 20
221.4946280000000058
 30
0.0
 11
270.0183660000000145
 21
219.2751100000000122
 31
0.0
  0
LINE
  5
4A0
100
AcDbEntity
100
AcDbLine
  8
FORT
 62
7
370
-1
  6
CONTINUOUS
 10
267.6245910000000094
 20
220.8007589999999993
 30
0.0
 11
270.0183660000000145
 21
219.2751100000000122
 31
0.0
  0
LINE
  5
4A1
100
AcDbEntity
100
AcDbLine
  8
FORT
 62
7
370
-1
  6
CONTINUOUS
 10
270.0183660000000145
 20
215.2751100000000122
 30
0.0
 11
270.0183660000000145
 21
219.2751100000000122
 31
0.0
  0
LINE
  5
4A2
100
AcDbEntity
100
AcDbLine
  8
FORT
 62
7
370
-1
  6
CONTINUOUS
 10
274.7183660000000032
 20
217.2751100000000122
 30
0.0
 11
274.7183660000000032
 21
219.2751100000000122
 31
0.0
  0
LINE
  5
4A3
100
AcDbEntity
100
AcDbLine
  8
FORT
 62
7
370
-1
  6
CONTINUOUS
 10
276.3183660000000259
 20
217.2751100000000122
 30
0.0
 11
276.3183660000000259
 21
219.2751100000000122
 31
0.0
  0
LINE
  5
4A4
100
AcDbEntity
100
AcDbLine
  8
FORT
 62
7
370
-1
  6
CONTINUOUS
 10
273.5183660000000145
 20
210.2751100000000122
 30
0.0
 11
280.5183660000000145
 21
210.2751100000000122
 31
0.0
  0
LINE
  5
4A5
100
AcDbEntity
100
AcDbLine
  8
FORT
 62
7
370
-1
  6
CONTINUOUS
 10
285.5183660000000145
 20
216.2751100000000122
 30
0.0
 11
280.5183660000000145
 21
216.2751100000000122
 31
0.0
  0
LINE
  5
4A6
100
AcDbEntity
100
AcDbLine
  8
FORT
 62
7
370
-1
  6
CONTINUOUS
 10
276.3183660000000259
 20
217.2751100000000122
 30
0.0
 11
274.7183660000000032
 21
217.2751100000000122
 31
0.0
  0
LINE
  5
4A7
100
AcDbEntity
100
AcDbLine
  8
FORT
 62
7
370
-1
  6
CONTINUOUS
 10
277.5183660000000145
 20
219.2751100000000122
 30
0.0
 11
276.3183660000000259
 21
219.2751100000000122
 31
0.0
  0
LINE
  5
4A8
100
AcDbEntity
100
AcDbLine
  8
FORT
 62
7
370
-1
  6
CONTINUOUS
 10
274.7183660000000032
 20
219.2751100000000122
 30
0.0
 11
270.0183660000000145
 21
219.2751100000000122
 31
0.0
  0
LINE
  5
4A9
100
AcDbEntity
100
AcDbLine
  8
FORT
 62
7
370
-1
  6
CONTINUOUS
 10
273.5183660000000145
 20
210.2751100000000122
 30
0.0
 11
273.5183660000000145
 21
213.2751100000000122
 31
0.0
  0
LINE
  5
4AA
100
AcDbEntity
100
AcDbLine
  8
FORT
 62
7
370
-1
  6
CONTINUOUS
 10
256.618313999999998
 20
203.3637190000000032
 30
0.0
 11
266.618313999999998
 21
203.3637190000000032
 31
0.0
  0
LINE
  5
4AB
100
AcDbEntity
100
AcDbLine
  8
FORT
 62
7
370
-1
  6
CONTINUOUS
 10
261.2849810000000161
 20
212.7823300000000017
 30
0.0
 11
261.2849810000000161
 21
203.3637190000000032
 31
0.0
  0
LINE
  5
4AC
100
AcDbEntity
100
AcDbLine
  8
FORT
 62
7
370
-1
  6
CONTINUOUS
 10
261.2849810000000161
 20
203.3637190000000032
 30
0.0
 11
262.2183140000000208
 21
206.1637189999999862
 31
0.0
  0
LINE
  5
4AD
100
AcDbEntity
100
AcDbLine
  8
FORT
 62
7
370
-1
  6
CONTINUOUS
 10
261.2849810000000161
 20
203.3637190000000032
 30
0.0
 11
260.351647000000014
 21
206.1637189999999862
 31
0.0
  0
LINE
  5
4AE
100
AcDbEntity
100
AcDbLine
  8
FORT
 62
7
370
-1
  6
CONTINUOUS
 10
267.618313999999998
 20
203.3637190000000032
 30
0.0
 11
269.618313999999998
 21
203.3637190000000032
 31
0.0
  0
LINE
  5
4AF
100
AcDbEntity
100
AcDbLine
  8
FORT
 62
7
370
-1
  6
CONTINUOUS
 10
270.618313999999998
 20
203.3637190000000032
 30
0.0
 11
274.4976300000000151
 21
203.3637190000000032
 31
0.0
  0
LINE
  5
4B0
100
AcDbEntity
100
AcDbLine
  8
FORT
 62
7
370
-1
  6
CONTINUOUS
 10
266.2865419999999972
 20
217.0291699999999935
 30
0.0
 11
268.5183660000000145
 21
215.2751100000000122
 31
0.0
  0
LINE
  5
4B1
100
AcDbEntity
100
AcDbLine
  8
FORT
 62
7
370
-1
  6
CONTINUOUS
 10
265.8383089999999811
 20
216.2105559999999969
 30
0.0
 11
268.5183660000000145
 21
215.2751100000000122
 31
0.0
  0
LWPOLYLINE
  5
4B2
  8
HACHURE
 62
5
370
-1
  6
CONTINUOUS
100
AcDbEntity
100
AcDbPolyline
 90
4
 70
1
 10
285.5183660000000145
 20
216.2751100000000122
 10
282.5183660000000145
 20
216.2751100000000122
 10
282.5183660000000145
 20
204.2751100000000122
 10
285.5183660000000145
 20
204.2751100000000122
  0
INSERT
  5
4B3
100
AcDbEntity
100
AcDbBlockReference
  8
HACHURE
 62
256
370
-1
  6
ByLayer
  2
DESENS-G22
 10
0.0
 20
0.0
 30
0.0
  0
LWPOLYLINE
  5
4B4
  8
HACHURE
 62
5
370
-1
  6
CONTINUOUS
100
AcDbEntity
100
AcDbPolyline
 90
4
 70
1
 10
277.5183660000000145
 20
215.2751100000000122
 10
268.5183660000000145
 20
215.2751100000000122
 10
268.5183660000000145
 20
213.2751100000000122
 10
277.5183660000000145
 20
213.2751100000000122
  0
INSERT
  5
4B5
100
AcDbEntity
100
AcDbBlockReference
  8
HACHURE
 62
256
370
-1
  6
ByLayer
  2
DESENS-G23
 10
0.0
 20
0.0
 30
0.0
  0
LINE
  5
4B6
100
AcDbEntity
100
AcDbLine
  8
FORT
 62
7
370
-1
  6
CONTINUOUS
 10
292.5183660000000145
 20
157.2751100000000122
 30
0.0
 11
292.5183660000000145
 21
192.2751100000000122
 31
0.0
  0
LINE
  5
4B7
100
AcDbEntity
100
AcDbLine
  8
FORT
 62
7
370
-1
  6
CONTINUOUS
 10
308.5183660000000145
 20
177.2751100000000122
 30
0.0
 11
308.5183660000000145
 21
216.2751100000000122
 31
0.0
  0
LINE
  5
4B8
100
AcDbEntity
100
AcDbLine
  8
FORT
 62
7
370
-1
  6
CONTINUOUS
 10
301.5183660000000145
 20
191.2751100000000122
 30
0.0
 11
301.5183660000000145
 21
177.2751100000000122
 31
0.0
  0
LINE
  5
4B9
100
AcDbEntity
100
AcDbLine
  8
FORT
 62
7
370
-1
  6
CONTINUOUS
 10
298.5183660000000145
 20
192.2751100000000122
 30
0.0
 11
298.5183660000000145
 21
157.2751100000000122
 31
0.0
  0
LINE
  5
4BA
100
AcDbEntity
100
AcDbLine
  8
FORT
 62
7
370
-1
  6
CONTINUOUS
 10
312.0183660000000145
 20
177.2751100000000122
 30
0.0
 11
312.0183660000000145
 21
207.2751100000000122
 31
0.0
  0
LINE
  5
4BB
100
AcDbEntity
100
AcDbLine
  8
FORT
 62
7
370
-1
  6
CONTINUOUS
 10
319.5183660000000145
 20
180.2751100000000122
 30
0.0
 11
319.5183660000000145
 21
207.2751100000000122
 31
0.0
  0
LINE
  5
4BC
100
AcDbEntity
100
AcDbLine
  8
FIN
 62
5
370
-1
  6
CONTINUOUS
 10
300.5183660000000145
 20
192.2751100000000122
 30
0.0
 11
300.5183660000000145
 21
179.0071609999999964
 31
0.0
  0
LINE
  5
4BD
100
AcDbEntity
100
AcDbLine
  8
FIN
 62
5
370
-1
  6
CONTINUOUS
 10
306.4731669999999895
 20
184.5909139999999979
 30
0.0
 11
336.4101870000000076
 21
187.9811939999999879
 31
0.0
  0
LWPOLYLINE
  5
4BE
  8
HACHURE
 62
5
370
-1
  6
CONTINUOUS
100
AcDbEntity
100
AcDbPolyline
 90
12
 70
1
 10
312.0183660000000145
 20
207.2751100000000122
 10
319.5183660000000145
 20
207.2751100000000122
 10
319.5183660000000145
 20
180.2751100000000122
 10
322.5183660000000145
 20
180.2751100000000122
 10
322.5183660000000145
 20
213.2751100000000122
 10
317.5183660000000145
 20
213.2751100000000122
 10
317.5183660000000145
 20
210.2751100000000122
 10
310.5183660000000145
 20
210.2751100000000122
 10
310.5183660000000145
 20
216.2751100000000122
 10
308.5183660000000145
 20
216.2751100000000122
 10
308.5183660000000145
 20
177.2751100000000122
 10
312.0183660000000145
 20
177.2751100000000122
  0
INSERT
  5
4BF
100
AcDbEntity
100
AcDbBlockReference
  8
HACHURE
 62
256
370
-1
  6
ByLayer
  2
DESENS-G24
 10
0.0
 20
0.0
 30
0.0
  0
LWPOLYLINE
  5
4C0
  8
HACHURE
 62
5
370
-1
  6
CONTINUOUS
100
AcDbEntity
100
AcDbPolyline
 90
9
 70
1
 10
309.5183660000000145
 20
177.2751100000000122
 10
301.5183660000000145
 20
177.2751100000000122
 10
301.5183660000000145
 20
191.2751100000000122
 10
300.5183660000000145
 20
192.2751100000000122
 10
298.5183660000000145
 20
192.2751100000000122
 10
298.5183660000000145
 20
170.2751100000000122
 10
300.5183660000000145
 20
170.2751100000000122
 10
300.5183660000000145
 20
173.2751100000000122
 10
309.5183660000000145
 20
173.2751100000000122
  0
INSERT
  5
4C1
100
AcDbEntity
100
AcDbBlockReference
  8
HACHURE
 62
256
370
-1
  6
ByLayer
  2
DESENS-G25
 10
0.0
 20
0.0
 30
0.0
  0
LWPOLYLINE
  5
4C2
  8
HACHURE
 62
5
370
-1
  6
CONTINUOUS
100
AcDbEntity
100
AcDbPolyline
 90
4
 70
1
 10
308.5183660000000145
 20
189.2751100000000122
 10
302.5183660000000145
 20
189.2751100000000122
 10
302.5183660000000145
 20
177.2751100000000122
 10
308.5183660000000145
 20
177.2751100000000122
  0
INSERT
  5
4C3
100
AcDbEntity
100
AcDbBlockReference
  8
HACHURE
 62
256
370
-1
  6
ByLayer
  2
DESENS-G26
 10
0.0
 20
0.0
 30
0.0
  0
LINE
  5
4C4
100
AcDbEntity
100
AcDbLine
  8
FORT
 62
7
370
-1
  6
CONTINUOUS
 10
298.5183660000000145
 20
157.2751100000000122
 30
0.0
 11
292.5183660000000145
 21
157.2751100000000122
 31
0.0
  0
LINE
  5
4C5
100
AcDbEntity
100
AcDbLine
  8
FORT
 62
7
370
-1
  6
CONTINUOUS
 10
317.5183660000000145
 20
166.2751100000000122
 30
0.0
 11
317.5183660000000145
 21
180.2751100000000122
 31
0.0
  0
LINE
  5
4C6
100
AcDbEntity
100
AcDbLine
  8
FORT
 62
7
370
-1
  6
CONTINUOUS
 10
322.5183660000000145
 20
161.7751100000000122
 30
0.0
 11
326.5183660000000145
 21
161.7751100000000122
 31
0.0
  0
LINE
  5
4C7
100
AcDbEntity
100
AcDbLine
  8
FORT
 62
7
370
-1
  6
CONTINUOUS
 10
326.5183660000000145
 20
155.4751100000000008
 30
0.0
 11
326.5183660000000145
 21
150.7751100000000122
 31
0.0
  0
LINE
  5
4C8
100
AcDbEntity
100
AcDbLine
  8
FORT
 62
7
370
-1
  6
CONTINUOUS
 10
324.5183660000000145
 20
157.0751099999999951
 30
0.0
 11
324.5183660000000145
 21
155.4751100000000008
 31
0.0
  0
LINE
  5
4C9
100
AcDbEntity
100
AcDbLine
  8
FORT
 62
7
370
-1
  6
CONTINUOUS
 10
324.5183660000000145
 20
155.4751100000000008
 30
0.0
 11
326.5183660000000145
 21
155.4751100000000008
 31
0.0
  0
LINE
  5
4CA
100
AcDbEntity
100
AcDbLine
  8
FORT
 62
7
370
-1
  6
CONTINUOUS
 10
324.5183660000000145
 20
157.0751099999999951
 30
0.0
 11
326.5183660000000145
 21
157.0751099999999951
 31
0.0
  0
LINE
  5
4CB
100
AcDbEntity
100
AcDbLine
  8
FORT
 62
7
370
-1
  6
CONTINUOUS
 10
322.5183660000000145
 20
150.7751100000000122
 30
0.0
 11
326.5183660000000145
 21
150.7751100000000122
 31
0.0
  0
LINE
  5
4CC
100
AcDbEntity
100
AcDbLine
  8
FORT
 62
7
370
-1
  6
CONTINUOUS
 10
326.5183660000000145
 20
161.7751100000000122
 30
0.0
 11
326.5183660000000145
 21
157.0751099999999951
 31
0.0
  0
LINE
  5
4CD
100
AcDbEntity
100
AcDbLine
  8
FORT
 62
7
370
-1
  6
CONTINUOUS
 10
316.5183660000000145
 20
162.2751100000000122
 30
0.0
 11
322.5183660000000145
 21
162.2751100000000122
 31
0.0
  0
LINE
  5
4CE
100
AcDbEntity
100
AcDbLine
  8
FORT
 62
7
370
-1
  6
CONTINUOUS
 10
317.0183660000000145
 20
150.2751100000000122
 30
0.0
 11
314.5183660000000145
 21
150.2751100000000122
 31
0.0
  0
LINE
  5
4CF
100
AcDbEntity
100
AcDbLine
  8
FORT
 62
7
370
-1
  6
CONTINUOUS
 10
317.0183660000000145
 20
150.2751100000000122
 30
0.0
 11
317.0183660000000145
 21
151.9751100000000008
 31
0.0
  0
LINE
  5
4D0
100
AcDbEntity
100
AcDbLine
  8
FORT
 62
7
370
-1
  6
CONTINUOUS
 10
317.0183660000000145
 20
151.9751100000000008
 30
0.0
 11
316.5183660000000145
 21
151.9751100000000008
 31
0.0
  0
LINE
  5
4D1
100
AcDbEntity
100
AcDbLine
  8
FORT
 62
7
370
-1
  6
CONTINUOUS
 10
316.5183660000000145
 20
162.2751100000000122
 30
0.0
 11
316.5183660000000145
 21
151.9751100000000008
 31
0.0
  0
LINE
  5
4D2
100
AcDbEntity
100
AcDbLine
  8
FORT
 62
7
370
-1
  6
CONTINUOUS
 10
309.5183660000000145
 20
173.2751100000000122
 30
0.0
 11
309.5183660000000145
 21
177.2751100000000122
 31
0.0
  0
LINE
  5
4D3
100
AcDbEntity
100
AcDbLine
  8
FORT
 62
7
370
-1
  6
CONTINUOUS
 10
309.5183660000000145
 20
173.2751100000000122
 30
0.0
 11
300.5183660000000145
 21
173.2751100000000122
 31
0.0
  0
LINE
  5
4D4
100
AcDbEntity
100
AcDbLine
  8
FORT
 62
7
370
-1
  6
CONTINUOUS
 10
300.5183660000000145
 20
170.2751100000000122
 30
0.0
 11
300.5183660000000145
 21
173.2751100000000122
 31
0.0
  0
LINE
  5
4D5
100
AcDbEntity
100
AcDbLine
  8
FORT
 62
7
370
-1
  6
CONTINUOUS
 10
300.5183660000000145
 20
170.2751100000000122
 30
0.0
 11
298.5183660000000145
 21
170.2751100000000122
 31
0.0
  0
LINE
  5
4D6
100
AcDbEntity
100
AcDbLine
  8
FORT
 62
7
370
-1
  6
CONTINUOUS
 10
317.5183660000000145
 20
166.2751100000000122
 30
0.0
 11
298.5183660000000145
 21
166.2751100000000122
 31
0.0
  0
ARC
  5
4D7
100
AcDbEntity
  8
FORT
 62
7
370
-1
  6
CONTINUOUS
100
AcDbCircle
 10
308.0965219999999931
 20
160.2751100000000122
 30
0.0
 40
1.0
100
AcDbArc
 50
180.0
 51
270.0
  0
LINE
  5
4D8
100
AcDbEntity
100
AcDbLine
  8
FORT
 62
7
370
-1
  6
CONTINUOUS
 10
308.5183660000000145
 20
162.2751100000000122
 30
0.0
 11
308.5183660000000145
 21
160.7751100000000122
 31
0.0
  0
ARC
  5
4D9
100
AcDbEntity
  8
FORT
 62
7
370
-1
  6
CONTINUOUS
100
AcDbCircle
 10
305.8074439999999754
 20
162.2751100000000122
 30
0.0
 40
1.2890779999999999
100
AcDbArc
 50
0.0
 51
180.0
  0
ARC
  5
4DA
100
AcDbEntity
  8
FORT
 62
7
370
-1
  6
CONTINUOUS
100
AcDbCircle
 10
305.7683660000000145
 20
162.2751100000000122
 30
0.0
 40
2.75
100
AcDbArc
 50
0.0
 51
180.0
  0
LINE
  5
4DB
100
AcDbEntity
100
AcDbLine
  8
FORT
 62
7
370
-1
  6
CONTINUOUS
 10
307.0965219999999931
 20
160.2751100000000122
 30
0.0
 11
307.0965219999999931
 21
162.2751100000000122
 31
0.0
  0
LINE
  5
4DC
100
AcDbEntity
100
AcDbLine
  8
FORT
 62
7
370
-1
  6
CONTINUOUS
 10
298.5183660000000145
 20
165.0251100000000122
 30
0.0
 11
305.7683660000000145
 21
165.0251100000000122
 31
0.0
  0
LINE
  5
4DD
100
AcDbEntity
100
AcDbLine
  8
FORT
 62
7
370
-1
  6
CONTINUOUS
 10
304.5183660000000145
 20
153.7751100000000122
 30
0.0
 11
304.5183660000000145
 21
162.2751100000000122
 31
0.0
  0
LINE
  5
4DE
100
AcDbEntity
100
AcDbLine
  8
FORT
 62
7
370
-1
  6
CONTINUOUS
 10
303.0183660000000145
 20
158.2751100000000122
 30
0.0
 11
303.0183660000000145
 21
162.2751100000000122
 31
0.0
  0
LINE
  5
4DF
100
AcDbEntity
100
AcDbLine
  8
FORT
 62
7
370
-1
  6
CONTINUOUS
 10
303.0183660000000145
 20
154.2751100000000122
 30
0.0
 11
303.0183660000000145
 21
156.2751100000000122
 31
0.0
  0
LINE
  5
4E0
100
AcDbEntity
100
AcDbLine
  8
FORT
 62
7
370
-1
  6
CONTINUOUS
 10
302.0183660000000145
 20
156.2751100000000122
 30
0.0
 11
302.0183660000000145
 21
156.543059999999997
 31
0.0
  0
ARC
  5
4E1
100
AcDbEntity
  8
FORT
 62
7
370
-1
  6
CONTINUOUS
100
AcDbCircle
 10
303.0183660000000145
 20
156.543059999999997
 30
0.0
 40
1.0
100
AcDbArc
 50
119.9999999999999858
 51
180.0
  0
ARC
  5
4E2
100
AcDbEntity
  8
FORT
 62
7
370
-1
  6
CONTINUOUS
100
AcDbCircle
 10
302.0183660000000145
 20
158.2751100000000122
 30
0.0
 40
1.0
100
AcDbArc
 50
300.0
 51
0.0
  0
ARC
  5
4E3
100
AcDbEntity
  8
FORT
 62
7
370
-1
  6
CONTINUOUS
100
AcDbCircle
 10
303.5183660000000145
 20
153.7751100000000122
 30
0.0
 40
1.0
100
AcDbArc
 50
270.0
 51
0.0
  0
LINE
  5
4E4
100
AcDbEntity
100
AcDbLine
  8
FORT
 62
7
370
-1
  6
CONTINUOUS
 10
308.5183660000000145
 20
149.2751100000000122
 30
0.0
 11
308.5183660000000145
 21
159.2751100000000122
 31
0.0
  0
LINE
  5
4E5
100
AcDbEntity
100
AcDbLine
  8
FORT
 62
7
370
-1
  6
CONTINUOUS
 10
310.8626729999999725
 20
162.2751100000000122
 30
0.0
 11
314.1764929999999936
 21
163.0408649999999966
 31
0.0
  0
LINE
  5
4E6
100
AcDbEntity
100
AcDbLine
  8
FORT
 62
7
370
-1
  6
CONTINUOUS
 10
311.1156740000000127
 20
160.7751100000000122
 30
0.0
 11
314.5183660000000145
 21
161.5614009999999894
 31
0.0
  0
LINE
  5
4E7
100
AcDbEntity
100
AcDbLine
  8
FORT
 62
7
370
-1
  6
CONTINUOUS
 10
308.5183660000000145
 20
160.7751100000000122
 30
0.0
 11
314.5183660000000145
 21
160.7751100000000122
 31
0.0
  0
LINE
  5
4E8
100
AcDbEntity
100
AcDbLine
  8
FORT
 62
7
370
-1
  6
CONTINUOUS
 10
307.6558239999999955
 20
164.2751100000000122
 30
0.0
 11
314.5183660000000145
 21
164.2751100000000122
 31
0.0
  0
LINE
  5
4E9
100
AcDbEntity
100
AcDbLine
  8
FORT
 62
7
370
-1
  6
CONTINUOUS
 10
308.5183660000000145
 20
162.2751100000000122
 30
0.0
 11
310.8626729999999725
 21
162.2751100000000122
 31
0.0
  0
LINE
  5
4EA
100
AcDbEntity
100
AcDbLine
  8
FORT
 62
7
370
-1
  6
CONTINUOUS
 10
304.5183660000000145
 20
159.2751100000000122
 30
0.0
 11
314.5183660000000145
 21
159.2751100000000122
 31
0.0
  0
LINE
  5
4EB
100
AcDbEntity
100
AcDbLine
  8
FORT
 62
7
370
-1
  6
CONTINUOUS
 10
314.5183660000000145
 20
159.2751100000000122
 30
0.0
 11
314.5183660000000145
 21
164.2751100000000122
 31
0.0
  0
LINE
  5
4EC
100
AcDbEntity
100
AcDbLine
  8
FORT
 62
7
370
-1
  6
CONTINUOUS
 10
314.5183660000000145
 20
164.2751100000000122
 30
0.0
 11
317.5183660000000145
 21
166.2751100000000122
 31
0.0
  0
LINE
  5
4ED
100
AcDbEntity
100
AcDbLine
  8
FORT
 62
7
370
-1
  6
CONTINUOUS
 10
314.1764929999999936
 20
163.0408649999999966
 30
0.0
 11
314.5183660000000145
 21
161.5614009999999894
 31
0.0
  0
LINE
  5
4EE
100
AcDbEntity
100
AcDbLine
  8
FORT
 62
7
370
-1
  6
CONTINUOUS
 10
322.5183660000000145
 20
180.2751100000000122
 30
0.0
 11
312.0183660000000145
 21
180.2751100000000122
 31
0.0
  0
LINE
  5
4EF
100
AcDbEntity
100
AcDbLine
  8
FORT
 62
7
370
-1
  6
CONTINUOUS
 10
301.5183660000000145
 20
177.2751100000000122
 30
0.0
 11
312.0183660000000145
 21
177.2751100000000122
 31
0.0
  0
LINE
  5
4F0
100
AcDbEntity
100
AcDbLine
  8
FIN
 62
5
370
-1
  6
CONTINUOUS
 10
301.5183660000000145
 20
177.2751100000000122
 30
0.0
 11
300.5183660000000145
 21
179.0071609999999964
 31
0.0
  0
CIRCLE
  5
4F1
100
AcDbEntity
100
AcDbCircle
  8
FORT
 62
7
370
-1
  6
CONTINUOUS
 10
306.4731669999999895
 20
184.5909139999999979
 30
0.0
 40
0.25
  0
CIRCLE
  5
4F2
100
AcDbEntity
100
AcDbCircle
  8
FORT
 62
7
370
-1
  6
CONTINUOUS
 10
306.4731669999999895
 20
175.2426049999999975
 30
0.0
 40
0.25
  0
CIRCLE
  5
4F3
100
AcDbEntity
100
AcDbCircle
  8
FORT
 62
7
370
-1
  6
CONTINUOUS
 10
297.1248580000000175
 20
167.9811939999999879
 30
0.0
 40
0.25
  0
LINE
  5
4F4
100
AcDbEntity
100
AcDbLine
  8
FIN
 62
5
370
-1
  6
CONTINUOUS
 10
336.4101870000000076
 20
167.9811939999999879
 30
0.0
 11
297.1248580000000175
 21
167.9811939999999879
 31
0.0
  0
LINE
  5
4F5
100
AcDbEntity
100
AcDbLine
  8
FIN
 62
5
370
-1
  6
CONTINUOUS
 10
306.4731669999999895
 20
175.2426049999999975
 30
0.0
 11
336.4101870000000076
 21
177.9811939999999879
 31
0.0
  0
ARC
  5
4F6
100
AcDbEntity
  8
HACHURE
 62
7
370
-1
  6
CONTINUOUS
100
AcDbCircle
 10
295.5183660000000145
 20
161.2751100000000122
 30
0.0
 40
5.0
100
AcDbArc
 50
233.1301019999999937
 51
306.8698979999999779
  0
LWPOLYLINE
  5
4F7
  8
HACHURE
 62
5
370
-1
  6
CONTINUOUS
100
AcDbEntity
100
AcDbPolyline
 90
6
 70
1
 10
314.1764929999999936
 20
163.0408649999999966
 10
310.8626729999999725
 20
162.2751100000000122
 10
308.5183660000000145
 20
162.2751100000000122
 10
308.5183660000000145
 20
160.7751100000000122
 10
311.1156740000000127
 20
160.7751100000000122
 10
314.5183660000000145
 20
161.5614009999999894
  0
INSERT
  5
4F8
100
AcDbEntity
100
AcDbBlockReference
  8
HACHURE
 62
256
370
-1
  6
ByLayer
  2
DESENS-G27
 10
0.0
 20
0.0
 30
0.0
  0
LINE
  5
4F9
100
AcDbEntity
100
AcDbLine
  8
FORT
 62
7
370
-1
  6
CONTINUOUS
 10
298.0183660000000145
 20
199.2751100000000122
 30
0.0
 11
293.0183660000000145
 21
199.2751100000000122
 31
0.0
  0
LINE
  5
4FA
100
AcDbEntity
100
AcDbLine
  8
FORT
 62
7
370
-1
  6
CONTINUOUS
 10
293.0183660000000145
 20
195.2751100000000122
 30
0.0
 11
293.0183660000000145
 21
199.2751100000000122
 31
0.0
  0
LINE
  5
4FB
100
AcDbEntity
100
AcDbLine
  8
FORT
 62
7
370
-1
  6
CONTINUOUS
 10
293.0183660000000145
 20
195.2751100000000122
 30
0.0
 11
293.0183660000000145
 21
199.2751100000000122
 31
0.0
  0
CIRCLE
  5
4FC
100
AcDbEntity
100
AcDbCircle
  8
FORT
 62
7
370
-1
  6
CONTINUOUS
 10
292.0874739999999861
 20
195.7751100000000122
 30
0.0
 40
0.5
  0
CIRCLE
  5
4FD
100
AcDbEntity
100
AcDbCircle
  8
FORT
 62
7
370
-1
  6
CONTINUOUS
 10
292.0874739999999861
 20
198.7751100000000122
 30
0.0
 40
0.5
  0
LINE
  5
4FE
100
AcDbEntity
100
AcDbLine
  8
FORT
 62
7
370
-1
  6
CONTINUOUS
 10
293.0183660000000145
 20
196.1187600000000089
 30
0.0
 11
292.174254000000019
 21
196.2675220000000138
 31
0.0
  0
LINE
  5
4FF
100
AcDbEntity
100
AcDbLine
  8
FORT
 62
7
370
-1
  6
CONTINUOUS
 10
293.0183660000000145
 20
199.0834230000000105
 30
0.0
 11
292.1942540000000008
 21
199.263575000000003
 31
0.0
  0
LINE
  5
500
100
AcDbEntity
100
AcDbLine
  8
FORT
 62
7
370
-1
  6
CONTINUOUS
 10
293.0183660000000145
 20
198.0598080000000039
 30
0.0
 11
291.9806950000000256
 21
198.2866449999999929
 31
0.0
  0
LINE
  5
501
100
AcDbEntity
100
AcDbLine
  8
FORT
 62
7
370
-1
  6
CONTINUOUS
 10
321.0183660000000145
 20
215.2751100000000122
 30
0.0
 11
321.0183660000000145
 21
219.2751100000000122
 31
0.0
  0
LINE
  5
502
100
AcDbEntity
100
AcDbLine
  8
FORT
 62
7
370
-1
  6
CONTINUOUS
 10
322.5183660000000145
 20
215.2751100000000122
 30
0.0
 11
313.5183660000000145
 21
215.2751100000000122
 31
0.0
  0
LINE
  5
503
100
AcDbEntity
100
AcDbLine
  8
FORT
 62
7
370
-1
  6
CONTINUOUS
 10
322.5183660000000145
 20
213.2751100000000122
 30
0.0
 11
313.5183660000000145
 21
213.2751100000000122
 31
0.0
  0
LINE
  5
504
100
AcDbEntity
100
AcDbLine
  8
FORT
 62
7
370
-1
  6
CONTINUOUS
 10
298.0183660000000145
 20
195.2751100000000122
 30
0.0
 11
298.0183660000000145
 21
199.2751100000000122
 31
0.0
  0
LINE
  5
505
100
AcDbEntity
100
AcDbLine
  8
FORT
 62
7
370
-1
  6
CONTINUOUS
 10
301.5183660000000145
 20
191.2751100000000122
 30
0.0
 11
300.5183660000000145
 21
192.2751100000000122
 31
0.0
  0
LINE
  5
506
100
AcDbEntity
100
AcDbLine
  8
FORT
 62
7
370
-1
  6
CONTINUOUS
 10
319.5183660000000145
 20
207.2751100000000122
 30
0.0
 11
312.0183660000000145
 21
207.2751100000000122
 31
0.0
  0
LINE
  5
507
100
AcDbEntity
100
AcDbLine
  8
FORT
 62
7
370
-1
  6
CONTINUOUS
 10
308.5183660000000145
 20
189.2751100000000122
 30
0.0
 11
302.5183660000000145
 21
189.2751100000000122
 31
0.0
  0
LINE
  5
508
100
AcDbEntity
100
AcDbLine
  8
FORT
 62
7
370
-1
  6
CONTINUOUS
 10
308.5183660000000145
 20
204.2751100000000122
 30
0.0
 11
302.5183660000000145
 21
204.2751100000000122
 31
0.0
  0
LINE
  5
509
100
AcDbEntity
100
AcDbLine
  8
FORT
 62
7
370
-1
  6
CONTINUOUS
 10
305.0707689999999843
 20
204.2751100000000122
 30
0.0
 11
305.0707689999999843
 21
189.2751100000000122
 31
0.0
  0
LINE
  5
50A
100
AcDbEntity
100
AcDbLine
  8
FORT
 62
7
370
-1
  6
CONTINUOUS
 10
316.3183660000000259
 20
219.2751100000000122
 30
0.0
 11
321.0183660000000145
 21
219.2751100000000122
 31
0.0
  0
LINE
  5
50B
100
AcDbEntity
100
AcDbLine
  8
FIN
 62
5
370
-1
  6
CONTINUOUS
 10
301.5183660000000145
 20
191.2751100000000122
 30
0.0
 11
301.5183660000000145
 21
202.0015019999999879
 31
0.0
  0
CIRCLE
  5
50C
100
AcDbEntity
100
AcDbCircle
  8
FORT
 62
7
370
-1
  6
CONTINUOUS
 10
298.9492569999999887
 20
197.2751100000000122
 30
0.0
 40
0.5
  0
LINE
  5
50D
100
AcDbEntity
100
AcDbLine
  8
FORT
 62
7
370
-1
  6
CONTINUOUS
 10
299.0560370000000034
 20
197.763575000000003
 30
0.0
 11
298.0183660000000145
 21
197.9904129999999896
 31
0.0
  0
LINE
  5
50E
100
AcDbEntity
100
AcDbLine
  8
FORT
 62
7
370
-1
  6
CONTINUOUS
 10
298.8424780000000283
 20
196.7866449999999929
 30
0.0
 11
298.0183660000000145
 21
196.9667980000000114
 31
0.0
  0
LINE
  5
50F
100
AcDbEntity
100
AcDbLine
  8
FORT
 62
7
370
-1
  6
CONTINUOUS
 10
316.3183660000000259
 20
217.2751100000000122
 30
0.0
 11
316.3183660000000259
 21
219.2751100000000122
 31
0.0
  0
LINE
  5
510
100
AcDbEntity
100
AcDbLine
  8
FORT
 62
7
370
-1
  6
CONTINUOUS
 10
314.7183660000000032
 20
217.2751100000000122
 30
0.0
 11
314.7183660000000032
 21
219.2751100000000122
 31
0.0
  0
LINE
  5
511
100
AcDbEntity
100
AcDbLine
  8
FORT
 62
7
370
-1
  6
CONTINUOUS
 10
317.5183660000000145
 20
210.2751100000000122
 30
0.0
 11
310.5183660000000145
 21
210.2751100000000122
 31
0.0
  0
LINE
  5
512
100
AcDbEntity
100
AcDbLine
  8
FORT
 62
7
370
-1
  6
CONTINUOUS
 10
314.7183660000000032
 20
217.2751100000000122
 30
0.0
 11
316.3183660000000259
 21
217.2751100000000122
 31
0.0
  0
LINE
  5
513
100
AcDbEntity
100
AcDbLine
  8
FORT
 62
7
370
-1
  6
CONTINUOUS
 10
310.5183660000000145
 20
216.2751100000000122
 30
0.0
 11
302.5183660000000145
 21
216.2751100000000122
 31
0.0
  0
LINE
  5
514
100
AcDbEntity
100
AcDbLine
  8
FORT
 62
7
370
-1
  6
CONTINUOUS
 10
314.7183660000000032
 20
219.2751100000000122
 30
0.0
 11
313.5183660000000145
 21
219.2751100000000122
 31
0.0
  0
LINE
  5
515
100
AcDbEntity
100
AcDbLine
  8
FORT
 62
7
370
-1
  6
CONTINUOUS
 10
317.5183660000000145
 20
210.2751100000000122
 30
0.0
 11
317.5183660000000145
 21
213.2751100000000122
 31
0.0
  0
LINE
  5
516
100
AcDbEntity
100
AcDbLine
  8
FORT
 62
7
370
-1
  6
CONTINUOUS
 10
334.4184169999999767
 20
203.3637190000000032
 30
0.0
 11
324.4184169999999767
 21
203.3637190000000032
 31
0.0
  0
LINE
  5
517
100
AcDbEntity
100
AcDbLine
  8
FORT
 62
7
370
-1
  6
CONTINUOUS
 10
329.7517510000000129
 20
212.7823300000000017
 30
0.0
 11
329.7517510000000129
 21
203.3637190000000032
 31
0.0
  0
LINE
  5
518
100
AcDbEntity
100
AcDbLine
  8
FORT
 62
7
370
-1
  6
CONTINUOUS
 10
329.7517510000000129
 20
203.3637190000000032
 30
0.0
 11
328.8184170000000108
 21
206.1637189999999862
 31
0.0
  0
LINE
  5
519
100
AcDbEntity
100
AcDbLine
  8
FORT
 62
7
370
-1
  6
CONTINUOUS
 10
329.7517510000000129
 20
203.3637190000000032
 30
0.0
 11
330.6850840000000176
 21
206.1637189999999862
 31
0.0
  0
LINE
  5
51A
100
AcDbEntity
100
AcDbLine
  8
FORT
 62
7
370
-1
  6
CONTINUOUS
 10
323.4184169999999767
 20
203.3637190000000032
 30
0.0
 11
321.4184169999999767
 21
203.3637190000000032
 31
0.0
  0
LINE
  5
51B
100
AcDbEntity
100
AcDbLine
  8
FORT
 62
7
370
-1
  6
CONTINUOUS
 10
320.4184169999999767
 20
203.3637190000000032
 30
0.0
 11
316.5391010000000165
 21
203.3637190000000032
 31
0.0
  0
LWPOLYLINE
  5
51C
  8
HACHURE
 62
5
370
-1
  6
CONTINUOUS
100
AcDbEntity
100
AcDbPolyline
 90
4
 70
1
 10
308.5183660000000145
 20
216.2751100000000122
 10
302.5183660000000145
 20
216.2751100000000122
 10
302.5183660000000145
 20
204.2751100000000122
 10
308.5183660000000145
 20
204.2751100000000122
  0
INSERT
  5
51D
100
AcDbEntity
100
AcDbBlockReference
  8
HACHURE
 62
256
370
-1
  6
ByLayer
  2
DESENS-G28
 10
0.0
 20
0.0
 30
0.0
  0
LWPOLYLINE
  5
51E
  8
HACHURE
 62
5
370
-1
  6
CONTINUOUS
100
AcDbEntity
100
AcDbPolyline
 90
4
 70
1
 10
322.5183660000000145
 20
215.2751100000000122
 10
313.5183660000000145
 20
215.2751100000000122
 10
313.5183660000000145
 20
213.2751100000000122
 10
322.5183660000000145
 20
213.2751100000000122
  0
INSERT
  5
51F
100
AcDbEntity
100
AcDbBlockReference
  8
HACHURE
 62
256
370
-1
  6
ByLayer
  2
DESENS-G29
 10
0.0
 20
0.0
 30
0.0
  0
LINE
  5
520
100
AcDbEntity
100
AcDbLine
  8
FORT
 62
7
370
-1
  6
CONTINUOUS
 10
305.5183660000000145
 20
252.7751100000000122
 30
0.0
 11
285.5183660000000145
 21
252.7751100000000122
 31
0.0
  0
LINE
  5
521
100
AcDbEntity
100
AcDbLine
  8
FORT
 62
7
370
-1
  6
CONTINUOUS
 10
305.5183660000000145
 20
256.7751099999999838
 30
0.0
 11
285.5183660000000145
 21
256.7751099999999838
 31
0.0
  0
LINE
  5
522
100
AcDbEntity
100
AcDbLine
  8
FORT
 62
7
370
-1
  6
CONTINUOUS
 10
285.5183660000000145
 20
258.7751099999999838
 30
0.0
 11
305.5183660000000145
 21
258.7751099999999838
 31
0.0
  0
ARC
  5
523
100
AcDbEntity
  8
FORT
 62
7
370
-1
  6
CONTINUOUS
100
AcDbCircle
 10
295.5183660000000145
 20
249.0251100000000122
 30
0.0
 40
14.3200029999999998
100
AcDbArc
 50
106.2201940000000064
 51
134.2926809999999875
  0
LWPOLYLINE
  5
524
  8
HACHURE
 62
5
370
-1
  6
CONTINUOUS
100
AcDbEntity
100
AcDbPolyline
 90
4
 70
1
 10
305.5183660000000145
 20
258.7751099999999838
 10
285.5183660000000145
 20
258.7751099999999838
 10
285.5183660000000145
 20
256.7751099999999838
 10
305.5183660000000145
 20
256.7751099999999838
  0
INSERT
  5
525
100
AcDbEntity
100
AcDbBlockReference
  8
HACHURE
 62
256
370
-1
  6
ByLayer
  2
DESENS-G30
 10
0.0
 20
0.0
 30
0.0
  0
LWPOLYLINE
  5
526
  8
HACHURE
 62
5
370
-1
  6
CONTINUOUS
100
AcDbEntity
100
AcDbPolyline
 90
5
 70
1
 10
305.5183660000000145
 20
252.7751100000000122
 10
285.5183660000000145
 20
252.7751100000000122
 10
285.5183660000000145
 20
250.7751100000000122
 10
291.5183660000000145
 20
250.7751100000000122
 10
305.5183660000000145
 20
250.7751100000000122
  0
INSERT
  5
527
100
AcDbEntity
100
AcDbBlockReference
  8
HACHURE
 62
256
370
-1
  6
ByLayer
  2
DESENS-G31
 10
0.0
 20
0.0
 30
0.0
  0
LWPOLYLINE
  5
528
  8
HACHURE
 62
5
370
-1
  6
CONTINUOUS
100
AcDbEntity
100
AcDbPolyline
 90
4
 70
1
 10
291.5183660000000145
 20
262.7751099999999838
 42
0.1231059999999999
 10
285.5183660000000145
 20
259.2751099999999838
 10
285.5183660000000145
 20
258.7751099999999838
 10
291.5183660000000145
 20
258.7751099999999838
  0
INSERT
  5
529
100
AcDbEntity
100
AcDbBlockReference
  8
HACHURE
 62
256
370
-1
  6
ByLayer
  2
DESENS-G32
 10
0.0
 20
0.0
 30
0.0
  0
LINE
  5
52A
100
AcDbEntity
100
AcDbLine
  8
FORT
 62
7
370
-1
  6
CONTINUOUS
 10
285.5183660000000145
 20
250.7751100000000122
 30
0.0
 11
305.5183660000000145
 21
250.7751100000000122
 31
0.0
  0
LINE
  5
52B
100
AcDbEntity
100
AcDbLine
  8
FORT
 62
7
370
-1
  6
CONTINUOUS
 10
290.5183660000000145
 20
237.2751100000000122
 30
0.0
 11
297.5154170000000136
 21
237.2751100000000122
 31
0.0
  0
LINE
  5
52C
100
AcDbEntity
100
AcDbLine
  8
FORT
 62
7
370
-1
  6
CONTINUOUS
 10
290.5183660000000145
 20
237.2751100000000122
 30
0.0
 11
295.5183660000000145
 21
240.1618620000000135
 31
0.0
  0
LINE
  5
52D
100
AcDbEntity
100
AcDbLine
  8
FORT
 62
7
370
-1
  6
CONTINUOUS
 10
286.0183660000000145
 20
255.2751100000000122
 30
0.0
 11
285.5183660000000145
 21
255.2751100000000122
 31
0.0
  0
LINE
  5
52E
100
AcDbEntity
100
AcDbLine
  8
FORT
 62
7
370
-1
  6
CONTINUOUS
 10
286.0183660000000145
 20
254.2751100000000122
 30
0.0
 11
285.5183660000000145
 21
254.2751100000000122
 31
0.0
  0
LINE
  5
52F
100
AcDbEntity
100
AcDbLine
  8
FORT
 62
7
370
-1
  6
CONTINUOUS
 10
286.0183660000000145
 20
254.2751100000000122
 30
0.0
 11
286.0183660000000145
 21
255.2751100000000122
 31
0.0
  0
LINE
  5
530
100
AcDbEntity
100
AcDbLine
  8
FORT
 62
7
370
-1
  6
CONTINUOUS
 10
285.5183660000000145
 20
236.2751100000000122
 30
0.0
 11
285.5183660000000145
 21
254.2751100000000122
 31
0.0
  0
LINE
  5
531
100
AcDbEntity
100
AcDbLine
  8
FORT
 62
7
370
-1
  6
CONTINUOUS
 10
285.5183660000000145
 20
255.2751100000000122
 30
0.0
 11
285.5183660000000145
 21
259.2751099999999838
 31
0.0
  0
LINE
  5
532
100
AcDbEntity
100
AcDbLine
  8
FIN
 62
5
370
-1
  6
CONTINUOUS
 10
254.626544999999993
 20
242.9811939999999879
 30
0.0
 11
278.2608890000000201
 21
230.8969219999999893
 31
0.0
  0
LINE
  5
533
100
AcDbEntity
100
AcDbLine
  8
FIN
 62
5
370
-1
  6
CONTINUOUS
 10
254.626544999999993
 20
252.9811939999999879
 30
0.0
 11
281.8386120000000119
 21
234.3420260000000042
 31
0.0
  0
LINE
  5
534
100
AcDbEntity
100
AcDbLine
  8
FORT
 62
7
370
-1
  6
CONTINUOUS
 10
288.5183660000000145
 20
233.2751100000000122
 30
0.0
 11
285.5183660000000145
 21
233.2751100000000122
 31
0.0
  0
ARC
  5
535
100
AcDbEntity
  8
FORT
 62
7
370
-1
  6
CONTINUOUS
100
AcDbCircle
 10
282.5183660000000145
 20
228.2751100000000122
 30
0.0
 40
5.0
100
AcDbArc
 50
90.0
 51
180.0
  0
ARC
  5
536
100
AcDbEntity
  8
FORT
 62
7
370
-1
  6
CONTINUOUS
100
AcDbCircle
 10
283.7683660000000145
 20
234.2751100000000122
 30
0.0
 40
2.0
100
AcDbArc
 50
90.0
 51
165.5224880000000098
  0
LINE
  5
537
100
AcDbEntity
100
AcDbLine
  8
FORT
 62
7
370
-1
  6
CONTINUOUS
 10
288.5183660000000145
 20
236.2751100000000122
 30
0.0
 11
283.7683660000000145
 21
236.2751100000000122
 31
0.0
  0
LINE
  5
538
100
AcDbEntity
100
AcDbLine
  8
FORT
 62
7
370
-1
  6
CONTINUOUS
 10
282.5183660000000145
 20
230.2751100000000122
 30
0.0
 11
283.0183660000000145
 21
230.2751100000000122
 31
0.0
  0
LINE
  5
539
100
AcDbEntity
100
AcDbLine
  8
FORT
 62
7
370
-1
  6
CONTINUOUS
 10
275.9925230000000056
 20
232.60346100000001
 30
0.0
 11
278.2608890000000201
 21
230.8969219999999893
 31
0.0
  0
LINE
  5
53A
100
AcDbEntity
100
AcDbLine
  8
FORT
 62
7
370
-1
  6
CONTINUOUS
 10
275.5616769999999747
 20
231.7755640000000028
 30
0.0
 11
278.2608890000000201
 21
230.8969219999999893
 31
0.0
  0
LINE
  5
53B
100
AcDbEntity
100
AcDbLine
  8
FORT
 62
7
370
-1
  6
CONTINUOUS
 10
279.2763239999999882
 20
235.5636800000000051
 30
0.0
 11
281.8386120000000119
 21
234.3420260000000042
 31
0.0
  0
LINE
  5
53C
100
AcDbEntity
100
AcDbLine
  8
FORT
 62
7
370
-1
  6
CONTINUOUS
 10
279.8110130000000026
 20
236.3286310000000014
 30
0.0
 11
281.8386120000000119
 21
234.3420260000000042
 31
0.0
  0
LINE
  5
53D
100
AcDbEntity
100
AcDbLine
  8
FORT
 62
7
370
-1
  6
CONTINUOUS
 10
288.5183660000000145
 20
233.2751100000000122
 30
0.0
 11
288.5183660000000145
 21
236.2751100000000122
 31
0.0
  0
CIRCLE
  5
53E
100
AcDbEntity
100
AcDbCircle
  8
FORT
 62
7
370
-1
  6
CONTINUOUS
 10
282.5183660000000145
 20
234.0251100000000122
 30
0.0
 40
0.75
  0
ARC
  5
53F
100
AcDbEntity
  8
FORT
 62
7
370
-1
  6
CONTINUOUS
100
AcDbCircle
 10
283.0183660000000145
 20
232.7751100000000122
 30
0.0
 40
2.5
100
AcDbArc
 50
270.0
 51
0.0
  0
ARC
  5
540
100
AcDbEntity
  8
FORT
 62
7
370
-1
  6
CONTINUOUS
100
AcDbCircle
 10
282.5183660000000145
 20
228.2751100000000122
 30
0.0
 40
2.0
100
AcDbArc
 50
90.0
 51
180.0
  0
LINE
  5
541
100
AcDbEntity
100
AcDbLine
  8
FORT
 62
7
370
-1
  6
CONTINUOUS
 10
281.8318740000000275
 20
234.7751100000000122
 30
0.0
 11
282.5183660000000145
 21
234.7751100000000122
 31
0.0
  0
LINE
  5
542
100
AcDbEntity
100
AcDbLine
  8
FORT
 62
7
370
-1
  6
CONTINUOUS
 10
291.5183660000000145
 20
258.7751099999999838
 30
0.0
 11
291.5183660000000145
 21
265.5570399999999722
 31
0.0
  0
LINE
  5
543
100
AcDbEntity
100
AcDbLine
  8
FORT
 62
7
370
-1
  6
CONTINUOUS
 10
299.5183660000000145
 20
258.7751099999999838
 30
0.0
 11
299.5183660000000145
 21
265.5570399999999722
 31
0.0
  0
LINE
  5
544
100
AcDbEntity
100
AcDbLine
  8
FIN
 62
5
370
-1
  6
CONTINUOUS
 10
297.1373530000000187
 20
264.6423360000000002
 30
0.0
 11
336.4101870000000076
 21
252.9811939999999879
 31
0.0
  0
LWPOLYLINE
  5
545
  8
HACHURE
 62
5
370
-1
  6
CONTINUOUS
100
AcDbEntity
100
AcDbPolyline
 90
4
 70
1
 10
299.5183660000000145
 20
265.5570399999999722
 42
0.1795179999999999
 10
291.5183660000000145
 20
265.5570399999999722
 10
291.5183660000000145
 20
258.7751099999999838
 10
299.5183660000000145
 20
258.7751099999999838
  0
INSERT
  5
546
100
AcDbEntity
100
AcDbBlockReference
  8
HACHURE
 62
256
370
-1
  6
ByLayer
  2
DESENS-G33
 10
0.0
 20
0.0
 30
0.0
  0
ARC
  5
547
100
AcDbEntity
  8
FORT
 62
7
370
-1
  6
CONTINUOUS
100
AcDbCircle
 10
295.5183660000000145
 20
254.7751100000000122
 30
0.0
 40
11.5
100
AcDbArc
 50
249.6455939999999885
 51
290.3544059999999831
  0
LINE
  5
548
100
AcDbEntity
100
AcDbLine
  8
FORT
 62
7
370
-1
  6
CONTINUOUS
 10
291.5183660000000145
 20
241.2751100000000122
 30
0.0
 11
299.5183660000000145
 21
241.2751100000000122
 31
0.0
  0
LINE
  5
549
100
AcDbEntity
100
AcDbLine
  8
FORT
 62
7
370
-1
  6
CONTINUOUS
 10
291.5183660000000145
 20
241.2751100000000122
 30
0.0
 11
291.5183660000000145
 21
250.7751100000000122
 31
0.0
  0
ARC
  5
54A
100
AcDbEntity
  8
FORT
 62
7
370
-1
  6
CONTINUOUS
100
AcDbCircle
 10
295.5183660000000145
 20
249.0251100000000122
 30
0.0
 40
14.3200029999999998
100
AcDbArc
 50
45.7073189999999983
 51
73.7798059999999936
  0
LINE
  5
54B
100
AcDbEntity
100
AcDbLine
  8
FORT
 62
7
370
-1
  6
CONTINUOUS
 10
299.5183660000000145
 20
241.2751100000000122
 30
0.0
 11
299.5183660000000145
 21
250.7751100000000122
 31
0.0
  0
LINE
  5
54C
100
AcDbEntity
100
AcDbLine
  8
FORT
 62
7
370
-1
  6
CONTINUOUS
 10
305.5183660000000145
 20
255.2751100000000122
 30
0.0
 11
305.5183660000000145
 21
259.2751099999999838
 31
0.0
  0
LINE
  5
54D
100
AcDbEntity
100
AcDbLine
  8
FORT
 62
7
370
-1
  6
CONTINUOUS
 10
305.0183660000000145
 20
255.2751100000000122
 30
0.0
 11
305.5183660000000145
 21
255.2751100000000122
 31
0.0
  0
LINE
  5
54E
100
AcDbEntity
100
AcDbLine
  8
FORT
 62
7
370
-1
  6
CONTINUOUS
 10
305.5183660000000145
 20
238.7751100000000122
 30
0.0
 11
305.5183660000000145
 21
254.2751100000000122
 31
0.0
  0
LINE
  5
54F
100
AcDbEntity
100
AcDbLine
  8
FORT
 62
7
370
-1
  6
CONTINUOUS
 10
305.0183660000000145
 20
254.2751100000000122
 30
0.0
 11
305.5183660000000145
 21
254.2751100000000122
 31
0.0
  0
LINE
  5
550
100
AcDbEntity
100
AcDbLine
  8
FORT
 62
7
370
-1
  6
CONTINUOUS
 10
305.0183660000000145
 20
254.2751100000000122
 30
0.0
 11
305.0183660000000145
 21
255.2751100000000122
 31
0.0
  0
CIRCLE
  5
551
100
AcDbEntity
100
AcDbCircle
  8
FORT
 62
7
370
-1
  6
CONTINUOUS
 10
303.5111739999999827
 20
251.8198519999999974
 30
0.0
 40
0.25
  0
CIRCLE
  5
552
100
AcDbEntity
100
AcDbCircle
  8
FORT
 62
7
370
-1
  6
CONTINUOUS
 10
302.7362590000000182
 20
245.3531389999999988
 30
0.0
 40
0.25
  0
LINE
  5
553
100
AcDbEntity
100
AcDbLine
  8
FORT
 62
7
370
-1
  6
CONTINUOUS
 10
305.5183660000000145
 20
233.2751100000000122
 30
0.0
 11
302.5183660000000145
 21
233.2751100000000122
 31
0.0
  0
ARC
  5
554
100
AcDbEntity
  8
FORT
 62
7
370
-1
  6
CONTINUOUS
100
AcDbCircle
 10
308.5183660000000145
 20
228.2751100000000122
 30
0.0
 40
5.0
100
AcDbArc
 50
0.0
 51
90.0
  0
ARC
  5
555
100
AcDbEntity
  8
FORT
 62
7
370
-1
  6
CONTINUOUS
100
AcDbCircle
 10
307.2683660000000145
 20
234.2751100000000122
 30
0.0
 40
2.0
100
AcDbArc
 50
14.477511999999999
 51
90.0
  0
LINE
  5
556
100
AcDbEntity
100
AcDbLine
  8
FORT
 62
7
370
-1
  6
CONTINUOUS
 10
307.2683660000000145
 20
236.2751100000000122
 30
0.0
 11
302.5183660000000145
 21
236.2751100000000122
 31
0.0
  0
LINE
  5
557
100
AcDbEntity
100
AcDbLine
  8
FORT
 62
7
370
-1
  6
CONTINUOUS
 10
308.5183660000000145
 20
230.2751100000000122
 30
0.0
 11
308.0183660000000145
 21
230.2751100000000122
 31
0.0
  0
LINE
  5
558
100
AcDbEntity
100
AcDbLine
  8
FORT
 62
7
370
-1
  6
CONTINUOUS
 10
305.0707689999999843
 20
236.2751100000000122
 30
0.0
 11
305.0707689999999843
 21
238.2751100000000122
 31
0.0
  0
ARC
  5
559
100
AcDbEntity
  8
FORT
 62
7
370
-1
  6
CONTINUOUS
100
AcDbCircle
 10
313.3933660000000145
 20
231.2751100000000122
 30
0.0
 40
10.875
100
AcDbArc
 50
169.4025239999999997
 51
180.0
  0
ARC
  5
55A
100
AcDbEntity
  8
FORT
 62
7
370
-1
  6
CONTINUOUS
100
AcDbCircle
 10
313.3933660000000145
 20
231.2751100000000122
 30
0.0
 40
10.875
100
AcDbArc
 50
136.3971809999999891
 51
152.6277259999999956
  0
LINE
  5
55B
100
AcDbEntity
100
AcDbLine
  8
FORT
 62
7
370
-1
  6
CONTINUOUS
 10
302.5183660000000145
 20
233.2751100000000122
 30
0.0
 11
302.5183660000000145
 21
236.2751100000000122
 31
0.0
  0
ARC
  5
55C
100
AcDbEntity
  8
FORT
 62
7
370
-1
  6
CONTINUOUS
100
AcDbCircle
 10
308.5183660000000145
 20
228.2751100000000122
 30
0.0
 40
2.0
100
AcDbArc
 50
0.0
 51
90.0
  0
LINE
  5
55D
100
AcDbEntity
100
AcDbLine
  8
FORT
 62
7
370
-1
  6
CONTINUOUS
 10
309.2048570000000041
 20
234.7751100000000122
 30
0.0
 11
308.5183660000000145
 21
234.7751100000000122
 31
0.0
  0
CIRCLE
  5
55E
100
AcDbEntity
100
AcDbCircle
  8
FORT
 62
7
370
-1
  6
CONTINUOUS
 10
308.5183660000000145
 20
234.0251100000000122
 30
0.0
 40
0.75
  0
ARC
  5
55F
100
AcDbEntity
  8
FORT
 62
7
370
-1
  6
CONTINUOUS
100
AcDbCircle
 10
308.0183660000000145
 20
232.7751100000000122
 30
0.0
 40
2.5
100
AcDbArc
 50
180.0
 51
270.0
  0
LINE
  5
560
100
AcDbEntity
100
AcDbLine
  8
FORT
 62
7
370
-1
  6
CONTINUOUS
 10
305.5183660000000145
 20
233.2751100000000122
 30
0.0
 11
305.5183660000000145
 21
232.7751100000000122
 31
0.0
  0
LINE
  5
561
100
AcDbEntity
100
AcDbLine
  8
FIN
 62
5
370
-1
  6
CONTINUOUS
 10
303.5111739999999827
 20
251.8198519999999974
 30
0.0
 11
336.4101870000000076
 21
242.9811939999999879
 31
0.0
  0
LINE
  5
562
100
AcDbEntity
100
AcDbLine
  8
FIN
 62
5
370
-1
  6
CONTINUOUS
 10
302.7362590000000182
 20
245.3531389999999988
 30
0.0
 11
336.4101870000000076
 21
232.9811939999999879
 31
0.0
  0
LWPOLYLINE
  5
563
  8
HACHURE
 62
5
370
-1
  6
CONTINUOUS
100
AcDbEntity
100
AcDbPolyline
 90
4
 70
1
 10
299.5183660000000145
 20
250.7751100000000122
 10
291.5183660000000145
 20
250.7751100000000122
 10
291.5183660000000145
 20
243.9931809999999928
 42
0.1795179999999999
 10
299.5183660000000145
 20
243.9931809999999928
  0
INSERT
  5
564
100
AcDbEntity
100
AcDbBlockReference
  8
HACHURE
 62
256
370
-1
  6
ByLayer
  2
DESENS-G34
 10
0.0
 20
0.0
 30
0.0
  0
LWPOLYLINE
  5
565
  8
HACHURE
 62
5
370
-1
  6
CONTINUOUS
100
AcDbEntity
100
AcDbPolyline
 90
4
 70
1
 10
299.5183660000000145
 20
262.7751099999999838
 10
299.5183660000000145
 20
258.7751099999999838
 10
305.5183660000000145
 20
258.7751099999999838
 10
305.5183660000000145
 20
259.2751099999999838
 42
0.1231059999999998
  0
INSERT
  5
566
100
AcDbEntity
100
AcDbBlockReference
  8
HACHURE
 62
256
370
-1
  6
ByLayer
  2
DESENS-G35
 10
0.0
 20
0.0
 30
0.0
  0
LINE
  5
567
100
AcDbEntity
100
AcDbLine
  8
FORT
 62
7
370
-1
  6
CONTINUOUS
 10
300.5183660000000145
 20
237.2751100000000122
 30
0.0
 11
295.5183660000000145
 21
240.1618620000000135
 31
0.0
  0
LINE
  5
568
100
AcDbEntity
100
AcDbLine
  8
FORT
 62
7
370
-1
  6
CONTINUOUS
 10
298.8424780000000283
 20
234.0871349999999893
 30
0.0
 11
291.9806950000000256
 21
235.5871349999999893
 31
0.0
  0
LINE
  5
569
100
AcDbEntity
100
AcDbLine
  8
FORT
 62
7
370
-1
  6
CONTINUOUS
 10
292.1942540000000008
 20
236.5640649999999994
 30
0.0
 11
299.0560370000000034
 21
235.0640649999999994
 31
0.0
  0
LINE
  5
56A
100
AcDbEntity
100
AcDbLine
  8
FORT
 62
7
370
-1
  6
CONTINUOUS
 10
298.8424780000000283
 20
231.0871349999999893
 30
0.0
 11
291.9806950000000256
 21
232.5871349999999893
 31
0.0
  0
LINE
  5
56B
100
AcDbEntity
100
AcDbLine
  8
FORT
 62
7
370
-1
  6
CONTINUOUS
 10
292.1942540000000008
 20
233.5640649999999994
 30
0.0
 11
299.0560370000000034
 21
232.0640649999999994
 31
0.0
  0
LINE
  5
56C
100
AcDbEntity
100
AcDbLine
  8
FORT
 62
7
370
-1
  6
CONTINUOUS
 10
291.9048540000000003
 20
238.0756000000000085
 30
0.0
 11
298.9492569999999887
 21
238.0756000000000085
 31
0.0
  0
LINE
  5
56D
100
AcDbEntity
100
AcDbLine
  8
FORT
 62
7
370
-1
  6
CONTINUOUS
 10
291.9048540000000003
 20
238.0756000000000085
 30
0.0
 11
298.8786349999999743
 21
237.0806129999999996
 31
0.0
  0
CIRCLE
  5
56E
100
AcDbEntity
100
AcDbCircle
  8
FORT
 62
7
370
-1
  6
CONTINUOUS
 10
292.0874739999999861
 20
236.0756000000000085
 30
0.0
 40
0.5
  0
CIRCLE
  5
56F
100
AcDbEntity
100
AcDbCircle
  8
FORT
 62
7
370
-1
  6
CONTINUOUS
 10
292.0874739999999861
 20
233.0756000000000085
 30
0.0
 40
0.5
  0
LINE
  5
570
100
AcDbEntity
100
AcDbLine
  8
FORT
 62
7
370
-1
  6
CONTINUOUS
 10
299.348889999999983
 20
237.2751100000000122
 30
0.0
 11
300.5183660000000145
 21
237.2751100000000122
 31
0.0
  0
CIRCLE
  5
571
100
AcDbEntity
100
AcDbCircle
  8
FORT
 62
7
370
-1
  6
CONTINUOUS
 10
298.9492569999999887
 20
237.5756000000000085
 30
0.0
 40
0.5
  0
CIRCLE
  5
572
100
AcDbEntity
100
AcDbCircle
  8
FORT
 62
7
370
-1
  6
CONTINUOUS
 10
298.9492569999999887
 20
234.5756000000000085
 30
0.0
 40
0.5
  0
CIRCLE
  5
573
100
AcDbEntity
100
AcDbCircle
  8
FORT
 62
7
370
-1
  6
CONTINUOUS
 10
298.9492569999999887
 20
231.5756000000000085
 30
0.0
 40
0.5
  0
ARC
  5
574
100
AcDbEntity
  8
FORT
 62
7
370
-1
  6
CONTINUOUS
100
AcDbCircle
 10
295.5183660000000145
 20
254.7751100000000122
 30
0.0
 40
11.5
100
AcDbArc
 50
69.6455940000000027
 51
110.3544059999999973
  0
CIRCLE
  5
575
100
AcDbEntity
100
AcDbCircle
  8
FORT
 62
7
370
-1
  6
CONTINUOUS
 10
297.1373530000000187
 20
264.6423360000000002
 30
0.0
 40
0.25
  0
LINE
  5
576
100
AcDbEntity
100
AcDbLine
  8
FORT
 62
7
370
-1
  6
CONTINUOUS
 10
363.1842250000000263
 20
210.8251669999999933
 30
0.0
 11
363.1842250000000263
 21
230.8251669999999933
 31
0.0
  0
LWPOLYLINE
  5
577
  8
HACHURE
 62
5
370
-1
  6
CONTINUOUS
100
AcDbEntity
100
AcDbPolyline
 90
2
 70
1
 10
366.8842250000000149
 20
230.8251669999999933
 42
0.9999999999999999
 10
373.484224999999924
 20
230.8251669999999933
 42
0.9999999999999999
  0
LWPOLYLINE
  5
578
  8
HACHURE
 62
5
370
-1
  6
CONTINUOUS
100
AcDbEntity
100
AcDbPolyline
 90
18
 70
1
 10
390.1842250000000263
 20
224.3251669999999933
 10
390.1842250000000263
 20
229.3251669999999933
 42
0.1709049999999999
 10
378.5936320000000137
 20
225.2441870000000108
 10
376.3418550000000096
 20
227.4959639999999865
 42
0.1245500000349405
 10
377.1842250000000831
 20
230.8251670009634324
 10
377.1842250000000263
 20
234.8251669999999933
 10
390.1842250000000263
 20
234.8251669999999933
 10
390.1842250000000263
 20
237.8251669999999933
 10
370.1842250000000263
 20
237.8251669999999933
 42
0.4142139999756766
 10
363.1842250000000263
 20
230.8251670005813025
 10
363.1842250000000263
 20
210.8251669999999933
 10
366.1842250000000263
 20
210.8251669999999933
 10
366.1842250000000263
 20
223.8251669999999933
 10
370.1842250000000263
 20
223.8251669999999933
 42
0.1245500000000001
 10
373.5134279999999762
 20
224.66753700000001
 10
375.7652039999999829
 20
222.4157600000000059
 42
0.1709049995349673
 10
371.6842250000000263
 20
210.8251670334358039
 10
376.6842250000000263
 20
210.8251669999999933
 42
-0.414214000037808
  0
INSERT
  5
579
100
AcDbEntity
100
AcDbBlockReference
  8
HACHURE
 62
256
370
-1
  6
ByLayer
  2
DESENS-G36
 10
0.0
 20
0.0
 30
0.0
  0
LINE
  5
57A
100
AcDbEntity
100
AcDbLine
  8
FORT
 62
7
370
-1
  6
CONTINUOUS
 10
386.0623049999999807
 20
154.3341719999999953
 30
0.0
 11
388.6016970000000015
 21
154.3341719999999953
 31
0.0
  0
LINE
  5
57B
100
AcDbEntity
100
AcDbLine
  8
FORT
 62
7
370
-1
  6
CONTINUOUS
 10
366.1842250000000263
 20
210.8251669999999933
 30
0.0
 11
366.1842250000000263
 21
223.8251669999999933
 31
0.0
  0
ARC
  5
57C
100
AcDbEntity
  8
FORT
 62
7
370
-1
  6
CONTINUOUS
100
AcDbCircle
 10
390.1842250000000263
 20
210.8251669999999933
 30
0.0
 40
13.5
100
AcDbArc
 50
90.0
 51
180.0
  0
LINE
  5
57D
100
AcDbEntity
100
AcDbLine
  8
FORT
 62
7
370
-1
  6
CONTINUOUS
 10
375.7652039999999829
 20
222.4157600000000059
 30
0.0
 11
373.5134279999999762
 21
224.66753700000001
 31
0.0
  0
LINE
  5
57E
100
AcDbEntity
100
AcDbLine
  8
FIN
 62
5
370
-1
  6
CONTINUOUS
 10
356.4012280000000032
 20
213.3251669999999933
 30
0.0
 11
356.4012280000000032
 21
208.3251669999999933
 31
0.0
  0
LINE
  5
57F
100
AcDbEntity
100
AcDbLine
  8
FIN
 62
5
370
-1
  6
CONTINUOUS
 10
357.9012280000000032
 20
213.3251669999999933
 30
0.0
 11
357.9012280000000032
 21
208.3251669999999933
 31
0.0
  0
ARC
  5
580
100
AcDbEntity
  8
FORT
 62
7
370
-1
  6
CONTINUOUS
100
AcDbCircle
 10
390.1842250000000263
 20
210.8251669999999933
 30
0.0
 40
18.5
100
AcDbArc
 50
141.2062679999999943
 51
180.0
  0
LINE
  5
581
100
AcDbEntity
100
AcDbLine
  8
FIN
 62
5
370
-1
  6
CONTINUOUS
 10
396.967220999999995
 20
213.3251669999999933
 30
0.0
 11
396.967220999999995
 21
208.3251669999999933
 31
0.0
  0
LINE
  5
582
100
AcDbEntity
100
AcDbLine
  8
FIN
 62
5
370
-1
  6
CONTINUOUS
 10
395.467220999999995
 20
213.3251669999999933
 30
0.0
 11
395.467220999999995
 21
208.3251669999999933
 31
0.0
  0
LINE
  5
583
100
AcDbEntity
100
AcDbLine
  8
FIN
 62
5
370
-1
  6
CONTINUOUS
 10
387.6842250000000263
 20
204.0421699999999987
 30
0.0
 11
392.6842250000000263
 21
204.0421699999999987
 31
0.0
  0
LINE
  5
584
100
AcDbEntity
100
AcDbLine
  8
FIN
 62
5
370
-1
  6
CONTINUOUS
 10
387.6842250000000263
 20
205.5421699999999987
 30
0.0
 11
392.6842250000000263
 21
205.5421699999999987
 31
0.0
  0
LINE
  5
585
100
AcDbEntity
100
AcDbLine
  8
FORT
 62
7
370
-1
  6
CONTINUOUS
 10
370.1842250000000263
 20
223.8251669999999933
 30
0.0
 11
366.1842250000000263
 21
223.8251669999999933
 31
0.0
  0
ARC
  5
586
100
AcDbEntity
  8
FORT
 62
7
370
-1
  6
CONTINUOUS
100
AcDbCircle
 10
370.1842250000000263
 20
230.8251669999999933
 30
0.0
 40
7.0
100
AcDbArc
 50
270.0
 51
298.3984500000000253
  0
ARC
  5
587
100
AcDbEntity
  8
FORT
 62
7
370
-1
  6
CONTINUOUS
100
AcDbCircle
 10
370.1842250000000263
 20
230.8251669999999933
 30
0.0
 40
7.0
100
AcDbArc
 50
90.0
 51
180.0
  0
LINE
  5
588
100
AcDbEntity
100
AcDbLine
  8
FORT
 62
7
370
-1
  6
CONTINUOUS
 10
377.1842250000000263
 20
230.8251669999999933
 30
0.0
 11
377.1842250000000263
 21
234.8251669999999933
 31
0.0
  0
ARC
  5
589
100
AcDbEntity
  8
FORT
 62
7
370
-1
  6
CONTINUOUS
100
AcDbCircle
 10
390.1842250000000263
 20
210.8251669999999933
 30
0.0
 40
18.5
100
AcDbArc
 50
90.0
 51
128.7937320000000057
  0
ARC
  5
58A
100
AcDbEntity
  8
FORT
 62
7
370
-1
  6
CONTINUOUS
100
AcDbCircle
 10
370.1842250000000263
 20
230.8251669999999933
 30
0.0
 40
7.0
100
AcDbArc
 50
331.6015499999999747
 51
0.0
  0
LINE
  5
58B
100
AcDbEntity
100
AcDbLine
  8
FORT
 62
7
370
-1
  6
CONTINUOUS
 10
378.5936320000000137
 20
225.2441870000000108
 30
0.0
 11
376.3418550000000096
 21
227.4959639999999865
 31
0.0
  0
LINE
  5
58C
100
AcDbEntity
100
AcDbLine
  8
FORT
 62
7
370
-1
  6
CONTINUOUS
 10
370.1842250000000263
 20
237.8251669999999933
 30
0.0
 11
390.1842250000000263
 21
237.8251669999999933
 31
0.0
  0
LINE
  5
58D
100
AcDbEntity
100
AcDbLine
  8
FORT
 62
7
370
-1
  6
CONTINUOUS
 10
377.1842250000000263
 20
234.8251669999999933
 30
0.0
 11
390.1842250000000263
 21
234.8251669999999933
 31
0.0
  0
CIRCLE
  5
58E
100
AcDbEntity
100
AcDbCircle
  8
FORT
 62
7
370
-1
  6
CONTINUOUS
 10
370.1842250000000263
 20
230.8251669999999933
 30
0.0
 40
3.2999999999999998
  0
LINE
  5
58F
100
AcDbEntity
100
AcDbLine
  8
FIN
 62
5
370
-1
  6
CONTINUOUS
 10
392.6842250000000263
 20
244.6081629999999905
 30
0.0
 11
387.6842250000000263
 21
244.6081629999999905
 31
0.0
  0
LINE
  5
590
100
AcDbEntity
100
AcDbLine
  8
FIN
 62
5
370
-1
  6
CONTINUOUS
 10
392.6842250000000263
 20
243.1081629999999905
 30
0.0
 11
387.6842250000000263
 21
243.1081629999999905
 31
0.0
  0
LINE
  5
591
100
AcDbEntity
100
AcDbLine
  8
FIN
 62
5
370
-1
  6
CONTINUOUS
 10
220.0
 20
20.5
 30
0.0
 11
410.0
 21
20.5
 31
0.0
  0
LINE
  5
592
100
AcDbEntity
100
AcDbLine
  8
FORT
 62
7
370
-1
  6
CONTINUOUS
 10
410.0
 20
41.0
 30
0.0
 11
410.0
 21
287.0
 31
0.0
  0
LINE
  5
593
100
AcDbEntity
100
AcDbLine
  8
FORT
 62
256
370
-1
  6
ByLayer
 10
220.0
 20
10.0
 30
0.0
 11
10.0
 21
10.0
 31
0.0
  0
LINE
  5
594
100
AcDbEntity
100
AcDbLine
  8
RENFORCE
 62
256
370
-1
  6
ByLayer
 10
220.0
 20
10.0
 30
0.0
 11
410.0
 21
10.0
 31
0.0
  0
LINE
  5
595
100
AcDbEntity
100
AcDbLine
  8
RENFORCE
 62
256
370
-1
  6
ByLayer
 10
220.0
 20
41.0
 30
0.0
 11
220.0
 21
10.0
 31
0.0
  0
LINE
  5
596
100
AcDbEntity
100
AcDbLine
  8
RENFORCE
 62
256
370
-1
  6
ByLayer
 10
220.0
 20
41.0
 30
0.0
 11
410.0
 21
41.0
 31
0.0
  0
LINE
  5
597
100
AcDbEntity
100
AcDbLine
  8
RENFORCE
 62
256
370
-1
  6
ByLayer
 10
410.0
 20
41.0
 30
0.0
 11
410.0
 21
10.0
 31
0.0
  0
LINE
  5
598
100
AcDbEntity
100
AcDbLine
  8
AXE
 62
256
370
-1
  6
ByLayer
 10
54.1588399999999979
 20
271.2751099999999838
 30
0.0
 11
54.1588399999999979
 21
148.2751100000000122
 31
0.0
  0
LINE
  5
599
100
AcDbEntity
100
AcDbLine
  8
AXE
 62
256
370
-1
  6
ByLayer
 10
56.1588399999999979
 20
46.275109999999998
 30
0.0
 11
56.1588399999999979
 21
110.275109999999998
 31
0.0
  0
LINE
  5
59A
100
AcDbEntity
100
AcDbLine
  8
AXE
 62
256
370
-1
  6
ByLayer
 10
37.0136660000000006
 20
61.275109999999998
 30
0.0
 11
19.9459119999999999
 21
61.275109999999998
 31
0.0
  0
LINE
  5
59B
100
AcDbEntity
100
AcDbLine
  8
AXE
 62
256
370
-1
  6
ByLayer
 10
22.1588400000000014
 20
82.275109999999998
 30
0.0
 11
87.1588399999999979
 21
82.275109999999998
 31
0.0
  0
LINE
  5
59C
100
AcDbEntity
100
AcDbLine
  8
AXE
 62
256
370
-1
  6
ByLayer
 10
37.0136660000000006
 20
156.2751100000000122
 30
0.0
 11
19.9459119999999999
 21
156.2751100000000122
 31
0.0
  0
LINE
  5
59D
100
AcDbEntity
100
AcDbLine
  8
AXE
 62
256
370
-1
  6
ByLayer
 10
34.1588399999999979
 20
224.3312880000000007
 30
0.0
 11
34.1588399999999979
 21
205.0246999999999957
 31
0.0
  0
LINE
  5
59E
100
AcDbEntity
100
AcDbLine
  8
AXE
 62
256
370
-1
  6
ByLayer
 10
65.1588399999999979
 20
168.2751100000000122
 30
0.0
 11
87.4365729999999957
 21
168.2751100000000122
 31
0.0
  0
LINE
  5
59F
100
AcDbEntity
100
AcDbLine
  8
AXE
 62
256
370
-1
  6
ByLayer
 10
74.1588399999999979
 20
224.3312880000000007
 30
0.0
 11
74.1588399999999979
 21
205.0246999999999957
 31
0.0
  0
LINE
  5
5A0
100
AcDbEntity
100
AcDbLine
  8
AXE
 62
256
370
-1
  6
ByLayer
 10
39.1588399999999979
 20
254.7751100000000122
 30
0.0
 11
69.1588399999999979
 21
254.7751100000000122
 31
0.0
  0
LINE
  5
5A1
100
AcDbEntity
100
AcDbLine
  8
AXE
 62
256
370
-1
  6
ByLayer
 10
200.7347239999999999
 20
82.275109999999998
 30
0.0
 11
236.7347239999999999
 21
82.275109999999998
 31
0.0
  0
LINE
  5
5A2
100
AcDbEntity
100
AcDbLine
  8
AXE
 62
256
370
-1
  6
ByLayer
 10
159.7347239999999999
 20
61.5751100000000022
 30
0.0
 11
159.7347239999999999
 21
256.0406469999999786
 31
0.0
  0
LINE
  5
5A3
100
AcDbEntity
100
AcDbLine
  8
AXE
 62
256
370
-1
  6
ByLayer
 10
131.2029100000000028
 20
105.275109999999998
 30
0.0
 11
104.2665369999999996
 21
105.275109999999998
 31
0.0
  0
LINE
  5
5A4
100
AcDbEntity
100
AcDbLine
  8
AXE
 62
256
370
-1
  6
ByLayer
 10
94.7347239999999999
 20
82.275109999999998
 30
0.0
 11
118.7347239999999999
 21
82.275109999999998
 31
0.0
  0
LINE
  5
5A5
100
AcDbEntity
100
AcDbLine
  8
AXE
 62
256
370
-1
  6
ByLayer
 10
140.0021570000000111
 20
61.275109999999998
 30
0.0
 11
131.4672899999999913
 21
61.275109999999998
 31
0.0
  0
LINE
  5
5A6
100
AcDbEntity
100
AcDbLine
  8
AXE
 62
256
370
-1
  6
ByLayer
 10
135.7347239999999999
 20
57.007677000000001
 30
0.0
 11
135.7347239999999999
 21
65.5425440000000066
 31
0.0
  0
LINE
  5
5A7
100
AcDbEntity
100
AcDbLine
  8
AXE
 62
256
370
-1
  6
ByLayer
 10
188.0021570000000111
 20
61.275109999999998
 30
0.0
 11
179.4672899999999913
 21
61.275109999999998
 31
0.0
  0
LINE
  5
5A8
100
AcDbEntity
100
AcDbLine
  8
AXE
 62
256
370
-1
  6
ByLayer
 10
183.7347239999999999
 20
57.007677000000001
 30
0.0
 11
183.7347239999999999
 21
65.5425440000000066
 31
0.0
  0
LINE
  5
5A9
100
AcDbEntity
100
AcDbLine
  8
AXE
 62
256
370
-1
  6
ByLayer
 10
198.2029100000000028
 20
131.2751100000000122
 30
0.0
 11
171.2665369999999996
 21
131.2751100000000122
 31
0.0
  0
LINE
  5
5AA
100
AcDbEntity
100
AcDbLine
  8
AXE
 62
256
370
-1
  6
ByLayer
 10
142.5695149999999956
 20
77.775109999999998
 30
0.0
 11
176.8999320000000068
 21
77.775109999999998
 31
0.0
  0
LINE
  5
5AB
100
AcDbEntity
100
AcDbLine
  8
AXE
 62
256
370
-1
  6
ByLayer
 10
117.7347239999999999
 20
91.8069239999999951
 30
0.0
 11
117.7347239999999999
 21
118.7432969999999983
 31
0.0
  0
LINE
  5
5AC
100
AcDbEntity
100
AcDbLine
  8
AXE
 62
256
370
-1
  6
ByLayer
 10
121.2665369999999996
 20
131.2751100000000122
 30
0.0
 11
148.2029100000000028
 21
131.2751100000000122
 31
0.0
  0
LINE
  5
5AD
100
AcDbEntity
100
AcDbLine
  8
AXE
 62
256
370
-1
  6
ByLayer
 10
134.7347239999999999
 20
117.8069239999999951
 30
0.0
 11
134.7347239999999999
 21
144.7432970000000125
 31
0.0
  0
LINE
  5
5AE
100
AcDbEntity
100
AcDbLine
  8
AXE
 62
256
370
-1
  6
ByLayer
 10
201.7347239999999999
 20
91.8069239999999951
 30
0.0
 11
201.7347239999999999
 21
118.7432969999999983
 31
0.0
  0
LINE
  5
5AF
100
AcDbEntity
100
AcDbLine
  8
AXE
 62
256
370
-1
  6
ByLayer
 10
215.2029100000000028
 20
105.275109999999998
 30
0.0
 11
188.2665369999999996
 21
105.275109999999998
 31
0.0
  0
LINE
  5
5B0
100
AcDbEntity
100
AcDbLine
  8
AXE
 62
256
370
-1
  6
ByLayer
 10
184.7347239999999999
 20
117.8069239999999951
 30
0.0
 11
184.7347239999999999
 21
144.7432970000000125
 31
0.0
  0
LINE
  5
5B1
100
AcDbEntity
100
AcDbLine
  8
AXE
 62
256
370
-1
  6
ByLayer
 10
110.6738820000000061
 20
168.2751100000000122
 30
0.0
 11
126.7955659999999938
 21
168.2751100000000122
 31
0.0
  0
LINE
  5
5B2
100
AcDbEntity
100
AcDbLine
  8
AXE
 62
256
370
-1
  6
ByLayer
 10
135.7347239999999999
 20
152.007677000000001
 30
0.0
 11
135.7347239999999999
 21
160.5425439999999924
 31
0.0
  0
LINE
  5
5B3
100
AcDbEntity
100
AcDbLine
  8
AXE
 62
256
370
-1
  6
ByLayer
 10
118.7347239999999999
 20
160.2142680000000041
 30
0.0
 11
118.7347239999999999
 21
176.3359519999999918
 31
0.0
  0
LINE
  5
5B4
100
AcDbEntity
100
AcDbLine
  8
AXE
 62
256
370
-1
  6
ByLayer
 10
140.0021570000000111
 20
156.2751100000000122
 30
0.0
 11
131.4672899999999913
 21
156.2751100000000122
 31
0.0
  0
LINE
  5
5B5
100
AcDbEntity
100
AcDbLine
  8
AXE
 62
256
370
-1
  6
ByLayer
 10
139.7347239999999999
 20
224.3312880000000007
 30
0.0
 11
139.7347239999999999
 21
205.0246999999999957
 31
0.0
  0
LINE
  5
5B6
100
AcDbEntity
100
AcDbLine
  8
AXE
 62
256
370
-1
  6
ByLayer
 10
188.0021570000000111
 20
156.2751100000000122
 30
0.0
 11
179.4672899999999913
 21
156.2751100000000122
 31
0.0
  0
LINE
  5
5B7
100
AcDbEntity
100
AcDbLine
  8
AXE
 62
256
370
-1
  6
ByLayer
 10
183.7347239999999999
 20
152.007677000000001
 30
0.0
 11
183.7347239999999999
 21
160.5425439999999924
 31
0.0
  0
LINE
  5
5B8
100
AcDbEntity
100
AcDbLine
  8
AXE
 62
256
370
-1
  6
ByLayer
 10
200.7347239999999999
 20
160.2142680000000041
 30
0.0
 11
200.7347239999999999
 21
176.3359519999999918
 31
0.0
  0
LINE
  5
5B9
100
AcDbEntity
100
AcDbLine
  8
AXE
 62
256
370
-1
  6
ByLayer
 10
208.795566000000008
 20
168.2751100000000122
 30
0.0
 11
192.6738819999999919
 21
168.2751100000000122
 31
0.0
  0
LINE
  5
5BA
100
AcDbEntity
100
AcDbLine
  8
AXE
 62
256
370
-1
  6
ByLayer
 10
179.7347239999999999
 20
224.3312880000000007
 30
0.0
 11
179.7347239999999999
 21
205.0246999999999957
 31
0.0
  0
LINE
  5
5BB
100
AcDbEntity
100
AcDbLine
  8
AXE
 62
256
370
-1
  6
ByLayer
 10
143.2347239999999999
 20
254.7751100000000122
 30
0.0
 11
176.2347239999999999
 21
254.7751100000000122
 31
0.0
  0
LINE
  5
5BC
100
AcDbEntity
100
AcDbLine
  8
AXE
 62
256
370
-1
  6
ByLayer
 10
295.5183660000000145
 20
271.2751099999999838
 30
0.0
 11
295.5183660000000145
 21
132.6860200000000134
 31
0.0
  0
LINE
  5
5BD
100
AcDbEntity
100
AcDbLine
  8
AXE
 62
256
370
-1
  6
ByLayer
 10
293.5183660000000145
 20
46.275109999999998
 30
0.0
 11
293.5183660000000145
 21
112.9603100000000069
 31
0.0
  0
LINE
  5
5BE
100
AcDbEntity
100
AcDbLine
  8
AXE
 62
256
370
-1
  6
ByLayer
 10
313.7060839999999757
 20
61.275109999999998
 30
0.0
 11
329.7312939999999912
 21
61.275109999999998
 31
0.0
  0
LINE
  5
5BF
100
AcDbEntity
100
AcDbLine
  8
AXE
 62
256
370
-1
  6
ByLayer
 10
262.5183660000000145
 20
82.275109999999998
 30
0.0
 11
327.5183660000000145
 21
82.275109999999998
 31
0.0
  0
LINE
  5
5C0
100
AcDbEntity
100
AcDbLine
  8
AXE
 62
256
370
-1
  6
ByLayer
 10
262.5183660000000145
 20
77.775109999999998
 30
0.0
 11
291.1291299999999751
 21
77.775109999999998
 31
0.0
  0
LINE
  5
5C1
100
AcDbEntity
100
AcDbLine
  8
AXE
 62
256
370
-1
  6
ByLayer
 10
263.5183660000000145
 20
105.275109999999998
 30
0.0
 11
278.9017410000000154
 21
105.275109999999998
 31
0.0
  0
LINE
  5
5C2
100
AcDbEntity
100
AcDbLine
  8
AXE
 62
256
370
-1
  6
ByLayer
 10
263.5183660000000145
 20
131.2751100000000122
 30
0.0
 11
278.9017410000000154
 21
131.2751100000000122
 31
0.0
  0
LINE
  5
5C3
100
AcDbEntity
100
AcDbLine
  8
AXE
 62
256
370
-1
  6
ByLayer
 10
292.0874739999999861
 20
231.3446089999999913
 30
0.0
 11
292.0874739999999861
 21
200.3351629999999943
 31
0.0
  0
LINE
  5
5C4
100
AcDbEntity
100
AcDbLine
  8
AXE
 62
256
370
-1
  6
ByLayer
 10
298.9492569999999887
 20
198.9765830000000051
 30
0.0
 11
298.9492569999999887
 21
230.010436999999996
 31
0.0
  0
LINE
  5
5C5
100
AcDbEntity
100
AcDbLine
  8
AXE
 62
256
370
-1
  6
ByLayer
 10
262.5183660000000145
 20
168.2751100000000122
 30
0.0
 11
279.1550560000000019
 21
168.2751100000000122
 31
0.0
  0
LINE
  5
5C6
100
AcDbEntity
100
AcDbLine
  8
AXE
 62
256
370
-1
  6
ByLayer
 10
275.5183660000000145
 20
224.3312880000000007
 30
0.0
 11
275.5183660000000145
 21
205.0246999999999957
 31
0.0
  0
LINE
  5
5C7
100
AcDbEntity
100
AcDbLine
  8
AXE
 62
256
370
-1
  6
ByLayer
 10
329.7312939999999912
 20
156.2751100000000122
 30
0.0
 11
313.7060839999999757
 21
156.2751100000000122
 31
0.0
  0
LINE
  5
5C8
100
AcDbEntity
100
AcDbLine
  8
AXE
 62
256
370
-1
  6
ByLayer
 10
315.5183660000000145
 20
224.3312880000000007
 30
0.0
 11
315.5183660000000145
 21
205.0246999999999957
 31
0.0
  0
LINE
  5
5C9
100
AcDbEntity
100
AcDbLine
  8
AXE
 62
256
370
-1
  6
ByLayer
 10
280.5183660000000145
 20
254.7751100000000122
 30
0.0
 11
310.5183660000000145
 21
254.7751100000000122
 31
0.0
  0
LINE
  5
5CA
100
AcDbEntity
100
AcDbLine
  8
AXE
 62
256
370
-1
  6
ByLayer
 10
379.0623049999999807
 20
169.3341719999999953
 30
0.0
 11
379.0623049999999807
 21
133.3341719999999953
 31
0.0
  0
LINE
  5
5CB
100
AcDbEntity
100
AcDbLine
  8
AXE
 62
256
370
-1
  6
ByLayer
 10
379.0623049999999807
 20
101.3492719999999991
 30
0.0
 11
379.0623049999999807
 21
59.0176569999999998
 31
0.0
  0
LINE
  5
5CC
100
AcDbEntity
100
AcDbLine
  8
AXE
 62
256
370
-1
  6
ByLayer
 10
360.0623049999999807
 20
80.1834649999999982
 30
0.0
 11
398.0623049999999807
 21
80.1834649999999982
 31
0.0
  0
LINE
  5
5CD
100
AcDbEntity
100
AcDbLine
  8
AXE
 62
256
370
-1
  6
ByLayer
 10
390.1842250000000263
 20
199.9586529999999982
 30
0.0
 11
390.1842250000000263
 21
247.8798590000000104
 31
0.0
  0
LINE
  5
5CE
100
AcDbEntity
100
AcDbLine
  8
AXE
 62
256
370
-1
  6
ByLayer
 10
361.0623049999999807
 20
151.3341719999999953
 30
0.0
 11
397.0623049999999807
 21
151.3341719999999953
 31
0.0
  0
LINE
  5
5CF
100
AcDbEntity
100
AcDbLine
  8
AXE
 62
256
370
-1
  6
ByLayer
 10
353.1295319999999833
 20
210.8251669999999933
 30
0.0
 11
401.0507390000000214
 21
210.8251669999999933
 31
0.0
  0
LINE
  5
5D0
100
AcDbEntity
100
AcDbLine
  8
AXE
 62
256
370
-1
  6
ByLayer
 10
370.1842250000000263
 20
225.5412959999999885
 30
0.0
 11
370.1842250000000263
 21
236.1090370000000007
 31
0.0
  0
LINE
  5
5D1
100
AcDbEntity
100
AcDbLine
  8
AXE
 62
256
370
-1
  6
ByLayer
 10
375.4680950000000053
 20
230.8251669999999933
 30
0.0
 11
364.900353999999993
 21
230.8251669999999933
 31
0.0
  0
LINE
  5
5D2
100
AcDbEntity
100
AcDbLine
  8
INTERROMPU
 62
256
370
-1
  6
ByLayer
 10
113.7347239999999999
 20
100.275109999999998
 30
0.0
 11
99.7347239999999999
 21
100.275109999999998
 31
0.0
  0
LINE
  5
5D3
100
AcDbEntity
100
AcDbLine
  8
INTERROMPU
 62
256
370
-1
  6
ByLayer
 10
113.7347239999999999
 20
98.275109999999998
 30
0.0
 11
99.7347239999999999
 21
98.275109999999998
 31
0.0
  0
LINE
  5
5D4
100
AcDbEntity
100
AcDbLine
  8
INTERROMPU
 62
256
370
-1
  6
ByLayer
 10
113.7347239999999999
 20
66.275109999999998
 30
0.0
 11
99.7347239999999999
 21
66.275109999999998
 31
0.0
  0
LINE
  5
5D5
100
AcDbEntity
100
AcDbLine
  8
INTERROMPU
 62
256
370
-1
  6
ByLayer
 10
113.7347239999999999
 20
64.275109999999998
 30
0.0
 11
99.7347239999999999
 21
64.275109999999998
 31
0.0
  0
LINE
  5
5D6
100
AcDbEntity
100
AcDbLine
  8
INTERROMPU
 62
256
370
-1
  6
ByLayer
 10
219.7347239999999999
 20
100.275109999999998
 30
0.0
 11
219.7347239999999999
 21
64.275109999999998
 31
0.0
  0
LINE
  5
5D7
100
AcDbEntity
100
AcDbLine
  8
INTERROMPU
 62
256
370
-1
  6
ByLayer
 10
152.2823960000000056
 20
58.3660190000000014
 30
0.0
 11
146.6931500000000028
 21
72.6842010000000016
 31
0.0
  0
LINE
  5
5D8
100
AcDbEntity
100
AcDbLine
  8
INTERROMPU
 62
256
370
-1
  6
ByLayer
 10
172.7762969999999996
 20
72.6842010000000016
 30
0.0
 11
167.1870509999999967
 21
58.3660190000000014
 31
0.0
  0
ARC
  5
5D9
100
AcDbEntity
  8
INTERROMPU
 62
256
370
-1
  6
ByLayer
100
AcDbCircle
 10
159.7347239999999999
 20
61.275109999999998
 30
0.0
 40
8.0
100
AcDbArc
 50
201.3236860000000092
 51
338.6763139999999908
  0
ARC
  5
5DA
100
AcDbEntity
  8
INTERROMPU
 62
256
370
-1
  6
ByLayer
100
AcDbCircle
 10
159.7347239999999999
 20
77.775109999999998
 30
0.0
 40
14.0
100
AcDbArc
 50
338.6763139999999908
 51
201.3236860000000092
  0
CIRCLE
  5
5DB
100
AcDbEntity
100
AcDbCircle
  8
INTERROMPU
 62
256
370
-1
  6
ByLayer
 10
118.7347239999999999
 20
168.2751100000000122
 30
0.0
 40
10.0
  0
LINE
  5
5DC
100
AcDbEntity
100
AcDbLine
  8
INTERROMPU
 62
256
370
-1
  6
ByLayer
 10
145.2347239999999999
 20
217.2751100000000122
 30
0.0
 11
134.2347239999999999
 21
217.2751100000000122
 31
0.0
  0
CIRCLE
  5
5DD
100
AcDbEntity
100
AcDbCircle
  8
INTERROMPU
 62
256
370
-1
  6
ByLayer
 10
200.7347239999999999
 20
168.2751100000000122
 30
0.0
 40
10.0
  0
LINE
  5
5DE
100
AcDbEntity
100
AcDbLine
  8
INTERROMPU
 62
256
370
-1
  6
ByLayer
 10
185.2347239999999999
 20
217.2751100000000122
 30
0.0
 11
174.2347239999999999
 21
217.2751100000000122
 31
0.0
  0
LINE
  5
5DF
100
AcDbEntity
100
AcDbLine
  8
INTERROMPU
 62
256
370
-1
  6
ByLayer
 10
305.0707689999999843
 20
177.2751100000000122
 30
0.0
 11
305.0707689999999843
 21
189.2751100000000122
 31
0.0
  0
LINE
  5
5E0
100
AcDbEntity
100
AcDbLine
  8
INTERROMPU
 62
256
370
-1
  6
ByLayer
 10
305.0707689999999843
 20
204.2751100000000122
 30
0.0
 11
305.0707689999999843
 21
216.2751100000000122
 31
0.0
  0
MTEXT
  5
5E1
100
AcDbEntity
100
AcDbMText
  8
TEXTE
 62
256
370
-1
  6
ByLayer
 10
158.2513449999999864
 20
36.4230119999999999
 30
0.0
 40
5.0
 41
100.0
 71
7
 72
2
  1
A
  7
iso9
 50
0.0
 73
0
 44
1.0
  0
MTEXT
  5
5E2
100
AcDbEntity
100
AcDbMText
  8
TEXTE
 62
256
370
-1
  6
ByLayer
 10
190.1479549999999961
 20
276.1927450000000022
 30
0.0
 40
5.0
 41
100.0
 71
8
 72
2
  1
VUE DE FACE
  7
iso9
 50
0.0
 73
0
 44
1.0
  0
MTEXT
  5
5E3
100
AcDbEntity
100
AcDbMText
  8
TEXTE
 62
256
370
-1
  6
ByLayer
 10
190.1479549999999961
 20
268.6927450000000022
 30
0.0
 40
5.0
 41
100.0
 71
8
 72
2
  1
21, 22 et 23
  7
iso9
 50
0.0
 73
0
 44
1.0
  0
MTEXT
  5
5E4
100
AcDbEntity
100
AcDbMText
  8
TEXTE
 62
256
370
-1
  6
ByLayer
 10
190.1479549999999961
 20
261.1927450000000022
 30
0.0
 40
5.0
 41
100.0
 71
8
 72
2
  1
ENLEVEES
  7
iso9
 50
0.0
 73
0
 44
1.0
  0
MTEXT
  5
5E5
100
AcDbEntity
100
AcDbMText
  8
TEXTE
 62
256
370
-1
  6
ByLayer
 10
158.2513449999999864
 20
276.1927450000000022
 30
0.0
 40
5.0
 41
100.0
 71
7
 72
2
  1
A
  7
iso9
 50
0.0
 73
0
 44
1.0
  0
MTEXT
  5
5E6
100
AcDbEntity
100
AcDbMText
  8
TEXTE
 62
256
370
-1
  6
ByLayer
 10
303.0630840000000035
 20
12.6947080000000003
 30
0.0
 40
5.0
 41
100.0
 71
7
 72
2
  1
Dessin d'ensemble
  7
iso9
 50
0.0
 73
0
 44
1.0
  0
MTEXT
  5
5E7
100
AcDbEntity
100
AcDbMText
  8
TEXTE
 62
256
370
-1
  6
ByLayer
 10
247.626544999999993
 20
69.9811940000000021
 30
0.0
 40
5.0
 41
100.0
 71
7
 72
2
  1
13
  7
iso9
 50
0.0
 73
0
 44
1.0
  0
MTEXT
  5
5E8
100
AcDbEntity
100
AcDbMText
  8
TEXTE
 62
256
370
-1
  6
ByLayer
 10
339.4101870000000076
 20
69.9811940000000021
 30
0.0
 40
5.0
 41
100.0
 71
7
 72
2
  1
23
  7
iso9
 50
0.0
 73
0
 44
1.0
  0
MTEXT
  5
5E9
100
AcDbEntity
100
AcDbMText
  8
TEXTE
 62
256
370
-1
  6
ByLayer
 10
247.626544999999993
 20
109.9811940000000021
 30
0.0
 40
5.0
 41
100.0
 71
7
 72
2
  1
10
  7
iso9
 50
0.0
 73
0
 44
1.0
  0
MTEXT
  5
5EA
100
AcDbEntity
100
AcDbMText
  8
TEXTE
 62
256
370
-1
  6
ByLayer
 10
247.626544999999993
 20
89.9811940000000021
 30
0.0
 40
5.0
 41
100.0
 71
7
 72
2
  1
11
  7
iso9
 50
0.0
 73
0
 44
1.0
  0
MTEXT
  5
5EB
100
AcDbEntity
100
AcDbMText
  8
TEXTE
 62
256
370
-1
  6
ByLayer
 10
247.626544999999993
 20
79.9811940000000021
 30
0.0
 40
5.0
 41
100.0
 71
7
 72
2
  1
12
  7
iso9
 50
0.0
 73
0
 44
1.0
  0
MTEXT
  5
5EC
100
AcDbEntity
100
AcDbMText
  8
TEXTE
 62
256
370
-1
  6
ByLayer
 10
248.626544999999993
 20
139.9811939999999879
 30
0.0
 40
5.0
 41
100.0
 71
7
 72
2
  1
8
  7
iso9
 50
0.0
 73
0
 44
1.0
  0
MTEXT
  5
5ED
100
AcDbEntity
100
AcDbMText
  8
TEXTE
 62
256
370
-1
  6
ByLayer
 10
248.626544999999993
 20
119.9811940000000021
 30
0.0
 40
5.0
 41
100.0
 71
7
 72
2
  1
9
  7
iso9
 50
0.0
 73
0
 44
1.0
  0
MTEXT
  5
5EE
100
AcDbEntity
100
AcDbMText
  8
TEXTE
 62
256
370
-1
  6
ByLayer
 10
339.4101870000000076
 20
79.9811940000000021
 30
0.0
 40
5.0
 41
100.0
 71
7
 72
2
  1
22
  7
iso9
 50
0.0
 73
0
 44
1.0
  0
MTEXT
  5
5EF
100
AcDbEntity
100
AcDbMText
  8
TEXTE
 62
256
370
-1
  6
ByLayer
 10
339.6589849999999728
 20
89.9811940000000021
 30
0.0
 40
5.0
 41
100.0
 71
7
 72
2
  1
21
  7
iso9
 50
0.0
 73
0
 44
1.0
  0
MTEXT
  5
5F0
100
AcDbEntity
100
AcDbMText
  8
TEXTE
 62
256
370
-1
  6
ByLayer
 10
296.7101610000000278
 20
120.8423590000000019
 30
0.0
 40
5.0
 41
100.0
 71
7
 72
2
  1
F
  7
iso9
 50
0.0
 73
0
 44
1.0
  0
MTEXT
  5
5F1
100
AcDbEntity
100
AcDbMText
  8
TEXTE
 62
256
370
-1
  6
ByLayer
 10
368.7759399999999914
 20
106.4377719999999954
 30
0.0
 40
5.0
 41
100.0
 71
7
 72
2
  1
F de 19
  7
iso9
 50
0.0
 73
0
 44
1.0
  0
MTEXT
  5
5F2
100
AcDbEntity
100
AcDbMText
  8
TEXTE
 62
256
370
-1
  6
ByLayer
 10
248.626544999999993
 20
224.9811939999999879
 30
0.0
 40
5.0
 41
100.0
 71
7
 72
2
  1
4
  7
iso9
 50
0.0
 73
0
 44
1.0
  0
MTEXT
  5
5F3
100
AcDbEntity
100
AcDbMText
  8
TEXTE
 62
256
370
-1
  6
ByLayer
 10
339.4101870000000076
 20
224.9811939999999879
 30
0.0
 40
5.0
 41
100.0
 71
7
 72
2
  1
17
  7
iso9
 50
0.0
 73
0
 44
1.0
  0
MTEXT
  5
5F4
100
AcDbEntity
100
AcDbMText
  8
TEXTE
 62
256
370
-1
  6
ByLayer
 10
248.626544999999993
 20
159.9811939999999879
 30
0.0
 40
5.0
 41
100.0
 71
7
 72
2
  1
6
  7
iso9
 50
0.0
 73
0
 44
1.0
  0
MTEXT
  5
5F5
100
AcDbEntity
100
AcDbMText
  8
TEXTE
 62
256
370
-1
  6
ByLayer
 10
248.626544999999993
 20
149.9811939999999879
 30
0.0
 40
5.0
 41
100.0
 71
7
 72
2
  1
7
  7
iso9
 50
0.0
 73
0
 44
1.0
  0
MTEXT
  5
5F6
100
AcDbEntity
100
AcDbMText
  8
TEXTE
 62
256
370
-1
  6
ByLayer
 10
248.626544999999993
 20
169.9811939999999879
 30
0.0
 40
5.0
 41
100.0
 71
7
 72
2
  1
5
  7
iso9
 50
0.0
 73
0
 44
1.0
  0
MTEXT
  5
5F7
100
AcDbEntity
100
AcDbMText
  8
TEXTE
 62
256
370
-1
  6
ByLayer
 10
251.0680570000000102
 20
200.6347389999999962
 30
0.0
 40
5.0
 41
100.0
 71
7
 72
2
  1
B
  7
iso9
 50
0.0
 73
0
 44
1.0
  0
MTEXT
  5
5F8
100
AcDbEntity
100
AcDbMText
  8
TEXTE
 62
256
370
-1
  6
ByLayer
 10
339.4101870000000076
 20
169.9811939999999879
 30
0.0
 40
5.0
 41
100.0
 71
7
 72
2
  1
20
  7
iso9
 50
0.0
 73
0
 44
1.0
  0
MTEXT
  5
5F9
100
AcDbEntity
100
AcDbMText
  8
TEXTE
 62
256
370
-1
  6
ByLayer
 10
339.4101870000000076
 20
179.9811939999999879
 30
0.0
 40
5.0
 41
100.0
 71
7
 72
2
  1
19
  7
iso9
 50
0.0
 73
0
 44
1.0
  0
MTEXT
  5
5FA
100
AcDbEntity
100
AcDbMText
  8
TEXTE
 62
256
370
-1
  6
ByLayer
 10
339.9686750000000188
 20
200.6347389999999962
 30
0.0
 40
5.0
 41
100.0
 71
9
 72
2
  1
B
  7
iso9
 50
0.0
 73
0
 44
1.0
  0
MTEXT
  5
5FB
100
AcDbEntity
100
AcDbMText
  8
TEXTE
 62
256
370
-1
  6
ByLayer
 10
339.4101870000000076
 20
189.9811939999999879
 30
0.0
 40
5.0
 41
100.0
 71
7
 72
2
  1
18
  7
iso9
 50
0.0
 73
0
 44
1.0
  0
MTEXT
  5
5FC
100
AcDbEntity
100
AcDbMText
  8
TEXTE
 62
256
370
-1
  6
ByLayer
 10
290.869673999999975
 20
274.0024359999999888
 30
0.0
 40
5.0
 41
100.0
 71
7
 72
2
  1
A-A
  7
iso9
 50
0.0
 73
0
 44
1.0
  0
MTEXT
  5
5FD
100
AcDbEntity
100
AcDbMText
  8
TEXTE
 62
256
370
-1
  6
ByLayer
 10
248.626544999999993
 20
254.9811939999999879
 30
0.0
 40
5.0
 41
100.0
 71
7
 72
2
  1
1
  7
iso9
 50
0.0
 73
0
 44
1.0
  0
MTEXT
  5
5FE
100
AcDbEntity
100
AcDbMText
  8
TEXTE
 62
256
370
-1
  6
ByLayer
 10
248.626544999999993
 20
244.9811939999999879
 30
0.0
 40
5.0
 41
100.0
 71
7
 72
2
  1
2
  7
iso9
 50
0.0
 73
0
 44
1.0
  0
MTEXT
  5
5FF
100
AcDbEntity
100
AcDbMText
  8
TEXTE
 62
256
370
-1
  6
ByLayer
 10
248.626544999999993
 20
234.9811939999999879
 30
0.0
 40
5.0
 41
100.0
 71
7
 72
2
  1
3
  7
iso9
 50
0.0
 73
0
 44
1.0
  0
MTEXT
  5
600
100
AcDbEntity
100
AcDbMText
  8
TEXTE
 62
256
370
-1
  6
ByLayer
 10
339.4101870000000076
 20
234.9811939999999879
 30
0.0
 40
5.0
 41
100.0
 71
7
 72
2
  1
16
  7
iso9
 50
0.0
 73
0
 44
1.0
  0
MTEXT
  5
601
100
AcDbEntity
100
AcDbMText
  8
TEXTE
 62
256
370
-1
  6
ByLayer
 10
339.4101870000000076
 20
244.9811939999999879
 30
0.0
 40
5.0
 41
100.0
 71
7
 72
2
  1
15
  7
iso9
 50
0.0
 73
0
 44
1.0
  0
MTEXT
  5
602
100
AcDbEntity
100
AcDbMText
  8
TEXTE
 62
256
370
-1
  6
ByLayer
 10
339.4101870000000076
 20
254.9811939999999879
 30
0.0
 40
5.0
 41
100.0
 71
7
 72
2
  1
14
  7
iso9
 50
0.0
 73
0
 44
1.0
  0
MTEXT
  5
603
100
AcDbEntity
100
AcDbMText
  8
TEXTE
 62
256
370
-1
  6
ByLayer
 10
369.1620700000000284
 20
175.5527390000000025
 30
0.0
 40
5.0
 41
100.0
 71
7
 72
2
  1
F de 18
  7
iso9
 50
0.0
 73
0
 44
1.0
  0
MTEXT
  5
604
100
AcDbEntity
100
AcDbMText
  8
TEXTE
 62
256
370
-1
  6
ByLayer
 10
360.9463440000000105
 20
254.4873120000000029
 30
0.0
 40
5.0
 41
100.0
 71
7
 72
2
  1
B-B (5 seule)
  7
iso9
 50
0.0
 73
0
 44
1.0
  0
MTEXT
  5
605
100
AcDbEntity
100
AcDbMText
  8
TEXTE
 62
256
370
70
  6
ByLayer
 10
231.0037869999999884
 20
11.9279770000000003
 30
0.0
 40
7.0
 41
100.0
 71
7
 72
2
  1
A3
  7
iso9
 50
0.0
 73
0
 44
1.0
  0
LINE
  5
606
100
AcDbEntity
100
AcDbLine
  8
FIN
 62
5
370
-1
  6
CONTINUOUS
 10
251.9836483628201336
 20
10.0
 30
0.0
 11
251.9836483628201336
 21
40.5
 31
0.0
  0
LINE
  5
607
100
AcDbEntity
100
AcDbLine
  8
FORT
 62
256
370
-1
  6
ByLayer
 10
224.2983053300626182
 20
26.9142135623730958
 30
0.0
 11
224.2983053300626182
 21
24.0857864376269042
 31
0.0
  0
LINE
  5
608
100
AcDbEntity
100
AcDbLine
  8
FORT
 62
256
370
-1
  6
ByLayer
 10
236.2983053300626182
 20
28.5
 30
0.0
 11
236.2983053300626182
 21
22.5
 31
0.0
  0
LINE
  5
609
100
AcDbEntity
100
AcDbLine
  8
FORT
 62
256
370
-1
  6
ByLayer
 10
236.2983053300626182
 20
28.5
 30
0.0
 11
224.2983053300626182
 21
26.9142135623730958
 31
0.0
  0
LINE
  5
60A
100
AcDbEntity
100
AcDbLine
  8
FORT
 62
256
370
-1
  6
ByLayer
 10
236.2983053300626182
 20
22.5
 30
0.0
 11
224.2983053300626182
 21
24.0857864376269042
 31
0.0
  0
CIRCLE
  5
60B
100
AcDbEntity
100
AcDbCircle
  8
FORT
 62
256
370
-1
  6
ByLayer
 10
244.1312482633959462
 20
25.5
 30
0.0
 40
3.0
  0
CIRCLE
  5
60C
100
AcDbEntity
100
AcDbCircle
  8
FORT
 62
256
370
-1
  6
ByLayer
 10
244.1312482633959462
 20
25.5
 30
0.0
 40
1.4142135623730951
  0
LINE
  5
60D
100
AcDbEntity
100
AcDbLine
  8
AXE
 62
256
370
-1
  6
ByLayer
 10
244.1312482633959462
 20
29.5
 30
0.0
 11
244.1312482633959462
 21
21.5
 31
0.0
  0
LINE
  5
60E
100
AcDbEntity
100
AcDbLine
  8
AXE
 62
256
370
-1
  6
ByLayer
 10
222.1583018666680687
 20
25.5
 30
0.0
 11
249.8098183943278059
 21
25.5
 31
0.0
  0
LINE
  5
60F
100
AcDbEntity
100
AcDbLine
  8
FIN
 62
5
370
-1
  6
CONTINUOUS
 10
220.0
 20
30.5
 30
0.0
 11
251.9836483628201336
 21
30.5
 31
0.0
  0
MTEXT
  5
610
100
AcDbEntity
100
AcDbMText
  8
TEXTE
 62
256
370
-1
  6
ByLayer
 10
224.1450823705131938
 20
33.1575118000000018
 30
0.0
 40
5.0
 41
100.0
 71
7
 72
2
  1
Ech. 2:1
  7
iso9
 50
0.0
 73
0
 44
1.0
  0
LINE
  5
611
100
AcDbEntity
100
AcDbLine
  8
FIN
 62
5
370
-1
  6
CONTINUOUS
 10
134.0
 20
94.275109999999998
 30
0.0
 11
113.7347239999999999
 21
94.275109999999998
 31
0.0
  0
LINE
  5
612
100
AcDbEntity
100
AcDbLine
  8
FIN
 62
5
370
-1
  6
CONTINUOUS
 10
140.0
 20
94.275109999999998
 30
0.0
 11
138.0
 21
94.275109999999998
 31
0.0
  0
LINE
  5
613
100
AcDbEntity
100
AcDbLine
  8
FIN
 62
5
370
-1
  6
CONTINUOUS
 10
137.0
 20
94.275109999999998
 30
0.0
 11
135.0
 21
94.275109999999998
 31
0.0
  0
LINE
  5
614
100
AcDbEntity
100
AcDbLine
  8
FIN
 62
5
370
-1
  6
CONTINUOUS
 10
178.0
 20
94.275109999999998
 30
0.0
 11
141.0
 21
94.275109999999998
 31
0.0
  0
LINE
  5
615
100
AcDbEntity
100
AcDbLine
  8
FIN
 62
5
370
-1
  6
CONTINUOUS
 10
181.0
 20
94.275109999999998
 30
0.0
 11
179.0
 21
94.275109999999998
 31
0.0
  0
LINE
  5
616
100
AcDbEntity
100
AcDbLine
  8
FIN
 62
5
370
-1
  6
CONTINUOUS
 10
184.0
 20
94.275109999999998
 30
0.0
 11
182.0
 21
94.275109999999998
 31
0.0
  0
LINE
  5
617
100
AcDbEntity
100
AcDbLine
  8
FIN
 62
5
370
-1
  6
CONTINUOUS
 10
205.7347239999999999
 20
94.275109999999998
 30
0.0
 11
185.0
 21
94.275109999999998
 31
0.0
  0
LINE
  5
618
100
AcDbEntity
100
AcDbLine
  8
FIN
 62
5
370
-1
  6
CONTINUOUS
 10
156.2559882127105482
 20
143.2751100000000122
 30
0.0
 11
141.9347239999999886
 21
143.2751100000000122
 31
0.0
  0
LINE
  5
619
100
AcDbEntity
100
AcDbLine
  8
FIN
 62
5
370
-1
  6
CONTINUOUS
 10
159.2559882127105482
 20
143.2751100000000122
 30
0.0
 11
157.2559882127105482
 21
143.2751100000000122
 31
0.0
  0
LINE
  5
61A
100
AcDbEntity
100
AcDbLine
  8
FIN
 62
5
370
-1
  6
CONTINUOUS
 10
162.2559882127105482
 20
143.2751100000000122
 30
0.0
 11
160.2559882127105482
 21
143.2751100000000122
 31
0.0
  0
LINE
  5
61B
100
AcDbEntity
100
AcDbLine
  8
FIN
 62
5
370
-1
  6
CONTINUOUS
 10
177.5347240000000113
 20
143.2751100000000122
 30
0.0
 11
163.2559882127105482
 21
143.2751100000000122
 31
0.0
  0
LINE
  5
61C
100
AcDbEntity
100
AcDbLine
  8
FIN
 62
5
370
-1
  6
CONTINUOUS
 10
113.7347239999999999
 20
125.0394050739291316
 30
0.0
 11
113.7347239999999999
 21
143.2751100000000122
 31
0.0
  0
LINE
  5
61D
100
AcDbEntity
100
AcDbLine
  8
FIN
 62
5
370
-1
  6
CONTINUOUS
 10
113.7347239999999999
 20
122.0394050739291316
 30
0.0
 11
113.7347239999999999
 21
124.0394050739291316
 31
0.0
  0
LINE
  5
61E
100
AcDbEntity
100
AcDbLine
  8
FIN
 62
5
370
-1
  6
CONTINUOUS
 10
113.7347239999999999
 20
119.0394050739291316
 30
0.0
 11
113.7347239999999999
 21
121.0394050739291316
 31
0.0
  0
LINE
  5
61F
100
AcDbEntity
100
AcDbLine
  8
FIN
 62
5
370
-1
  6
CONTINUOUS
 10
113.7347239999999999
 20
94.275109999999998
 30
0.0
 11
113.7347239999999999
 21
118.0394050739291316
 31
0.0
  0
LINE
  5
620
100
AcDbEntity
100
AcDbLine
  8
FIN
 62
5
370
-1
  6
CONTINUOUS
 10
205.7347239999999999
 20
125.8229511098933386
 30
0.0
 11
205.7347239999999999
 21
143.2751100000000122
 31
0.0
  0
LINE
  5
621
100
AcDbEntity
100
AcDbLine
  8
FIN
 62
5
370
-1
  6
CONTINUOUS
 10
205.7347239999999999
 20
122.8229511098933386
 30
0.0
 11
205.7347239999999999
 21
124.8229511098933386
 31
0.0
  0
LINE
  5
622
100
AcDbEntity
100
AcDbLine
  8
FIN
 62
5
370
-1
  6
CONTINUOUS
 10
205.7347239999999999
 20
119.8229511098933386
 30
0.0
 11
205.7347239999999999
 21
121.8229511098933386
 31
0.0
  0
LINE
  5
623
100
AcDbEntity
100
AcDbLine
  8
FIN
 62
5
370
-1
  6
CONTINUOUS
 10
205.7347239999999999
 20
94.275109999999998
 30
0.0
 11
205.7347239999999999
 21
118.8229511098933386
 31
0.0
  0
LINE
  5
624
100
AcDbEntity
100
AcDbLine
  8
FIN
 62
5
370
-1
  6
CONTINUOUS
 10
136.9347239999999886
 20
148.2751100000000122
 30
0.0
 11
118.7347239999999999
 21
148.2751100000000122
 31
0.0
  0
LINE
  5
625
100
AcDbEntity
100
AcDbLine
  8
INTERROMPU
 62
256
370
-1
  6
ByLayer
 10
289.5183660000000145
 20
179.0071609999999964
 30
0.0
 11
301.5183660000000145
 21
179.0071609999999964
 31
0.0
  0
MTEXT
  5
626
100
AcDbEntity
100
AcDbMText
  8
TEXTE
 62
256
370
70
  6
ByLayer
 10
270.8879485598070005
 20
26.718838650205754
 30
0.0
 40
7.0
 41
100.0
 71
7
 72
2
  1
DETECTEUR DE POSITION
  7
iso9
 50
0.0
 73
0
 44
1.0
  0
LINE
  5
627
100
AcDbEntity
100
AcDbLine
  8
FIN
 62
256
370
-1
  6
ByLayer
 10
244.626544999999993
 20
67.9811940000000021
 30
0.0
 11
254.626544999999993
 21
67.9811940000000021
 31
0.0
  0
LINE
  5
628
100
AcDbEntity
100
AcDbLine
  8
FIN
 62
256
370
-1
  6
ByLayer
 10
346.4101870000000076
 20
67.9811940000000021
 30
0.0
 11
336.4101870000000076
 21
67.9811940000000021
 31
0.0
  0
LINE
  5
629
100
AcDbEntity
100
AcDbLine
  8
FIN
 62
256
370
-1
  6
ByLayer
 10
254.626544999999993
 20
77.9811940000000021
 30
0.0
 11
244.626544999999993
 21
77.9811940000000021
 31
0.0
  0
LINE
  5
62A
100
AcDbEntity
100
AcDbLine
  8
FIN
 62
256
370
-1
  6
ByLayer
 10
244.626544999999993
 20
107.9811940000000021
 30
0.0
 11
254.626544999999993
 21
107.9811940000000021
 31
0.0
  0
LINE
  5
62B
100
AcDbEntity
100
AcDbLine
  8
FIN
 62
256
370
-1
  6
ByLayer
 10
254.626544999999993
 20
87.9811940000000021
 30
0.0
 11
244.626544999999993
 21
87.9811940000000021
 31
0.0
  0
LINE
  5
62C
100
AcDbEntity
100
AcDbLine
  8
FIN
 62
256
370
-1
  6
ByLayer
 10
244.626544999999993
 20
117.9811940000000021
 30
0.0
 11
254.626544999999993
 21
117.9811940000000021
 31
0.0
  0
LINE
  5
62D
100
AcDbEntity
100
AcDbLine
  8
FIN
 62
256
370
-1
  6
ByLayer
 10
244.626544999999993
 20
137.9811939999999879
 30
0.0
 11
254.626544999999993
 21
137.9811939999999879
 31
0.0
  0
LINE
  5
62E
100
AcDbEntity
100
AcDbLine
  8
FIN
 62
256
370
-1
  6
ByLayer
 10
254.626544999999993
 20
147.9811939999999879
 30
0.0
 11
244.626544999999993
 21
147.9811939999999879
 31
0.0
  0
LINE
  5
62F
100
AcDbEntity
100
AcDbLine
  8
FIN
 62
256
370
-1
  6
ByLayer
 10
346.4101870000000076
 20
77.9811940000000021
 30
0.0
 11
336.4101870000000076
 21
77.9811940000000021
 31
0.0
  0
LINE
  5
630
100
AcDbEntity
100
AcDbLine
  8
FIN
 62
256
370
-1
  6
ByLayer
 10
346.4101870000000076
 20
87.9811940000000021
 30
0.0
 11
336.4101870000000076
 21
87.9811940000000021
 31
0.0
  0
LINE
  5
631
100
AcDbEntity
100
AcDbLine
  8
FIN
 62
256
370
-1
  6
ByLayer
 10
254.626544999999993
 20
157.9811939999999879
 30
0.0
 11
244.626544999999993
 21
157.9811939999999879
 31
0.0
  0
LINE
  5
632
100
AcDbEntity
100
AcDbLine
  8
FIN
 62
256
370
-1
  6
ByLayer
 10
254.626544999999993
 20
167.9811939999999879
 30
0.0
 11
244.626544999999993
 21
167.9811939999999879
 31
0.0
  0
LINE
  5
633
100
AcDbEntity
100
AcDbLine
  8
FIN
 62
256
370
-1
  6
ByLayer
 10
244.626544999999993
 20
222.9811939999999879
 30
0.0
 11
254.626544999999993
 21
222.9811939999999879
 31
0.0
  0
LINE
  5
634
100
AcDbEntity
100
AcDbLine
  8
FIN
 62
256
370
-1
  6
ByLayer
 10
336.4101870000000076
 20
177.9811939999999879
 30
0.0
 11
346.4101870000000076
 21
177.9811939999999879
 31
0.0
  0
LINE
  5
635
100
AcDbEntity
100
AcDbLine
  8
FIN
 62
256
370
-1
  6
ByLayer
 10
346.4101870000000076
 20
167.9811939999999879
 30
0.0
 11
336.4101870000000076
 21
167.9811939999999879
 31
0.0
  0
LINE
  5
636
100
AcDbEntity
100
AcDbLine
  8
FIN
 62
256
370
-1
  6
ByLayer
 10
336.4101870000000076
 20
222.9811939999999879
 30
0.0
 11
346.4101870000000076
 21
222.9811939999999879
 31
0.0
  0
LINE
  5
637
100
AcDbEntity
100
AcDbLine
  8
FIN
 62
256
370
-1
  6
ByLayer
 10
346.4101870000000076
 20
187.9811939999999879
 30
0.0
 11
336.4101870000000076
 21
187.9811939999999879
 31
0.0
  0
LINE
  5
638
100
AcDbEntity
100
AcDbLine
  8
FIN
 62
256
370
-1
  6
ByLayer
 10
244.626544999999993
 20
242.9811939999999879
 30
0.0
 11
254.626544999999993
 21
242.9811939999999879
 31
0.0
  0
LINE
  5
639
100
AcDbEntity
100
AcDbLine
  8
FIN
 62
256
370
-1
  6
ByLayer
 10
244.626544999999993
 20
232.9811939999999879
 30
0.0
 11
254.626544999999993
 21
232.9811939999999879
 31
0.0
  0
LINE
  5
63A
100
AcDbEntity
100
AcDbLine
  8
FIN
 62
256
370
-1
  6
ByLayer
 10
244.626544999999993
 20
252.9811939999999879
 30
0.0
 11
254.626544999999993
 21
252.9811939999999879
 31
0.0
  0
LINE
  5
63B
100
AcDbEntity
100
AcDbLine
  8
FIN
 62
256
370
-1
  6
ByLayer
 10
336.4101870000000076
 20
252.9811939999999879
 30
0.0
 11
346.4101870000000076
 21
252.9811939999999879
 31
0.0
  0
LINE
  5
63C
100
AcDbEntity
100
AcDbLine
  8
FIN
 62
256
370
-1
  6
ByLayer
 10
336.4101870000000076
 20
232.9811939999999879
 30
0.0
 11
346.4101870000000076
 21
232.9811939999999879
 31
0.0
  0
LINE
  5
63D
100
AcDbEntity
100
AcDbLine
  8
FIN
 62
256
370
-1
  6
ByLayer
 10
336.4101870000000076
 20
242.9811939999999879
 30
0.0
 11
346.4101870000000076
 21
242.9811939999999879
 31
0.0
  0
ENDSEC
  0
SECTION
  2
OBJECTS
  0
DICTIONARY
  5
C
100
AcDbDictionary
280
0
281
1
  3
ACAD_GROUP
350
D
  3
ACAD_LAYOUT
350
1A
  3
ACAD_MLINESTYLE
350
17
  3
ACAD_PLOTSETTINGS
350
19
  3
ACAD_PLOTSTYLENAME
350
E
  3
AcDbVariableDictionary
350
63E
  0
DICTIONARY
  5
D
100
AcDbDictionary
280
0
281
1
  0
ACDBDICTIONARYWDFLT
  5
E
100
AcDbDictionary
281
1
  3
Normal
350
F
100
AcDbDictionaryWithDefault
340
F
  0
ACDBPLACEHOLDER
  5
F
  0
DICTIONARY
  5
17
100
AcDbDictionary
280
0
281
1
  3
Standard
350
18
  0
MLINESTYLE
  5
18
100
AcDbMlineStyle
  2
STANDARD
 70
0
  3

 62
256
 51
90.0
 52
90.0
 71
2
 49
0.5
 62
256
  6
BYLAYER
 49
-0.5
 62
256
  6
BYLAYER
  0
DICTIONARY
  5
19
100
AcDbDictionary
280
0
281
1
  0
DICTIONARY
  5
1A
100
AcDbDictionary
281
1
  3
Layout1
350
1E
  3
Layout2
350
26
  3
Model
350
22
  0
LAYOUT
  5
1E
100
AcDbPlotSettings
  1

  2
C:\Program Files\AutoCAD 2002\plotters\DWF ePlot (optimized for plotting).pc3
  4

  6

 40
0.0
 41
0.0
 42
0.0
 43
0.0
 44
0.0
 45
0.0
 46
0.0
 47
0.0
 48
0.0
 49
0.0
140
0.0
141
0.0
142
1.0
143
1.0
 70
688
 72
0
 73
0
 74
5
  7

 75
16
147
1.0
148
0.0
149
0.0
100
AcDbLayout
  1
Layout1
 70
1
 71
1
 10
0.0
 20
0.0
 11
420.0
 21
297.0
 12
0.0
 22
0.0
 32
0.0
 14
100000000000000000000.0
 24
100000000000000000000.0
 34
100000000000000000000.0
 15
-100000000000000000000.0
 25
-100000000000000000000.0
 35
-100000000000000000000.0
146
0.0
 13
0.0
 23
0.0
 33
0.0
 16
1.0
 26
0.0
 36
0.0
 17
0.0
 27
1.0
 37
0.0
 76
0
330
1B
  0
LAYOUT
  5
22
100
AcDbPlotSettings
  1

  2
C:\Program Files\AutoCAD 2002\plotters\DWF ePlot (optimized for plotting).pc3
  4

  6

 40
0.0
 41
0.0
 42
0.0
 43
0.0
 44
0.0
 45
0.0
 46
0.0
 47
0.0
 48
0.0
 49
0.0
140
0.0
141
0.0
142
1.0
143
1.0
 70
1712
 72
0
 73
0
 74
0
  7

 75
0
147
1.0
148
0.0
149
0.0
100
AcDbLayout
  1
Model
 70
1
 71
0
 10
0.0
 20
0.0
 11
12.0
 21
9.0
 12
0.0
 22
0.0
 32
0.0
 14
0.0
 24
0.0
 34
0.0
 15
0.0
 25
0.0
 35
0.0
146
0.0
 13
0.0
 23
0.0
 33
0.0
 16
1.0
 26
0.0
 36
0.0
 17
0.0
 27
1.0
 37
0.0
 76
0
330
1F
  0
LAYOUT
  5
26
100
AcDbPlotSettings
  1

  2
C:\Program Files\AutoCAD 2002\plotters\DWF ePlot (optimized for plotting).pc3
  4

  6

 40
0.0
 41
0.0
 42
0.0
 43
0.0
 44
0.0
 45
0.0
 46
0.0
 47
0.0
 48
0.0
 49
0.0
140
0.0
141
0.0
142
1.0
143
1.0
 70
688
 72
0
 73
0
 74
5
  7

 75
16
147
1.0
148
0.0
149
0.0
100
AcDbLayout
  1
Layout2
 70
1
 71
2
 10
0.0
 20
0.0
 11
12.0
 21
9.0
 12
0.0
 22
0.0
 32
0.0
 14
0.0
 24
0.0
 34
0.0
 15
0.0
 25
0.0
 35
0.0
146
0.0
 13
0.0
 23
0.0
 33
0.0
 16
1.0
 26
0.0
 36
0.0
 17
0.0
 27
1.0
 37
0.0
 76
0
330
23
  0
DICTIONARY
  5
63E
100
AcDbDictionary
281
1
  3
DIMASSOC
350
640
  3
HIDETEXT
350
63F
  0
DICTIONARYVAR
  5
63F
100
DictionaryVariables
280
0
  1
2
  0
DICTIONARYVAR
  5
640
100
DictionaryVariables
280
0
  1
1
  0
ENDSEC
  0
EOF
