999
dxflib 2.0.4.8
  0
SECTION
  2
HEADER
  9
$ACADVER
  1
AC1015
  9
$HANDSEED
  5
FFFF
  9
$USERR4
 40
0.0
  9
$AXISUNIT
 10
0.0
 20
0.0
 30
0.0
  9
$DIMTAD
 70
0
  9
$USERR5
 40
0.0
  9
$ATTREQ
 70
1
  9
$CHAMFERA
 40
3.0
  9
$VIEWDIR
 10
0.0
 20
0.0
 30
1.0
  9
$MENU
  1
acad
  9
$CLAYER
  8
FORT
  9
$SNAPBASE
 10
0.0
 20
0.0
 30
0.0
  9
$VIEWSIZE
 40
9.0
  9
$DIMASZ
 40
0.18
  9
$GRIDUNIT
 10
5.0
 20
5.0
  9
$DIMADEC
 70
0
  9
$CHAMFERB
 40
3.0
  9
$TRACEWID
 40
0.05
  9
$REGENMODE
 70
1
  9
$ORTHOMODE
 70
0
  9
$EXTMIN
 10
0.0
 20
0.0
 30
0.0
  9
$DIMGAP
 40
0.625
  9
$ANGBASE
 50
0.0
  9
$USRTIMER
 70
1
  9
$SKETCHINC
 40
0.1
  9
$DIMALT
 70
0
  9
$DIMSHO
 70
1
  9
$SNAPSTYLE
 70
0
  9
$SPLFRAME
 70
0
  9
$AXISMODE
 70
0
  9
$DIMTSZ
 40
0.0
  9
$LIMMIN
 10
-13.751322
 20
-4.592784
  9
$SPLINESEGS
 70
10
  9
$AUPREC
 70
0
  9
$LUNITS
 70
2
  9
$BLIPMODE
 70
1
  9
$USERI1
 70
0
  9
$SKPOLY
 70
0
  9
$ELEVATION
 40
0.0
  9
$DIMCEN
 40
0.09
  9
$DIMRND
 40
0.0
  9
$INSBASE
 10
0.0
 20
0.0
 30
0.0
  9
$DIMEXO
 40
0.0625
  9
$INSUNITS
 70
4
  9
$USERI2
 70
0
  9
$TEXTSIZE
 40
0.2
  9
$DRAGMODE
 70
2
  9
$FILLMODE
 70
1
  9
$EXTMAX
 10
420.0
 20
297.0
 30
0.0
  9
$USERI3
 70
0
  9
$ANGDIR
 70
0
  9
$TDUSRTIMER
 40
0.0
  9
$DIMZIN
 70
0
  9
$DIMDLE
 40
0.0
  9
$DIMSCALE
 40
1.0
  9
$VIEWCTR
 10
6.0
 20
4.5
  9
$DIMLUNIT
 70
2
  9
$USERI4
 70
0
  9
$OSMODE
 70
0
  9
$QTEXTMODE
 70
0
  9
$LIMMAX
 10
476.5491240000000062
 20
301.5927839999999946
  9
$DIMTXT
 40
0.18
  9
$GRIDMODE
 70
0
  9
$USERI5
 70
0
  9
$PDMODE
 70
0
  9
$FASTZOOM
 70
1
  9
$LIMCHECK
 70
0
  9
$THICKNESS
 40
0.0
  9
$DIMSE1
 70
0
  9
$DIMLIM
 70
0
  9
$ATTMODE
 70
1
  9
$LUPREC
 70
4
  9
$TDINDWG
 40
0.0
  9
$DIMLFAC
 40
1.0
  9
$DIMSE2
 70
0
  9
$DIMTOH
 70
1
  9
$CELTYPE
  6
CONTINUOUS
  9
$DIMSTYLE
  2
Standard
  9
$PLINEWID
 40
0.0
  9
$DIMASO
 70
1
  9
$DIMTM
 40
0.0
  9
$DIMDLI
 40
0.38
  9
$CECOLOR
 62
5
  9
$SNAPANG
 50
0.0
  9
$SNAPMODE
 70
0
  9
$PLIMMAX
 10
420.0
 20
297.0
  9
$PLIMMIN
 10
0.0
 20
0.0
  9
$TDUPDATE
 40
0.0
  9
$FILLETRAD
 40
1.5
  9
$DIMALTD
 70
2
  9
$DIMTIH
 70
1
  9
$LTSCALE
 40
0.3
  9
$PINSBASE
 10
-0.31485148514858
 20
0.588118811881202
 30
0.0
  9
$DIMEXE
 40
0.18
  9
$USERR1
 40
0.0
  9
$ATTDIA
 70
0
  9
$PDSIZE
 40
0.0
  9
$DIMAUNIT
 70
0
  9
$USERR2
 40
0.0
  9
$COORDS
 70
2
  9
$TDCREATE
 40
0.0
  9
$DIMALTF
 40
25.3999999999999986
  9
$DIMTOL
 70
0
  9
$DIMTP
 40
0.0
  9
$TEXTSTYLE
  7
STANDARD
  9
$SNAPISOPAIR
 70
0
  9
$SNAPUNIT
 10
5.0
 20
5.0
 30
0.0
  9
$AUNITS
 70
0
  9
$USERR3
 40
0.0
  0
ENDSEC
  0
SECTION
  2
TABLES
  0
TABLE
  2
VPORT
  5
8
100
AcDbSymbolTable
 70
1
  0
VPORT
  5
30
100
AcDbSymbolTableRecord
100
AcDbViewportTableRecord
  2
*Active
 70
0
 10
0.0
 20
0.0
 11
1.0
 21
1.0
 12
286.3055555555554861
 22
148.5
 13
0.0
 23
0.0
 14
10.0
 24
10.0
 15
10.0
 25
10.0
 16
0.0
 26
0.0
 36
1.0
 17
0.0
 27
0.0
 37
0.0
 40
297.0
 41
1.92798353909465
 42
50.0
 43
0.0
 44
0.0
 50
0.0
 51
0.0
 71
0
 72
100
 73
1
 74
3
 75
1
 76
1
 77
0
 78
0
281
0
 65
1
110
0.0
120
0.0
130
0.0
111
1.0
121
0.0
131
0.0
112
0.0
122
1.0
132
0.0
 79
0
146
0.0
  0
ENDTAB
  0
TABLE
  2
LTYPE
  5
5
100
AcDbSymbolTable
 70
21
  0
LTYPE
  5
14
100
AcDbSymbolTableRecord
100
AcDbLinetypeTableRecord
  2
ByBlock
 70
0
  3

 72
65
 73
0
 40
0.0
  0
LTYPE
  5
15
100
AcDbSymbolTableRecord
100
AcDbLinetypeTableRecord
  2
ByLayer
 70
0
  3

 72
65
 73
0
 40
0.0
  0
LTYPE
  5
16
100
AcDbSymbolTableRecord
100
AcDbLinetypeTableRecord
  2
CONTINUOUS
 70
0
  3
Solid line
 72
65
 73
0
 40
0.0
  0
LTYPE
  5
31
100
AcDbSymbolTableRecord
100
AcDbLinetypeTableRecord
  2
DOT
 70
0
  3
Dot . . . . . . . . . . . . . . . . . . . . . .
 72
65
 73
2
 40
6.3499999999999996
 49
0.0
 74
0
 49
-6.3499999999999996
 74
0
  0
LTYPE
  5
32
100
AcDbSymbolTableRecord
100
AcDbLinetypeTableRecord
  2
DOT2
 70
0
  3
Dot (.5x) .....................................
 72
65
 73
2
 40
3.1749999999999998
 49
0.0
 74
0
 49
-3.1749999999999998
 74
0
  0
LTYPE
  5
33
100
AcDbSymbolTableRecord
100
AcDbLinetypeTableRecord
  2
DOTX2
 70
0
  3
Dot (2x) .  .  .  .  .  .  .  .  .  .  .  .  .
 72
65
 73
2
 40
12.6999999999999993
 49
0.0
 74
0
 49
-12.6999999999999993
 74
0
  0
LTYPE
  5
34
100
AcDbSymbolTableRecord
100
AcDbLinetypeTableRecord
  2
DASHED
 70
0
  3
Dashed __ __ __ __ __ __ __ __ __ __ __ __ __ _
 72
65
 73
2
 40
19.0500000000000007
 49
12.6999999999999993
 74
0
 49
-6.3499999999999996
 74
0
  0
LTYPE
  5
35
100
AcDbSymbolTableRecord
100
AcDbLinetypeTableRecord
  2
DASHED2
 70
0
  3
Dashed (.5x) _ _ _ _ _ _ _ _ _ _ _ _ _ _ _ _ _
 72
65
 73
2
 40
9.5250000000000004
 49
6.3499999999999996
 74
0
 49
-3.1749999999999998
 74
0
  0
LTYPE
  5
36
100
AcDbSymbolTableRecord
100
AcDbLinetypeTableRecord
  2
DASHEDX2
 70
0
  3
Dashed (2x) ____  ____  ____  ____  ____  ___
 72
65
 73
2
 40
38.1000000000000014
 49
25.3999999999999986
 74
0
 49
-12.6999999999999993
 74
0
  0
LTYPE
  5
37
100
AcDbSymbolTableRecord
100
AcDbLinetypeTableRecord
  2
DASHDOT
 70
0
  3
Dash dot __ . __ . __ . __ . __ . __ . __ . __
 72
65
 73
4
 40
25.3999999999999986
 49
12.6999999999999993
 74
0
 49
-6.3499999999999996
 74
0
 49
0.0
 74
0
 49
-6.3499999999999996
 74
0
  0
LTYPE
  5
38
100
AcDbSymbolTableRecord
100
AcDbLinetypeTableRecord
  2
DASHDOT2
 70
0
  3
Dash dot (.5x) _._._._._._._._._._._._._._._.
 72
65
 73
4
 40
12.6999999999999993
 49
6.3499999999999996
 74
0
 49
-3.1749999999999998
 74
0
 49
0.0
 74
0
 49
-3.1749999999999998
 74
0
  0
LTYPE
  5
39
100
AcDbSymbolTableRecord
100
AcDbLinetypeTableRecord
  2
DASHDOTX2
 70
0
  3
Dash dot (2x) ____  .  ____  .  ____  .  ___
 72
65
 73
4
 40
50.7999999999999972
 49
25.3999999999999986
 74
0
 49
-12.6999999999999993
 74
0
 49
0.0
 74
0
 49
-12.6999999999999993
 74
0
  0
LTYPE
  5
3A
100
AcDbSymbolTableRecord
100
AcDbLinetypeTableRecord
  2
DIVIDE
 70
0
  3
Divide ____ . . ____ . . ____ . . ____ . . ____
 72
65
 73
6
 40
31.75
 49
12.6999999999999993
 74
0
 49
-6.3499999999999996
 74
0
 49
0.0
 74
0
 49
-6.3499999999999996
 74
0
 49
0.0
 74
0
 49
-6.3499999999999996
 74
0
  0
LTYPE
  5
3B
100
AcDbSymbolTableRecord
100
AcDbLinetypeTableRecord
  2
DIVIDE2
 70
0
  3
Divide (.5x) __..__..__..__..__..__..__..__.._
 72
65
 73
6
 40
15.875
 49
6.3499999999999996
 74
0
 49
-3.1749999999999998
 74
0
 49
0.0
 74
0
 49
-3.1749999999999998
 74
0
 49
0.0
 74
0
 49
-3.1749999999999998
 74
0
  0
LTYPE
  5
3C
100
AcDbSymbolTableRecord
100
AcDbLinetypeTableRecord
  2
DIVIDEX2
 70
0
  3
Divide (2x) ________  .  .  ________  .  .  _
 72
65
 73
6
 40
63.5
 49
25.3999999999999986
 74
0
 49
-12.6999999999999993
 74
0
 49
0.0
 74
0
 49
-12.6999999999999993
 74
0
 49
0.0
 74
0
 49
-12.6999999999999993
 74
0
  0
LTYPE
  5
3D
100
AcDbSymbolTableRecord
100
AcDbLinetypeTableRecord
  2
CENTER
 70
0
  3
Center ____ _ ____ _ ____ _ ____ _ ____ _ ____
 72
65
 73
4
 40
50.7999999999999972
 49
31.75
 74
0
 49
-6.3499999999999996
 74
0
 49
6.3499999999999996
 74
0
 49
-6.3499999999999996
 74
0
  0
LTYPE
  5
3E
100
AcDbSymbolTableRecord
100
AcDbLinetypeTableRecord
  2
CENTER2
 70
0
  3
Center (.5x) ___ _ ___ _ ___ _ ___ _ ___ _ ___
 72
65
 73
4
 40
28.5749999999999993
 49
19.0500000000000007
 74
0
 49
-3.1749999999999998
 74
0
 49
3.1749999999999998
 74
0
 49
-3.1749999999999998
 74
0
  0
LTYPE
  5
3F
100
AcDbSymbolTableRecord
100
AcDbLinetypeTableRecord
  2
CENTERX2
 70
0
  3
Center (2x) ________  __  ________  __  _____
 72
65
 73
4
 40
101.5999999999999943
 49
63.5
 74
0
 49
-12.6999999999999993
 74
0
 49
12.6999999999999993
 74
0
 49
-12.6999999999999993
 74
0
  0
LTYPE
  5
40
100
AcDbSymbolTableRecord
100
AcDbLinetypeTableRecord
  2
BORDER
 70
0
  3
Border __ __ . __ __ . __ __ . __ __ . __ __ .
 72
65
 73
6
 40
44.4500000000000028
 49
12.6999999999999993
 74
0
 49
-6.3499999999999996
 74
0
 49
12.6999999999999993
 74
0
 49
-6.3499999999999996
 74
0
 49
0.0
 74
0
 49
-6.3499999999999996
 74
0
  0
LTYPE
  5
41
100
AcDbSymbolTableRecord
100
AcDbLinetypeTableRecord
  2
BORDER2
 70
0
  3
Border (.5x) __.__.__.__.__.__.__.__.__.__.__.
 72
65
 73
6
 40
22.2250000000000014
 49
6.3499999999999996
 74
0
 49
-3.1749999999999998
 74
0
 49
6.3499999999999996
 74
0
 49
-3.1749999999999998
 74
0
 49
0.0
 74
0
 49
-3.1749999999999998
 74
0
  0
LTYPE
  5
42
100
AcDbSymbolTableRecord
100
AcDbLinetypeTableRecord
  2
BORDERX2
 70
0
  3
Border (2x) ____  ____  .  ____  ____  .  ___
 72
65
 73
6
 40
88.9000000000000057
 49
25.3999999999999986
 74
0
 49
-12.6999999999999993
 74
0
 49
25.3999999999999986
 74
0
 49
-12.6999999999999993
 74
0
 49
0.0
 74
0
 49
-12.6999999999999993
 74
0
  0
ENDTAB
  0
TABLE
  2
LAYER
  5
2
100
AcDbSymbolTable
 70
7
  0
LAYER
  5
10
100
AcDbSymbolTableRecord
100
AcDbLayerTableRecord
  2
0
 70
0
 62
7
  6
CONTINUOUS
390
F
  0
LAYER
  5
43
100
AcDbSymbolTableRecord
100
AcDbLayerTableRecord
  2
FORT
 70
0
 62
7
  6
CONTINUOUS
370
50
390
F
  0
LAYER
  5
44
100
AcDbSymbolTableRecord
100
AcDbLayerTableRecord
  2
FIN
 70
0
 62
5
  6
CONTINUOUS
370
25
390
F
  0
LAYER
  5
45
100
AcDbSymbolTableRecord
100
AcDbLayerTableRecord
  2
TEXTE
 70
0
 62
7
  6
CONTINUOUS
370
50
390
F
  0
LAYER
  5
46
100
AcDbSymbolTableRecord
100
AcDbLayerTableRecord
  2
HACHURE
 70
0
 62
7
  6
CONTINUOUS
370
20
390
F
  0
LAYER
  5
47
100
AcDbSymbolTableRecord
100
AcDbLayerTableRecord
  2
AXE
 70
0
 62
3
  6
CENTER
370
25
390
F
  0
LAYER
  5
48
100
AcDbSymbolTableRecord
100
AcDbLayerTableRecord
  2
RENFORCE
 70
0
 62
7
  6
CONTINUOUS
370
70
390
F
  0
ENDTAB
  0
TABLE
  2
STYLE
  5
3
100
AcDbSymbolTable
 70
1
  0
STYLE
  5
11
100
AcDbSymbolTableRecord
100
AcDbTextStyleTableRecord
  2
Standard
 70
0
 40
0.0
 41
0.75
 50
0.0
 71
0
 42
2.5
  3
txt
  4

  0
ENDTAB
  0
TABLE
  2
VIEW
  5
6
100
AcDbSymbolTable
 70
0
  0
ENDTAB
  0
TABLE
  2
UCS
  5
7
100
AcDbSymbolTable
 70
0
  0
ENDTAB
  0
TABLE
  2
APPID
  5
9
100
AcDbSymbolTable
 70
1
  0
APPID
  5
12
100
AcDbSymbolTableRecord
100
AcDbRegAppTableRecord
  2
ACAD
 70
0
  0
ENDTAB
  0
TABLE
  2
DIMSTYLE
  5
A
100
AcDbSymbolTable
 70
1
100
AcDbDimStyleTable
 71
0
  0
DIMSTYLE
105
27
100
AcDbSymbolTableRecord
100
AcDbDimStyleTableRecord
  2
Standard
 41
0.18
 42
0.0625
 43
3.75
 44
0.18
 70
0
 73
0
 74
0
 77
1
 78
8
140
0.18
141
2.5
143
0.03937007874016
147
0.625
171
3
172
1
271
2
272
2
274
3
278
44
283
0
284
8
340
11
  0
ENDTAB
  0
TABLE
  2
BLOCK_RECORD
  5
1
100
AcDbSymbolTable
 70
1
  0
BLOCK_RECORD
  5
1F
100
AcDbSymbolTableRecord
100
AcDbBlockTableRecord
  2
*Model_Space
340
22
  0
BLOCK_RECORD
  5
1B
100
AcDbSymbolTableRecord
100
AcDbBlockTableRecord
  2
*Paper_Space
340
1E
  0
BLOCK_RECORD
  5
23
100
AcDbSymbolTableRecord
100
AcDbBlockTableRecord
  2
*Paper_Space0
340
26
  0
BLOCK_RECORD
  5
49
100
AcDbSymbolTableRecord
100
AcDbBlockTableRecord
  2
DESENS-G1
340
0
  0
BLOCK_RECORD
  5
4A
100
AcDbSymbolTableRecord
100
AcDbBlockTableRecord
  2
DESENS-G2
340
0
  0
BLOCK_RECORD
  5
4B
100
AcDbSymbolTableRecord
100
AcDbBlockTableRecord
  2
DESENS-G3
340
0
  0
BLOCK_RECORD
  5
4C
100
AcDbSymbolTableRecord
100
AcDbBlockTableRecord
  2
DESENS-G4
340
0
  0
BLOCK_RECORD
  5
4D
100
AcDbSymbolTableRecord
100
AcDbBlockTableRecord
  2
DESENS-G5
340
0
  0
BLOCK_RECORD
  5
4E
100
AcDbSymbolTableRecord
100
AcDbBlockTableRecord
  2
DESENS-G6
340
0
  0
BLOCK_RECORD
  5
4F
100
AcDbSymbolTableRecord
100
AcDbBlockTableRecord
  2
DESENS-G7
340
0
  0
BLOCK_RECORD
  5
50
100
AcDbSymbolTableRecord
100
AcDbBlockTableRecord
  2
DESENS-G8
340
0
  0
BLOCK_RECORD
  5
51
100
AcDbSymbolTableRecord
100
AcDbBlockTableRecord
  2
DESENS-G9
340
0
  0
BLOCK_RECORD
  5
52
100
AcDbSymbolTableRecord
100
AcDbBlockTableRecord
  2
DESENS-G10
340
0
  0
BLOCK_RECORD
  5
53
100
AcDbSymbolTableRecord
100
AcDbBlockTableRecord
  2
DESENS-G11
340
0
  0
BLOCK_RECORD
  5
54
100
AcDbSymbolTableRecord
100
AcDbBlockTableRecord
  2
DESENS-G12
340
0
  0
BLOCK_RECORD
  5
55
100
AcDbSymbolTableRecord
100
AcDbBlockTableRecord
  2
DESENS-G13
340
0
  0
BLOCK_RECORD
  5
56
100
AcDbSymbolTableRecord
100
AcDbBlockTableRecord
  2
DESENS-G14
340
0
  0
BLOCK_RECORD
  5
57
100
AcDbSymbolTableRecord
100
AcDbBlockTableRecord
  2
DESENS-G15
340
0
  0
ENDTAB
  0
ENDSEC
  0
SECTION
  2
BLOCKS
  0
BLOCK
  5
20
100
AcDbEntity
  8
0
100
AcDbBlockBegin
  2
*Model_Space
 70
0
 10
0.0
 20
0.0
 30
0.0
  3
*Model_Space
  1

  0
ENDBLK
  5
21
100
AcDbEntity
  8
0
100
AcDbBlockEnd
  0
BLOCK
  5
1C
100
AcDbEntity
 67
1
  8
0
100
AcDbBlockBegin
  2
*Paper_Space
 70
0
 10
0.0
 20
0.0
 30
0.0
  3
*Paper_Space
  1

  0
ENDBLK
  5
1D
100
AcDbEntity
 67
1
  8
0
100
AcDbBlockEnd
  0
BLOCK
  5
24
100
AcDbEntity
  8
0
100
AcDbBlockBegin
  2
*Paper_Space0
 70
0
 10
0.0
 20
0.0
 30
0.0
  3
*Paper_Space0
  1

  0
ENDBLK
  5
25
100
AcDbEntity
  8
0
100
AcDbBlockEnd
  0
BLOCK
  5
58
100
AcDbEntity
  8
0
100
AcDbBlockBegin
  2
DESENS-G1
 70
0
 10
0.0
 20
0.0
 30
0.0
  3
DESENS-G1
  1

  0
LINE
  5
59
100
AcDbEntity
100
AcDbLine
  8
HACHURE
 62
5
370
-1
  6
CONTINUOUS
 10
93.0572999999999979
 20
76.8928850000000068
 30
0.0
 11
91.9590749999999986
 21
75.7946599999999933
 31
0.0
  0
LINE
  5
5A
100
AcDbEntity
100
AcDbLine
  8
HACHURE
 62
5
370
-1
  6
CONTINUOUS
 10
92.7120749999999987
 20
71.1595240000000047
 30
0.0
 11
95.4453929999999957
 21
73.8928420000000017
 31
0.0
  0
LINE
  5
5B
100
AcDbEntity
100
AcDbLine
  8
HACHURE
 62
5
370
-1
  6
CONTINUOUS
 10
98.9589409999999958
 20
72.0182530000000014
 30
0.0
 11
96.8014830000000046
 21
69.860794999999996
 31
0.0
  0
LINE
  5
5C
100
AcDbEntity
100
AcDbLine
  8
HACHURE
 62
5
370
-1
  6
CONTINUOUS
 10
93.9591470000000015
 20
75.1006639999999948
 30
0.0
 11
93.619142999999994
 21
74.760659000000004
 31
0.0
  0
LINE
  5
5D
100
AcDbEntity
100
AcDbLine
  8
HACHURE
 62
5
370
-1
  6
CONTINUOUS
 10
92.9456239999999951
 20
74.0871400000000051
 30
0.0
 11
91.9591080000000005
 21
73.1006239999999963
 31
0.0
  0
LINE
  5
5E
100
AcDbEntity
100
AcDbLine
  8
HACHURE
 62
5
370
-1
  6
CONTINUOUS
 10
94.6261070000000046
 20
70.3794869999999975
 30
0.0
 11
95.6396919999999966
 21
71.3930720000000036
 31
0.0
  0
LINE
  5
5F
100
AcDbEntity
100
AcDbLine
  8
HACHURE
 62
5
370
-1
  6
CONTINUOUS
 10
96.3132109999999955
 20
72.0665910000000025
 30
0.0
 11
97.6602489999999932
 21
73.4136299999999977
 31
0.0
  0
ENDBLK
  5
60
100
AcDbEntity
  8
0
100
AcDbBlockEnd
  0
BLOCK
  5
61
100
AcDbEntity
  8
0
100
AcDbBlockBegin
  2
DESENS-G2
 70
0
 10
0.0
 20
0.0
 30
0.0
  3
DESENS-G2
  1

  0
LINE
  5
62
100
AcDbEntity
100
AcDbLine
  8
HACHURE
 62
5
370
-1
  6
CONTINUOUS
 10
91.9586709999999954
 20
87.7817600000000056
 30
0.0
 11
89.0994989999999945
 21
89.1150140000000022
 31
0.0
  0
LINE
  5
63
100
AcDbEntity
100
AcDbLine
  8
HACHURE
 62
5
370
-1
  6
CONTINUOUS
 10
84.4515949999999975
 20
88.4797539999999998
 30
0.0
 11
91.9590639999999979
 21
84.9789640000000048
 31
0.0
  0
LINE
  5
64
100
AcDbEntity
100
AcDbLine
  8
HACHURE
 62
5
370
-1
  6
CONTINUOUS
 10
90.4222469999999987
 20
82.8929799999999943
 30
0.0
 11
80.9880289999999974
 21
87.2922290000000061
 31
0.0
  0
LINE
  5
65
100
AcDbEntity
100
AcDbLine
  8
HACHURE
 62
5
370
-1
  6
CONTINUOUS
 10
78.4059290000000004
 20
85.6936689999999999
 30
0.0
 11
84.7847770000000054
 21
82.7191629999999947
 31
0.0
  0
LINE
  5
66
100
AcDbEntity
100
AcDbLine
  8
HACHURE
 62
5
370
-1
  6
CONTINUOUS
 10
91.9588140000000038
 20
76.5712410000000006
 30
0.0
 11
91.2687839999999966
 21
76.8930079999999947
 31
0.0
  0
LINE
  5
67
100
AcDbEntity
100
AcDbLine
  8
HACHURE
 62
5
370
-1
  6
CONTINUOUS
 10
80.5459380000000067
 20
81.8931529999999981
 30
0.0
 11
76.8086330000000004
 21
83.6358869999999968
 31
0.0
  0
LINE
  5
68
100
AcDbEntity
100
AcDbLine
  8
HACHURE
 62
5
370
-1
  6
CONTINUOUS
 10
76.078519
 20
81.1737320000000011
 30
0.0
 11
78.7833980000000054
 21
79.9124259999999964
 31
0.0
  0
LINE
  5
69
100
AcDbEntity
100
AcDbLine
  8
HACHURE
 62
5
370
-1
  6
CONTINUOUS
 10
83.114537999999996
 20
77.8927819999999969
 30
0.0
 11
84.6969869999999929
 21
77.1548740000000066
 31
0.0
  0
LINE
  5
6A
100
AcDbEntity
100
AcDbLine
  8
HACHURE
 62
5
370
-1
  6
CONTINUOUS
 10
85.2584399999999931
 20
76.8930639999999954
 30
0.0
 11
91.9592070000000064
 21
73.7684449999999998
 31
0.0
  0
LINE
  5
6B
100
AcDbEntity
100
AcDbLine
  8
HACHURE
 62
5
370
-1
  6
CONTINUOUS
 10
89.4685400000000044
 20
72.1272490000000062
 30
0.0
 11
75.9822410000000019
 21
78.4160140000000041
 31
0.0
  0
LINE
  5
6C
100
AcDbEntity
100
AcDbLine
  8
HACHURE
 62
5
370
-1
  6
CONTINUOUS
 10
77.3936470000000014
 20
74.9552510000000041
 30
0.0
 11
82.9091240000000056
 21
72.383341999999999
 31
0.0
  0
ENDBLK
  5
6D
100
AcDbEntity
  8
0
100
AcDbBlockEnd
  0
BLOCK
  5
6E
100
AcDbEntity
  8
0
100
AcDbBlockBegin
  2
DESENS-G3
 70
0
 10
0.0
 20
0.0
 30
0.0
  3
DESENS-G3
  1

  0
LINE
  5
6F
100
AcDbEntity
100
AcDbLine
  8
HACHURE
 62
5
370
-1
  6
CONTINUOUS
 10
94.2656060000000053
 20
88.8774889999999971
 30
0.0
 11
91.959107000000003
 21
86.5709899999999948
 31
0.0
  0
LINE
  5
70
100
AcDbEntity
100
AcDbLine
  8
HACHURE
 62
5
370
-1
  6
CONTINUOUS
 10
93.6691809999999947
 20
82.8929399999999958
 30
0.0
 11
93.9590440000000058
 21
83.1828040000000044
 31
0.0
  0
LINE
  5
71
100
AcDbEntity
100
AcDbLine
  8
HACHURE
 62
5
370
-1
  6
CONTINUOUS
 10
96.6691600000000051
 20
85.8929190000000062
 30
0.0
 11
98.9590630000000004
 21
88.1828220000000016
 31
0.0
  0
LINE
  5
72
100
AcDbEntity
100
AcDbLine
  8
HACHURE
 62
5
370
-1
  6
CONTINUOUS
 10
97.3656720000000035
 20
89.2834930000000071
 30
0.0
 11
96.3132209999999986
 21
88.2310420000000022
 31
0.0
  0
LINE
  5
73
100
AcDbEntity
100
AcDbLine
  8
HACHURE
 62
5
370
-1
  6
CONTINUOUS
 10
95.6397019999999998
 20
87.5575230000000033
 30
0.0
 11
94.2926630000000046
 21
86.2104850000000056
 31
0.0
  0
LINE
  5
74
100
AcDbEntity
100
AcDbLine
  8
HACHURE
 62
5
370
-1
  6
CONTINUOUS
 10
93.6191440000000057
 20
85.536964999999995
 30
0.0
 11
92.2721059999999937
 21
84.1899269999999973
 31
0.0
  0
ENDBLK
  5
75
100
AcDbEntity
  8
0
100
AcDbBlockEnd
  0
BLOCK
  5
76
100
AcDbEntity
  8
0
100
AcDbBlockBegin
  2
DESENS-G4
 70
0
 10
0.0
 20
0.0
 30
0.0
  3
DESENS-G4
  1

  0
LINE
  5
77
100
AcDbEntity
100
AcDbLine
  8
HACHURE
 62
5
370
-1
  6
CONTINUOUS
 10
95.9585019999999957
 20
146.1316109999999924
 30
0.0
 11
92.1811280000000011
 21
147.8930290000000127
 31
0.0
  0
LINE
  5
78
100
AcDbEntity
100
AcDbLine
  8
HACHURE
 62
5
370
-1
  6
CONTINUOUS
 10
86.1706470000000024
 20
147.8935329999999908
 30
0.0
 11
94.2097919999999931
 21
144.1448179999999866
 31
0.0
  0
LINE
  5
79
100
AcDbEntity
100
AcDbLine
  8
HACHURE
 62
5
370
-1
  6
CONTINUOUS
 10
88.7389359999999954
 20
143.8936899999999923
 30
0.0
 11
80.1613159999999993
 21
147.8934999999999889
 31
0.0
  0
LINE
  5
7A
100
AcDbEntity
100
AcDbLine
  8
HACHURE
 62
5
370
-1
  6
CONTINUOUS
 10
74.1479980000000012
 20
147.8939259999999933
 30
0.0
 11
82.7267669999999953
 21
143.8935799999999858
 31
0.0
  0
LINE
  5
7B
100
AcDbEntity
100
AcDbLine
  8
HACHURE
 62
5
370
-1
  6
CONTINUOUS
 10
76.7174370000000039
 20
143.8935470000000123
 30
0.0
 11
68.1375170000000026
 21
147.8944299999999998
 31
0.0
  0
LINE
  5
7C
100
AcDbEntity
100
AcDbLine
  8
HACHURE
 62
5
370
-1
  6
CONTINUOUS
 10
62.1270359999999968
 20
147.8949330000000089
 30
0.0
 11
70.7081060000000008
 21
143.8935140000000104
 31
0.0
  0
LINE
  5
7D
100
AcDbEntity
100
AcDbLine
  8
HACHURE
 62
5
370
-1
  6
CONTINUOUS
 10
64.6987759999999952
 20
143.8934810000000084
 30
0.0
 11
56.9587840000000014
 21
147.5026990000000069
 31
0.0
  0
ENDBLK
  5
7E
100
AcDbEntity
  8
0
100
AcDbBlockEnd
  0
BLOCK
  5
7F
100
AcDbEntity
  8
0
100
AcDbBlockBegin
  2
DESENS-G5
 70
0
 10
0.0
 20
0.0
 30
0.0
  3
DESENS-G5
  1

  0
LINE
  5
80
100
AcDbEntity
100
AcDbLine
  8
HACHURE
 62
5
370
-1
  6
CONTINUOUS
 10
95.9588250000000045
 20
121.7069610000000068
 30
0.0
 11
91.2701870000000071
 21
123.8933090000000021
 31
0.0
  0
LINE
  5
81
100
AcDbEntity
100
AcDbLine
  8
HACHURE
 62
5
370
-1
  6
CONTINUOUS
 10
85.2593480000000028
 20
123.8930450000000008
 30
0.0
 11
95.9586479999999966
 21
118.9038790000000034
 31
0.0
  0
LINE
  5
82
100
AcDbEntity
100
AcDbLine
  8
HACHURE
 62
5
370
-1
  6
CONTINUOUS
 10
92.3519189999999952
 20
117.783961000000005
 30
0.0
 11
79.2513469999999955
 21
123.8928580000000039
 31
0.0
  0
LINE
  5
83
100
AcDbEntity
100
AcDbLine
  8
HACHURE
 62
5
370
-1
  6
CONTINUOUS
 10
73.2405069999999938
 20
123.8925940000000026
 30
0.0
 11
88.4305449999999951
 21
116.8093630000000047
 31
0.0
  0
LINE
  5
84
100
AcDbEntity
100
AcDbLine
  8
HACHURE
 62
5
370
-1
  6
CONTINUOUS
 10
83.1991890000000041
 20
116.4470210000000066
 30
0.0
 11
67.2325060000000008
 21
123.8924070000000057
 31
0.0
  0
LINE
  5
85
100
AcDbEntity
100
AcDbLine
  8
HACHURE
 62
5
370
-1
  6
CONTINUOUS
 10
61.2205160000000035
 20
123.8926799999999986
 30
0.0
 11
78.0984629999999953
 21
116.0223639999999961
 31
0.0
  0
LINE
  5
86
100
AcDbEntity
100
AcDbLine
  8
HACHURE
 62
5
370
-1
  6
CONTINUOUS
 10
73.6644639999999953
 20
115.2882079999999974
 30
0.0
 11
57.7668159999999986
 21
122.7014029999999991
 31
0.0
  0
LINE
  5
87
100
AcDbEntity
100
AcDbLine
  8
HACHURE
 62
5
370
-1
  6
CONTINUOUS
 10
56.9600780000000029
 20
120.2744270000000029
 30
0.0
 11
66.6169469999999961
 21
115.7713549999999998
 31
0.0
  0
LINE
  5
88
100
AcDbEntity
100
AcDbLine
  8
HACHURE
 62
5
370
-1
  6
CONTINUOUS
 10
57.8182380000000009
 20
117.0710959999999972
 30
0.0
 11
56.9598999999999975
 21
117.4713449999999995
 31
0.0
  0
ENDBLK
  5
89
100
AcDbEntity
  8
0
100
AcDbBlockEnd
  0
BLOCK
  5
8A
100
AcDbEntity
  8
0
100
AcDbBlockBegin
  2
DESENS-G6
 70
0
 10
0.0
 20
0.0
 30
0.0
  3
DESENS-G6
  1

  0
LINE
  5
8B
100
AcDbEntity
100
AcDbLine
  8
HACHURE
 62
5
370
-1
  6
CONTINUOUS
 10
123.8193600000000032
 20
147.8929469999999924
 30
0.0
 11
119.469781999999995
 21
145.381717000000009
 31
0.0
  0
LINE
  5
8C
100
AcDbEntity
100
AcDbLine
  8
HACHURE
 62
5
370
-1
  6
CONTINUOUS
 10
121.9701570000000004
 20
143.8927360000000135
 30
0.0
 11
128.8992059999999924
 21
147.893225000000001
 31
0.0
  0
LINE
  5
8D
100
AcDbEntity
100
AcDbLine
  8
HACHURE
 62
5
370
-1
  6
CONTINUOUS
 10
133.98038600000001
 20
147.8931450000000041
 30
0.0
 11
127.0521820000000019
 21
143.8931450000000041
 31
0.0
  0
LINE
  5
8E
100
AcDbEntity
100
AcDbLine
  8
HACHURE
 62
5
370
-1
  6
CONTINUOUS
 10
132.1311819999999955
 20
143.8929339999999968
 30
0.0
 11
139.0602309999999875
 21
147.8934219999999868
 31
0.0
  0
LINE
  5
8F
100
AcDbEntity
100
AcDbLine
  8
HACHURE
 62
5
370
-1
  6
CONTINUOUS
 10
144.1400769999999909
 20
147.893698999999998
 30
0.0
 11
137.2110279999999989
 21
143.893211000000008
 31
0.0
  0
LINE
  5
90
100
AcDbEntity
100
AcDbLine
  8
HACHURE
 62
5
370
-1
  6
CONTINUOUS
 10
142.2930529999999862
 20
143.8936190000000011
 30
0.0
 11
148.9582350000000019
 21
147.7417639999999892
 31
0.0
  0
ENDBLK
  5
91
100
AcDbEntity
  8
0
100
AcDbBlockEnd
  0
BLOCK
  5
92
100
AcDbEntity
  8
0
100
AcDbBlockBegin
  2
DESENS-G7
 70
0
 10
0.0
 20
0.0
 30
0.0
  3
DESENS-G7
  1

  0
LINE
  5
93
100
AcDbEntity
100
AcDbLine
  8
HACHURE
 62
5
370
-1
  6
CONTINUOUS
 10
125.8246809999999982
 20
123.8926539999999932
 30
0.0
 11
118.959062000000003
 21
119.9287869999999998
 31
0.0
  0
LINE
  5
94
100
AcDbEntity
100
AcDbLine
  8
HACHURE
 62
5
370
-1
  6
CONTINUOUS
 10
120.2384320000000031
 20
117.7343379999999939
 30
0.0
 11
130.9047529999999995
 21
123.8925409999999943
 31
0.0
  0
LINE
  5
95
100
AcDbEntity
100
AcDbLine
  8
HACHURE
 62
5
370
-1
  6
CONTINUOUS
 10
135.9856690000000015
 20
123.8929169999999971
 30
0.0
 11
125.5485410000000002
 21
117.8670379999999938
 31
0.0
  0
LINE
  5
96
100
AcDbEntity
100
AcDbLine
  8
HACHURE
 62
5
370
-1
  6
CONTINUOUS
 10
130.9956579999999917
 20
118.0788390000000021
 30
0.0
 11
141.0665860000000009
 21
123.8932920000000024
 31
0.0
  0
LINE
  5
97
100
AcDbEntity
100
AcDbLine
  8
HACHURE
 62
5
370
-1
  6
CONTINUOUS
 10
146.1453229999999905
 20
123.8935359999999974
 30
0.0
 11
138.6081959999999924
 21
119.5419739999999962
 31
0.0
  0
LINE
  5
98
100
AcDbEntity
100
AcDbLine
  8
HACHURE
 62
5
370
-1
  6
CONTINUOUS
 10
143.8667149999999992
 20
119.6448879999999946
 30
0.0
 11
148.5199110000000076
 21
122.3314110000000028
 31
0.0
  0
ENDBLK
  5
99
100
AcDbEntity
  8
0
100
AcDbBlockEnd
  0
BLOCK
  5
9A
100
AcDbEntity
  8
0
100
AcDbBlockBegin
  2
DESENS-G8
 70
0
 10
0.0
 20
0.0
 30
0.0
  3
DESENS-G8
  1

  0
LINE
  5
9B
100
AcDbEntity
100
AcDbLine
  8
HACHURE
 62
5
370
-1
  6
CONTINUOUS
 10
91.9586230000000029
 20
239.9323789999999974
 30
0.0
 11
91.925257000000002
 21
239.9479379999999935
 31
0.0
  0
LINE
  5
9C
100
AcDbEntity
100
AcDbLine
  8
HACHURE
 62
5
370
-1
  6
CONTINUOUS
 10
85.9144840000000016
 20
239.9478169999999864
 30
0.0
 11
91.9585129999999964
 21
237.1294399999999882
 31
0.0
  0
LINE
  5
9D
100
AcDbEntity
100
AcDbLine
  8
HACHURE
 62
5
370
-1
  6
CONTINUOUS
 10
91.9589390000000009
 20
234.3276520000000005
 30
0.0
 11
79.9065499999999957
 21
239.9477740000000097
 31
0.0
  0
LINE
  5
9E
100
AcDbEntity
100
AcDbLine
  8
HACHURE
 62
5
370
-1
  6
CONTINUOUS
 10
73.9383490000000023
 20
239.9278009999999881
 30
0.0
 11
91.9588279999999969
 21
231.5247139999999888
 31
0.0
  0
LINE
  5
9F
100
AcDbEntity
100
AcDbLine
  8
HACHURE
 62
5
370
-1
  6
CONTINUOUS
 10
95.9581539999999933
 20
226.8568070000000034
 30
0.0
 11
95.7625550000000061
 21
226.948016999999993
 31
0.0
  0
LINE
  5
A0
100
AcDbEntity
100
AcDbLine
  8
HACHURE
 62
5
370
-1
  6
CONTINUOUS
 10
91.9587169999999929
 20
228.7217760000000055
 30
0.0
 11
72.0271149999999949
 21
238.0160339999999906
 31
0.0
  0
LINE
  5
A1
100
AcDbEntity
100
AcDbLine
  8
HACHURE
 62
5
370
-1
  6
CONTINUOUS
 10
70.1147299999999944
 20
236.1048040000000015
 30
0.0
 11
95.958044000000001
 21
224.0538689999999917
 31
0.0
  0
LINE
  5
A2
100
AcDbEntity
100
AcDbLine
  8
HACHURE
 62
5
370
-1
  6
CONTINUOUS
 10
95.9584700000000055
 20
221.252081000000004
 30
0.0
 11
68.2040329999999955
 21
234.1941879999999969
 31
0.0
  0
LINE
  5
A3
100
AcDbEntity
100
AcDbLine
  8
HACHURE
 62
5
370
-1
  6
CONTINUOUS
 10
66.2927990000000023
 20
232.2824209999999994
 30
0.0
 11
95.9583590000000015
 21
218.4491429999999923
 31
0.0
  0
LINE
  5
A4
100
AcDbEntity
100
AcDbLine
  8
HACHURE
 62
5
370
-1
  6
CONTINUOUS
 10
89.9498880000000014
 20
218.4479489999999942
 30
0.0
 11
64.3815639999999973
 21
230.3706540000000018
 31
0.0
  0
LINE
  5
A5
100
AcDbEntity
100
AcDbLine
  8
HACHURE
 62
5
370
-1
  6
CONTINUOUS
 10
62.4708669999999984
 20
228.4600369999999998
 30
0.0
 11
83.9408030000000025
 21
218.448442
 31
0.0
  0
LINE
  5
A6
100
AcDbEntity
100
AcDbLine
  8
HACHURE
 62
5
370
-1
  6
CONTINUOUS
 10
77.9288800000000066
 20
218.4488570000000038
 30
0.0
 11
60.5584819999999979
 21
226.5488070000000107
 31
0.0
  0
LINE
  5
A7
100
AcDbEntity
100
AcDbLine
  8
HACHURE
 62
5
370
-1
  6
CONTINUOUS
 10
58.6472479999999976
 20
224.6370400000000132
 30
0.0
 11
75.9589660000000038
 21
216.5644529999999861
 31
0.0
  0
LINE
  5
A8
100
AcDbEntity
100
AcDbLine
  8
HACHURE
 62
5
370
-1
  6
CONTINUOUS
 10
73.4165959999999984
 20
214.9483899999999892
 30
0.0
 11
56.9586129999999997
 21
222.6228739999999959
 31
0.0
  0
LINE
  5
A9
100
AcDbEntity
100
AcDbLine
  8
HACHURE
 62
5
370
-1
  6
CONTINUOUS
 10
56.9585030000000003
 20
219.8199349999999868
 30
0.0
 11
67.404674
 21
214.9488059999999905
 31
0.0
  0
LINE
  5
AA
100
AcDbEntity
100
AcDbLine
  8
HACHURE
 62
5
370
-1
  6
CONTINUOUS
 10
61.392750999999997
 20
214.9492219999999918
 30
0.0
 11
56.9583920000000035
 21
217.0169970000000035
 31
0.0
  0
ENDBLK
  5
AB
100
AcDbEntity
  8
0
100
AcDbBlockEnd
  0
BLOCK
  5
AC
100
AcDbEntity
  8
0
100
AcDbBlockBegin
  2
DESENS-G9
 70
0
 10
0.0
 20
0.0
 30
0.0
  3
DESENS-G9
  1

  0
LINE
  5
AD
100
AcDbEntity
100
AcDbLine
  8
HACHURE
 62
5
370
-1
  6
CONTINUOUS
 10
95.958155000000005
 20
198.6742089999999905
 30
0.0
 11
94.29786
 21
199.4484180000000038
 31
0.0
  0
LINE
  5
AE
100
AcDbEntity
100
AcDbLine
  8
HACHURE
 62
5
370
-1
  6
CONTINUOUS
 10
88.2858769999999993
 20
199.4487059999999872
 30
0.0
 11
95.9591360000000009
 21
195.8706070000000068
 31
0.0
  0
LINE
  5
AF
100
AcDbEntity
100
AcDbLine
  8
HACHURE
 62
5
370
-1
  6
CONTINUOUS
 10
95.958352000000005
 20
193.0692280000000096
 30
0.0
 11
82.2790339999999958
 21
199.4479980000000126
 31
0.0
  0
LINE
  5
B0
100
AcDbEntity
100
AcDbLine
  8
HACHURE
 62
5
370
-1
  6
CONTINUOUS
 10
75.958865000000003
 20
202.3951419999999928
 30
0.0
 11
74.7714600000000047
 21
202.948837999999995
 31
0.0
  0
LINE
  5
B1
100
AcDbEntity
100
AcDbLine
  8
HACHURE
 62
5
370
-1
  6
CONTINUOUS
 10
68.7617790000000042
 20
202.9480529999999874
 30
0.0
 11
75.9575439999999986
 21
199.5926120000000026
 31
0.0
  0
LINE
  5
B2
100
AcDbEntity
100
AcDbLine
  8
HACHURE
 62
5
370
-1
  6
CONTINUOUS
 10
76.2670520000000067
 20
199.4482869999999934
 30
0.0
 11
92.3510940000000033
 21
191.9481739999999945
 31
0.0
  0
LINE
  5
B3
100
AcDbEntity
100
AcDbLine
  8
HACHURE
 62
5
370
-1
  6
CONTINUOUS
 10
86.3419489999999996
 20
191.9485400000000084
 30
0.0
 11
62.7537850000000006
 21
202.9478819999999928
 31
0.0
  0
LINE
  5
B4
100
AcDbEntity
100
AcDbLine
  8
HACHURE
 62
5
370
-1
  6
CONTINUOUS
 10
56.959263
 20
202.8467660000000024
 30
0.0
 11
80.3299669999999963
 21
191.9488279999999918
 31
0.0
  0
LINE
  5
B5
100
AcDbEntity
100
AcDbLine
  8
HACHURE
 62
5
370
-1
  6
CONTINUOUS
 10
74.3179849999999931
 20
191.9491160000000036
 30
0.0
 11
56.9590930000000029
 21
200.0437000000000012
 31
0.0
  0
LINE
  5
B6
100
AcDbEntity
100
AcDbLine
  8
HACHURE
 62
5
370
-1
  6
CONTINUOUS
 10
56.9594590000000025
 20
197.241784999999993
 30
0.0
 11
68.3099909999999966
 21
191.948945000000009
 31
0.0
  0
LINE
  5
B7
100
AcDbEntity
100
AcDbLine
  8
HACHURE
 62
5
370
-1
  6
CONTINUOUS
 10
62.2980090000000004
 20
191.9492329999999924
 30
0.0
 11
56.9592889999999983
 21
194.4387189999999919
 31
0.0
  0
ENDBLK
  5
B8
100
AcDbEntity
  8
0
100
AcDbBlockEnd
  0
BLOCK
  5
B9
100
AcDbEntity
  8
0
100
AcDbBlockBegin
  2
DESENS-G10
 70
0
 10
0.0
 20
0.0
 30
0.0
  3
DESENS-G10
  1

  0
LINE
  5
BA
100
AcDbEntity
100
AcDbLine
  8
HACHURE
 62
5
370
-1
  6
CONTINUOUS
 10
96.4865580000000023
 20
241.9410739999999862
 30
0.0
 11
91.968947
 21
237.4234629999999981
 31
0.0
  0
LINE
  5
BB
100
AcDbEntity
100
AcDbLine
  8
HACHURE
 62
5
370
-1
  6
CONTINUOUS
 10
91.9627569999999963
 20
232.041324000000003
 30
0.0
 11
98.9507310000000047
 21
239.0292970000000139
 31
0.0
  0
LINE
  5
BC
100
AcDbEntity
100
AcDbLine
  8
HACHURE
 62
5
370
-1
  6
CONTINUOUS
 10
98.9313290000000052
 20
233.6339460000000088
 30
0.0
 11
92.249652999999995
 21
226.9522709999999961
 31
0.0
  0
LINE
  5
BD
100
AcDbEntity
100
AcDbLine
  8
HACHURE
 62
5
370
-1
  6
CONTINUOUS
 10
97.7369159999999937
 20
226.9909370000000024
 30
0.0
 11
98.9118359999999939
 21
228.1658569999999884
 31
0.0
  0
LINE
  5
BE
100
AcDbEntity
100
AcDbLine
  8
HACHURE
 62
5
370
-1
  6
CONTINUOUS
 10
93.7936360000000064
 20
241.9361260000000016
 30
0.0
 11
92.9615189999999956
 21
241.1040089999999907
 31
0.0
  0
LINE
  5
BF
100
AcDbEntity
100
AcDbLine
  8
HACHURE
 62
5
370
-1
  6
CONTINUOUS
 10
92.2879999999999967
 20
240.4304899999999918
 30
0.0
 11
91.9721229999999963
 21
240.1146119999999939
 31
0.0
  0
LINE
  5
C0
100
AcDbEntity
100
AcDbLine
  8
HACHURE
 62
5
370
-1
  6
CONTINUOUS
 10
91.9659330000000068
 20
234.7324739999999963
 30
0.0
 11
92.9554169999999971
 21
235.7219570000000033
 31
0.0
  0
LINE
  5
C1
100
AcDbEntity
100
AcDbLine
  8
HACHURE
 62
5
370
-1
  6
CONTINUOUS
 10
93.6289359999999959
 20
236.3954769999999996
 30
0.0
 11
94.9759739999999937
 21
237.7425149999999974
 31
0.0
  0
LINE
  5
C2
100
AcDbEntity
100
AcDbLine
  8
HACHURE
 62
5
370
-1
  6
CONTINUOUS
 10
95.6494930000000068
 20
238.4160339999999962
 30
0.0
 11
96.996532000000002
 21
239.7630729999999915
 31
0.0
  0
LINE
  5
C3
100
AcDbEntity
100
AcDbLine
  8
HACHURE
 62
5
370
-1
  6
CONTINUOUS
 10
97.6700510000000008
 20
240.4365919999999903
 30
0.0
 11
98.9603510000000028
 21
241.7268919999999923
 31
0.0
  0
LINE
  5
C4
100
AcDbEntity
100
AcDbLine
  8
HACHURE
 62
5
370
-1
  6
CONTINUOUS
 10
98.9411099999999948
 20
236.331702000000007
 30
0.0
 11
98.3374680000000012
 21
235.7280599999999993
 31
0.0
  0
LINE
  5
C5
100
AcDbEntity
100
AcDbLine
  8
HACHURE
 62
5
370
-1
  6
CONTINUOUS
 10
97.6639490000000023
 20
235.0545410000000004
 30
0.0
 11
96.3169099999999929
 21
233.7075020000000052
 31
0.0
  0
LINE
  5
C6
100
AcDbEntity
100
AcDbLine
  8
HACHURE
 62
5
370
-1
  6
CONTINUOUS
 10
95.6433909999999941
 20
233.0339830000000063
 30
0.0
 11
94.2963529999999963
 21
231.6869450000000086
 31
0.0
  0
LINE
  5
C7
100
AcDbEntity
100
AcDbLine
  8
HACHURE
 62
5
370
-1
  6
CONTINUOUS
 10
93.622833
 20
231.0134250000000122
 30
0.0
 11
92.2757950000000022
 21
229.6663869999999861
 31
0.0
  0
LINE
  5
C8
100
AcDbEntity
100
AcDbLine
  8
HACHURE
 62
5
370
-1
  6
CONTINUOUS
 10
95.0298149999999993
 20
226.9718100000000049
 30
0.0
 11
96.347132000000002
 21
228.2891270000000077
 31
0.0
  0
LINE
  5
C9
100
AcDbEntity
100
AcDbLine
  8
HACHURE
 62
5
370
-1
  6
CONTINUOUS
 10
97.0206510000000009
 20
228.9626460000000066
 30
0.0
 11
98.3676889999999986
 21
230.3096850000000018
 31
0.0
  0
ENDBLK
  5
CA
100
AcDbEntity
  8
0
100
AcDbBlockEnd
  0
BLOCK
  5
CB
100
AcDbEntity
  8
0
100
AcDbBlockBegin
  2
DESENS-G11
 70
0
 10
0.0
 20
0.0
 30
0.0
  3
DESENS-G11
  1

  0
LINE
  5
CC
100
AcDbEntity
100
AcDbLine
  8
HACHURE
 62
5
370
-1
  6
CONTINUOUS
 10
125.2630240000000015
 20
239.9474850000000004
 30
0.0
 11
122.9584159999999997
 21
238.6169179999999983
 31
0.0
  0
LINE
  5
CD
100
AcDbEntity
100
AcDbLine
  8
HACHURE
 62
5
370
-1
  6
CONTINUOUS
 10
122.9582010000000025
 20
235.6836959999999976
 30
0.0
 11
130.3430979999999977
 21
239.9473670000000141
 31
0.0
  0
LINE
  5
CE
100
AcDbEntity
100
AcDbLine
  8
HACHURE
 62
5
370
-1
  6
CONTINUOUS
 10
133.2268160000000137
 20
238.6791839999999922
 30
0.0
 11
122.9588329999999985
 21
232.7509609999999896
 31
0.0
  0
LINE
  5
CF
100
AcDbEntity
100
AcDbLine
  8
HACHURE
 62
5
370
-1
  6
CONTINUOUS
 10
122.9586189999999988
 20
229.8177379999999914
 30
0.0
 11
135.0863569999999925
 21
236.8196920000000034
 31
0.0
  0
LINE
  5
D0
100
AcDbEntity
100
AcDbLine
  8
HACHURE
 62
5
370
-1
  6
CONTINUOUS
 10
136.9454100000000096
 20
234.9610450000000128
 30
0.0
 11
118.9593140000000062
 21
224.5767679999999871
 31
0.0
  0
LINE
  5
D1
100
AcDbEntity
100
AcDbLine
  8
HACHURE
 62
5
370
-1
  6
CONTINUOUS
 10
118.9591000000000065
 20
221.6435449999999889
 30
0.0
 11
138.8049519999999859
 21
233.1015529999999956
 31
0.0
  0
LINE
  5
D2
100
AcDbEntity
100
AcDbLine
  8
HACHURE
 62
5
370
-1
  6
CONTINUOUS
 10
140.6644929999999931
 20
231.2420610000000067
 30
0.0
 11
118.9597320000000025
 21
218.7108110000000067
 31
0.0
  0
LINE
  5
D3
100
AcDbEntity
100
AcDbLine
  8
HACHURE
 62
5
370
-1
  6
CONTINUOUS
 10
123.5848040000000054
 20
218.4479980000000126
 30
0.0
 11
142.5240349999999978
 21
229.382567999999992
 31
0.0
  0
LINE
  5
D4
100
AcDbEntity
100
AcDbLine
  8
HACHURE
 62
5
370
-1
  6
CONTINUOUS
 10
144.3835770000000025
 20
227.5230760000000032
 30
0.0
 11
128.6648769999999899
 21
218.4478809999999953
 31
0.0
  0
LINE
  5
D5
100
AcDbEntity
100
AcDbLine
  8
HACHURE
 62
5
370
-1
  6
CONTINUOUS
 10
133.7457960000000128
 20
218.4482519999999965
 30
0.0
 11
146.242272000000014
 21
225.6630959999999959
 31
0.0
  0
LINE
  5
D6
100
AcDbEntity
100
AcDbLine
  8
HACHURE
 62
5
370
-1
  6
CONTINUOUS
 10
148.1018139999999903
 20
223.8036030000000096
 30
0.0
 11
138.825870000000009
 21
218.4481350000000077
 31
0.0
  0
LINE
  5
D7
100
AcDbEntity
100
AcDbLine
  8
HACHURE
 62
5
370
-1
  6
CONTINUOUS
 10
140.9589389999999867
 20
216.7476910000000032
 30
0.0
 11
148.9586789999999894
 21
221.3663430000000005
 31
0.0
  0
LINE
  5
D8
100
AcDbEntity
100
AcDbLine
  8
HACHURE
 62
5
370
-1
  6
CONTINUOUS
 10
148.9584649999999897
 20
218.4331209999999999
 30
0.0
 11
142.9233509999999967
 21
214.9487459999999999
 31
0.0
  0
ENDBLK
  5
D9
100
AcDbEntity
  8
0
100
AcDbBlockEnd
  0
BLOCK
  5
DA
100
AcDbEntity
  8
0
100
AcDbBlockBegin
  2
DESENS-G12
 70
0
 10
0.0
 20
0.0
 30
0.0
  3
DESENS-G12
  1

  0
LINE
  5
DB
100
AcDbEntity
100
AcDbLine
  8
HACHURE
 62
5
370
-1
  6
CONTINUOUS
 10
120.5288699999999977
 20
199.4480609999999956
 30
0.0
 11
118.9583530000000025
 21
198.5413230000000055
 31
0.0
  0
LINE
  5
DC
100
AcDbEntity
100
AcDbLine
  8
HACHURE
 62
5
370
-1
  6
CONTINUOUS
 10
118.9589349999999968
 20
195.6086750000000052
 30
0.0
 11
125.6088940000000065
 21
199.4480299999999886
 31
0.0
  0
LINE
  5
DD
100
AcDbEntity
100
AcDbLine
  8
HACHURE
 62
5
370
-1
  6
CONTINUOUS
 10
130.688918000000001
 20
199.44799900000001
 30
0.0
 11
118.9595170000000053
 21
192.6760260000000073
 31
0.0
  0
LINE
  5
DE
100
AcDbEntity
100
AcDbLine
  8
HACHURE
 62
5
370
-1
  6
CONTINUOUS
 10
122.7794059999999945
 20
191.9484559999999931
 30
0.0
 11
135.7689420000000098
 21
199.4479670000000056
 31
0.0
  0
LINE
  5
DF
100
AcDbEntity
100
AcDbLine
  8
HACHURE
 62
5
370
-1
  6
CONTINUOUS
 10
140.9591739999999902
 20
202.444548999999995
 30
0.0
 11
141.8302740000000028
 21
202.9474789999999871
 31
0.0
  0
LINE
  5
E0
100
AcDbEntity
100
AcDbLine
  8
HACHURE
 62
5
370
-1
  6
CONTINUOUS
 10
146.9102980000000116
 20
202.9474480000000085
 30
0.0
 11
140.958910000000003
 21
199.5114130000000046
 31
0.0
  0
LINE
  5
E1
100
AcDbEntity
100
AcDbLine
  8
HACHURE
 62
5
370
-1
  6
CONTINUOUS
 10
140.8498109999999883
 20
199.4484239999999886
 30
0.0
 11
127.8602759999999989
 21
191.9489130000000046
 31
0.0
  0
LINE
  5
E2
100
AcDbEntity
100
AcDbLine
  8
HACHURE
 62
5
370
-1
  6
CONTINUOUS
 10
132.9403000000000077
 20
191.9488810000000001
 30
0.0
 11
148.8002360000000124
 21
201.1056199999999876
 31
0.0
  0
LINE
  5
E3
100
AcDbEntity
100
AcDbLine
  8
HACHURE
 62
5
370
-1
  6
CONTINUOUS
 10
148.9581230000000005
 20
198.2637909999999977
 30
0.0
 11
138.020323999999988
 21
191.9488499999999931
 31
0.0
  0
LINE
  5
E4
100
AcDbEntity
100
AcDbLine
  8
HACHURE
 62
5
370
-1
  6
CONTINUOUS
 10
143.1003479999999968
 20
191.9488189999999861
 30
0.0
 11
148.9578590000000133
 21
195.3306550000000072
 31
0.0
  0
LINE
  5
E5
100
AcDbEntity
100
AcDbLine
  8
HACHURE
 62
5
370
-1
  6
CONTINUOUS
 10
148.9575949999999978
 20
192.3975179999999909
 30
0.0
 11
148.1803720000000055
 21
191.94878700000001
 31
0.0
  0
ENDBLK
  5
E6
100
AcDbEntity
  8
0
100
AcDbBlockEnd
  0
BLOCK
  5
E7
100
AcDbEntity
  8
0
100
AcDbBlockBegin
  2
DESENS-G13
 70
0
 10
0.0
 20
0.0
 30
0.0
  3
DESENS-G13
  1

  0
LINE
  5
E8
100
AcDbEntity
100
AcDbLine
  8
HACHURE
 62
5
370
-1
  6
CONTINUOUS
 10
151.9590410000000134
 20
217.7033460000000105
 30
0.0
 11
148.9591599999999971
 21
219.4353279999999984
 31
0.0
  0
LINE
  5
E9
100
AcDbEntity
100
AcDbLine
  8
HACHURE
 62
5
370
-1
  6
CONTINUOUS
 10
148.9591139999999996
 20
216.5024359999999888
 30
0.0
 11
151.6514040000000136
 21
214.9480409999999893
 31
0.0
  0
LINE
  5
EA
100
AcDbEntity
100
AcDbLine
  8
HACHURE
 62
5
370
-1
  6
CONTINUOUS
 10
151.9590039999999931
 20
219.1698829999999987
 30
0.0
 11
151.2305859999999882
 21
219.5904360000000111
 31
0.0
  0
LINE
  5
EB
100
AcDbEntity
100
AcDbLine
  8
HACHURE
 62
5
370
-1
  6
CONTINUOUS
 10
150.6806589999999915
 20
219.9079360000000065
 30
0.0
 11
149.580806999999993
 21
220.5429359999999974
 31
0.0
  0
LINE
  5
EC
100
AcDbEntity
100
AcDbLine
  8
HACHURE
 62
5
370
-1
  6
CONTINUOUS
 10
149.0308809999999937
 20
220.8604359999999929
 30
0.0
 11
148.9591230000000053
 21
220.9018660000000125
 31
0.0
  0
LINE
  5
ED
100
AcDbEntity
100
AcDbLine
  8
HACHURE
 62
5
370
-1
  6
CONTINUOUS
 10
148.9591609999999946
 20
217.968923999999987
 30
0.0
 11
149.4106679999999869
 21
217.7082470000000001
 31
0.0
  0
LINE
  5
EE
100
AcDbEntity
100
AcDbLine
  8
HACHURE
 62
5
370
-1
  6
CONTINUOUS
 10
149.9605939999999862
 20
217.3907470000000046
 30
0.0
 11
151.0604460000000131
 21
216.7557470000000137
 31
0.0
  0
LINE
  5
EF
100
AcDbEntity
100
AcDbLine
  8
HACHURE
 62
5
370
-1
  6
CONTINUOUS
 10
151.6103730000000098
 20
216.4382469999999898
 30
0.0
 11
151.9590430000000083
 21
216.2369419999999991
 31
0.0
  0
LINE
  5
F0
100
AcDbEntity
100
AcDbLine
  8
HACHURE
 62
5
370
-1
  6
CONTINUOUS
 10
149.1115149999999971
 20
214.9480430000000126
 30
0.0
 11
148.9591149999999971
 21
215.0360310000000084
 31
0.0
  0
ENDBLK
  5
F1
100
AcDbEntity
  8
0
100
AcDbBlockEnd
  0
BLOCK
  5
F2
100
AcDbEntity
  8
0
100
AcDbBlockBegin
  2
DESENS-G14
 70
0
 10
0.0
 20
0.0
 30
0.0
  3
DESENS-G14
  1

  0
LINE
  5
F3
100
AcDbEntity
100
AcDbLine
  8
HACHURE
 62
5
370
-1
  6
CONTINUOUS
 10
151.9590139999999963
 20
202.668531999999999
 30
0.0
 11
151.4750879999999995
 21
202.9479269999999929
 31
0.0
  0
LINE
  5
F4
100
AcDbEntity
100
AcDbLine
  8
HACHURE
 62
5
370
-1
  6
CONTINUOUS
 10
148.9591700000000003
 20
201.4675729999999874
 30
0.0
 11
151.959052000000014
 21
199.7355909999999994
 31
0.0
  0
LINE
  5
F5
100
AcDbEntity
100
AcDbLine
  8
HACHURE
 62
5
370
-1
  6
CONTINUOUS
 10
150.9159689999999898
 20
197.4048950000000104
 30
0.0
 11
148.9591240000000028
 21
198.5346800000000087
 31
0.0
  0
LINE
  5
F6
100
AcDbEntity
100
AcDbLine
  8
HACHURE
 62
5
370
-1
  6
CONTINUOUS
 10
151.8186579999999992
 20
201.2831630000000018
 30
0.0
 11
150.7188060000000007
 21
201.9181629999999927
 31
0.0
  0
LINE
  5
F7
100
AcDbEntity
100
AcDbLine
  8
HACHURE
 62
5
370
-1
  6
CONTINUOUS
 10
150.1688800000000015
 20
202.2356629999999882
 30
0.0
 11
149.0690270000000055
 21
202.8706630000000075
 31
0.0
  0
LINE
  5
F8
100
AcDbEntity
100
AcDbLine
  8
HACHURE
 62
5
370
-1
  6
CONTINUOUS
 10
149.4488139999999987
 20
199.7184739999999863
 30
0.0
 11
150.5486669999999947
 21
199.0834739999999954
 31
0.0
  0
LINE
  5
F9
100
AcDbEntity
100
AcDbLine
  8
HACHURE
 62
5
370
-1
  6
CONTINUOUS
 10
151.0985929999999939
 20
198.7659739999999999
 30
0.0
 11
151.8457260000000133
 21
198.3346160000000111
 31
0.0
  0
LINE
  5
FA
100
AcDbEntity
100
AcDbLine
  8
HACHURE
 62
5
370
-1
  6
CONTINUOUS
 10
149.1673440000000141
 20
196.9480609999999956
 30
0.0
 11
148.9591250000000002
 21
197.0682759999999973
 31
0.0
  0
ENDBLK
  5
FB
100
AcDbEntity
  8
0
100
AcDbBlockEnd
  0
BLOCK
  5
FC
100
AcDbEntity
  8
0
100
AcDbBlockBegin
  2
DESENS-G15
 70
0
 10
0.0
 20
0.0
 30
0.0
  3
DESENS-G15
  1

  0
LINE
  5
FD
100
AcDbEntity
100
AcDbLine
  8
HACHURE
 62
5
370
-1
  6
CONTINUOUS
 10
122.9554700000000054
 20
239.789244999999994
 30
0.0
 11
118.2985460000000018
 21
241.960803999999996
 31
0.0
  0
LINE
  5
FE
100
AcDbEntity
100
AcDbLine
  8
HACHURE
 62
5
370
-1
  6
CONTINUOUS
 10
117.0234750000000048
 20
238.3610319999999945
 30
0.0
 11
122.9531530000000004
 21
235.5959780000000023
 31
0.0
  0
LINE
  5
FF
100
AcDbEntity
100
AcDbLine
  8
HACHURE
 62
5
370
-1
  6
CONTINUOUS
 10
122.9510429999999985
 20
231.4026139999999998
 30
0.0
 11
116.7830469999999963
 21
234.2787979999999948
 31
0.0
  0
LINE
  5
100
100
AcDbEntity
100
AcDbLine
  8
HACHURE
 62
5
370
-1
  6
CONTINUOUS
 10
115.9755009999999942
 20
230.4043350000000032
 30
0.0
 11
122.948908000000003
 21
227.1525819999999953
 31
0.0
  0
LINE
  5
101
100
AcDbEntity
100
AcDbLine
  8
HACHURE
 62
5
370
-1
  6
CONTINUOUS
 10
116.3799060000000054
 20
240.7583070000000021
 30
0.0
 11
118.1064230000000066
 21
239.95321899999999
 31
0.0
  0
LINE
  5
102
100
AcDbEntity
100
AcDbLine
  8
HACHURE
 62
5
370
-1
  6
CONTINUOUS
 10
118.9696809999999942
 20
239.5506750000000125
 30
0.0
 11
120.696196999999998
 21
238.7455870000000004
 31
0.0
  0
LINE
  5
103
100
AcDbEntity
100
AcDbLine
  8
HACHURE
 62
5
370
-1
  6
CONTINUOUS
 10
121.5594549999999998
 20
238.3430429999999944
 30
0.0
 11
122.9543110000000041
 21
237.6926109999999994
 31
0.0
  0
LINE
  5
104
100
AcDbEntity
100
AcDbLine
  8
HACHURE
 62
5
370
-1
  6
CONTINUOUS
 10
122.9522019999999998
 20
233.4992479999999944
 30
0.0
 11
122.5427020000000056
 21
233.6902010000000018
 31
0.0
  0
LINE
  5
105
100
AcDbEntity
100
AcDbLine
  8
HACHURE
 62
5
370
-1
  6
CONTINUOUS
 10
121.6794430000000062
 20
234.0927440000000104
 30
0.0
 11
119.9529270000000025
 21
234.897831999999994
 31
0.0
  0
LINE
  5
106
100
AcDbEntity
100
AcDbLine
  8
HACHURE
 62
5
370
-1
  6
CONTINUOUS
 10
119.0896690000000007
 20
235.300376
 30
0.0
 11
118.2182480000000027
 21
235.7067260000000033
 31
0.0
  0
LINE
  5
107
100
AcDbEntity
100
AcDbLine
  8
HACHURE
 62
5
370
-1
  6
CONTINUOUS
 10
115.9706699999999984
 20
232.5037609999999972
 30
0.0
 11
117.4614310000000046
 21
231.8086079999999924
 31
0.0
  0
LINE
  5
108
100
AcDbEntity
100
AcDbLine
  8
HACHURE
 62
5
370
-1
  6
CONTINUOUS
 10
118.3246890000000064
 20
231.4060639999999864
 30
0.0
 11
120.0512049999999959
 21
230.6009760000000028
 31
0.0
  0
LINE
  5
109
100
AcDbEntity
100
AcDbLine
  8
HACHURE
 62
5
370
-1
  6
CONTINUOUS
 10
120.9144629999999978
 20
230.1984329999999943
 30
0.0
 11
122.640979999999999
 21
229.3933450000000107
 31
0.0
  0
LINE
  5
10A
100
AcDbEntity
100
AcDbLine
  8
HACHURE
 62
5
370
-1
  6
CONTINUOUS
 10
118.4446769999999987
 20
227.1557650000000024
 30
0.0
 11
116.7181609999999949
 21
227.960852999999986
 31
0.0
  0
ENDBLK
  5
10B
100
AcDbEntity
  8
0
100
AcDbBlockEnd
  0
ENDSEC
  0
SECTION
  2
ENTITIES
  0
LINE
  5
10C
100
AcDbEntity
100
AcDbLine
  8
FORT
 62
7
370
-1
  6
CONTINUOUS
 10
10.0
 20
287.0
 30
0.0
 11
410.0
 21
287.0
 31
0.0
  0
LINE
  5
10D
100
AcDbEntity
100
AcDbLine
  8
FIN
 62
5
370
-1
  6
CONTINUOUS
 10
220.0
 20
59.0
 30
0.0
 11
410.0
 21
59.0
 31
0.0
  0
LINE
  5
10E
100
AcDbEntity
100
AcDbLine
  8
FIN
 62
5
370
-1
  6
CONTINUOUS
 10
220.0
 20
68.0
 30
0.0
 11
410.0
 21
68.0
 31
0.0
  0
LINE
  5
10F
100
AcDbEntity
100
AcDbLine
  8
FIN
 62
5
370
-1
  6
CONTINUOUS
 10
220.0
 20
77.0
 30
0.0
 11
410.0
 21
77.0
 31
0.0
  0
LINE
  5
110
100
AcDbEntity
100
AcDbLine
  8
FIN
 62
5
370
-1
  6
CONTINUOUS
 10
220.5
 20
20.5
 30
0.0
 11
409.5
 21
20.5
 31
0.0
  0
LINE
  5
111
100
AcDbEntity
100
AcDbLine
  8
FIN
 62
5
370
-1
  6
CONTINUOUS
 10
220.0
 20
86.0
 30
0.0
 11
410.0
 21
86.0
 31
0.0
  0
LINE
  5
112
100
AcDbEntity
100
AcDbLine
  8
FIN
 62
5
370
-1
  6
CONTINUOUS
 10
220.0
 20
95.0
 30
0.0
 11
410.0
 21
95.0
 31
0.0
  0
LINE
  5
113
100
AcDbEntity
100
AcDbLine
  8
FIN
 62
5
370
-1
  6
CONTINUOUS
 10
220.0
 20
104.0
 30
0.0
 11
410.0
 21
104.0
 31
0.0
  0
LINE
  5
114
100
AcDbEntity
100
AcDbLine
  8
FIN
 62
5
370
-1
  6
CONTINUOUS
 10
220.0
 20
113.0
 30
0.0
 11
410.0
 21
113.0
 31
0.0
  0
LINE
  5
115
100
AcDbEntity
100
AcDbLine
  8
FIN
 62
5
370
-1
  6
CONTINUOUS
 10
220.0
 20
122.0
 30
0.0
 11
410.0
 21
122.0
 31
0.0
  0
LINE
  5
116
100
AcDbEntity
100
AcDbLine
  8
FIN
 62
5
370
-1
  6
CONTINUOUS
 10
220.0
 20
131.0
 30
0.0
 11
410.0
 21
131.0
 31
0.0
  0
MTEXT
  5
117
100
AcDbEntity
100
AcDbMText
  8
TEXTE
 62
7
370
-1
  6
CONTINUOUS
 10
231.0037869999999884
 20
11.9279770000000003
 30
0.0
 40
7.0
 41
100.0
 71
7
 72
2
  1
A3
  7
ISO9
 50
0.0
 73
0
 44
1.0
  0
MTEXT
  5
118
100
AcDbEntity
100
AcDbMText
  8
TEXTE
 62
7
370
-1
  6
CONTINUOUS
 10
222.0
 20
43.0
 30
0.0
 40
5.0
 41
100.0
 71
7
 72
2
  1
REP.
  7
ISO9
 50
0.0
 73
0
 44
1.0
  0
LINE
  5
119
100
AcDbEntity
100
AcDbLine
  8
FORT
 62
7
370
-1
  6
CONTINUOUS
 10
10.0
 20
10.0
 30
0.0
 11
10.0
 21
287.0
 31
0.0
  0
LINE
  5
11A
100
AcDbEntity
100
AcDbLine
  8
FIN
 62
5
370
-1
  6
CONTINUOUS
 10
129.4590970000000141
 20
139.5142620000000022
 30
0.0
 11
129.4590970000000141
 21
170.0
 31
0.0
  0
LINE
  5
11B
100
AcDbEntity
100
AcDbLine
  8
FIN
 62
5
370
-1
  6
CONTINUOUS
 10
109.4590969999999999
 20
170.0
 30
0.0
 11
111.1764960000000002
 21
116.1925009999999929
 31
0.0
  0
LINE
  5
11C
100
AcDbEntity
100
AcDbLine
  8
FIN
 62
5
370
-1
  6
CONTINUOUS
 10
89.4590969999999999
 20
170.0
 30
0.0
 11
103.344151999999994
 21
139.5203809999999862
 31
0.0
  0
LINE
  5
11D
100
AcDbEntity
100
AcDbLine
  8
FORT
 62
7
370
-1
  6
CONTINUOUS
 10
50.9590969999999999
 20
123.8929080000000056
 30
0.0
 11
146.9590970000000141
 21
123.8929080000000056
 31
0.0
  0
LINE
  5
11E
100
AcDbEntity
100
AcDbLine
  8
FORT
 62
7
370
-1
  6
CONTINUOUS
 10
50.9590969999999999
 20
143.8929080000000056
 30
0.0
 11
146.9590970000000141
 21
143.8929080000000056
 31
0.0
  0
LINE
  5
11F
100
AcDbEntity
100
AcDbLine
  8
FORT
 62
7
370
-1
  6
CONTINUOUS
 10
98.9590969999999999
 20
91.8929080000000056
 30
0.0
 11
115.9590969999999999
 21
91.8929080000000056
 31
0.0
  0
LINE
  5
120
100
AcDbEntity
100
AcDbLine
  8
FORT
 62
7
370
-1
  6
CONTINUOUS
 10
98.9590969999999999
 20
71.8929080000000056
 30
0.0
 11
115.9590969999999999
 21
71.8929080000000056
 31
0.0
  0
LINE
  5
121
100
AcDbEntity
100
AcDbLine
  8
FORT
 62
7
370
-1
  6
CONTINUOUS
 10
111.9888409999999936
 20
115.5374999999999943
 30
0.0
 11
114.7453409999999963
 21
100.5374999999999943
 31
0.0
  0
LINE
  5
122
100
AcDbEntity
100
AcDbLine
  8
FORT
 62
7
370
-1
  6
CONTINUOUS
 10
110.4151920000000047
 20
115.2483160000000026
 30
0.0
 11
113.1716919999999931
 21
100.2483160000000026
 31
0.0
  0
LINE
  5
123
100
AcDbEntity
100
AcDbLine
  8
FORT
 62
7
370
-1
  6
CONTINUOUS
 10
111.9590969999999999
 20
102.8929080000000056
 30
0.0
 11
112.6857040000000012
 21
102.8929080000000056
 31
0.0
  0
LINE
  5
124
100
AcDbEntity
100
AcDbLine
  8
FORT
 62
7
370
-1
  6
CONTINUOUS
 10
50.9590969999999999
 20
91.8929080000000056
 30
0.0
 11
50.9590969999999999
 21
71.8929080000000056
 31
0.0
  0
LINE
  5
125
100
AcDbEntity
100
AcDbLine
  8
FORT
 62
7
370
-1
  6
CONTINUOUS
 10
98.9590969999999999
 20
118.9078090000000003
 30
0.0
 11
98.9590969999999999
 21
65.8929080000000056
 31
0.0
  0
LINE
  5
126
100
AcDbEntity
100
AcDbLine
  8
FORT
 62
7
370
-1
  6
CONTINUOUS
 10
73.9590969999999999
 20
115.2632320000000021
 30
0.0
 11
73.9590969999999999
 21
67.8929080000000056
 31
0.0
  0
LINE
  5
127
100
AcDbEntity
100
AcDbLine
  8
FORT
 62
7
370
-1
  6
CONTINUOUS
 10
56.9590969999999999
 20
123.8929080000000056
 30
0.0
 11
56.9590969999999999
 21
67.8929080000000056
 31
0.0
  0
LWPOLYLINE
  5
128
  8
FIN
 62
5
370
-1
  6
CONTINUOUS
100
AcDbEntity
100
AcDbPolyline
 90
14
 70
0
 10
98.9590969999999999
 20
89.576777000000007
 10
94.9806820000000016
 20
88.8446830000000034
 10
87.9037689999999969
 20
89.1700579999999974
 10
82.6164200000000051
 20
88.1125880000000024
 10
78.7858650000000011
 20
86.1825209999999942
 10
76.3056179999999955
 20
82.9879269999999991
 10
75.8175549999999987
 20
79.0834229999999963
 10
76.4801369999999991
 20
76.3990770000000055
 10
78.281532999999996
 20
73.5520429999999976
 10
81.9701060000000012
 20
72.3318859999999972
 10
86.4395800000000065
 20
72.575917000000004
 10
90.8321470000000062
 20
71.9251660000000044
 10
95.2247129999999942
 20
70.1356020000000058
 10
98.9590969999999999
 20
69.4848520000000036
  0
LWPOLYLINE
  5
129
  8
HACHURE
 62
5
370
-1
  6
CONTINUOUS
100
AcDbEntity
100
AcDbPolyline
 90
7
 70
1
 10
98.9590969999999999
 20
69.4848520000000036
 10
95.2247129999999942
 20
70.1356020000000058
 10
91.9590969999999999
 20
71.4660379999999975
 10
91.9590969999999999
 20
76.8929080000000056
 10
93.9590969999999999
 20
76.8929080000000056
 10
93.9590969999999999
 20
73.8929080000000056
 10
98.9590969999999999
 20
73.8929080000000056
  0
INSERT
  5
12A
100
AcDbEntity
100
AcDbBlockReference
  8
HACHURE
 62
256
370
-1
  6
ByLayer
  2
DESENS-G1
 10
0.0
 20
0.0
 30
0.0
  0
LINE
  5
12B
100
AcDbEntity
100
AcDbLine
  8
FORT
 62
7
370
-1
  6
CONTINUOUS
 10
91.9590969999999999
 20
65.8929080000000056
 30
0.0
 11
91.9590969999999999
 21
76.8929080000000056
 31
0.0
  0
LWPOLYLINE
  5
12C
  8
HACHURE
 62
5
370
-1
  6
CONTINUOUS
100
AcDbEntity
100
AcDbPolyline
 90
21
 70
1
 10
91.9590969999999999
 20
71.4660379999999975
 10
90.8321470000000062
 20
71.9251660000000044
 10
86.4395800000000065
 20
72.575917000000004
 10
81.9701060000000012
 20
72.3318859999999972
 10
78.281532999999996
 20
73.5520429999999976
 10
76.4801369999999991
 20
76.3990770000000055
 10
75.8175549999999987
 20
79.0834229999999963
 10
76.3056179999999955
 20
82.9879269999999991
 10
78.7858650000000011
 20
86.1825209999999942
 10
82.6164200000000051
 20
88.1125880000000024
 10
87.9037689999999969
 20
89.1700579999999974
 10
91.9590969999999999
 20
88.9836059999999947
 10
91.9590969999999999
 20
82.8929080000000056
 10
84.9590969999999999
 20
82.8929080000000056
 10
83.9590969999999999
 20
81.8929080000000056
 10
79.927195999999995
 20
81.8929080000000056
 10
78.7724960000000038
 20
79.8929080000000056
 10
79.927195999999995
 20
77.8929080000000056
 10
83.9590969999999999
 20
77.8929080000000056
 10
84.9590969999999999
 20
76.8929080000000056
 10
91.9590969999999999
 20
76.8929080000000056
  0
INSERT
  5
12D
100
AcDbEntity
100
AcDbBlockReference
  8
HACHURE
 62
256
370
-1
  6
ByLayer
  2
DESENS-G2
 10
0.0
 20
0.0
 30
0.0
  0
LINE
  5
12E
100
AcDbEntity
100
AcDbLine
  8
FIN
 62
5
370
-1
  6
CONTINUOUS
 10
89.4590969999999999
 20
40.0
 30
0.0
 11
89.4590969999999999
 21
78.8634540000000044
 31
0.0
  0
LINE
  5
12F
100
AcDbEntity
100
AcDbLine
  8
FORT
 62
7
370
-1
  6
CONTINUOUS
 10
48.9590969999999999
 20
73.8929080000000056
 30
0.0
 11
50.9590969999999999
 21
71.8929080000000056
 31
0.0
  0
LINE
  5
130
100
AcDbEntity
100
AcDbLine
  8
FORT
 62
7
370
-1
  6
CONTINUOUS
 10
50.9590969999999999
 20
71.8929080000000056
 30
0.0
 11
56.9590969999999999
 21
71.8929080000000056
 31
0.0
  0
LINE
  5
131
100
AcDbEntity
100
AcDbLine
  8
FORT
 62
7
370
-1
  6
CONTINUOUS
 10
56.9590969999999999
 20
67.8929080000000056
 30
0.0
 11
91.9590969999999999
 21
67.8929080000000056
 31
0.0
  0
LINE
  5
132
100
AcDbEntity
100
AcDbLine
  8
FORT
 62
7
370
-1
  6
CONTINUOUS
 10
91.9590969999999999
 20
65.8929080000000056
 30
0.0
 11
98.9590969999999999
 21
65.8929080000000056
 31
0.0
  0
LINE
  5
133
100
AcDbEntity
100
AcDbLine
  8
FIN
 62
5
370
-1
  6
CONTINUOUS
 10
99.4590969999999999
 20
40.0
 30
0.0
 11
95.0876399999999933
 21
68.0740519999999947
 31
0.0
  0
CIRCLE
  5
134
100
AcDbEntity
100
AcDbCircle
  8
FORT
 62
7
370
-1
  6
CONTINUOUS
 10
95.0876399999999933
 20
68.0740519999999947
 30
0.0
 40
0.25
  0
MTEXT
  5
135
100
AcDbEntity
100
AcDbMText
  8
TEXTE
 62
7
370
-1
  6
CONTINUOUS
 10
83.4590969999999999
 20
42.0
 30
0.0
 40
5.0
 41
100.0
 71
7
 72
2
  1
9
  7
ISO9
 50
0.0
 73
0
 44
1.0
  0
MTEXT
  5
136
100
AcDbEntity
100
AcDbMText
  8
TEXTE
 62
7
370
-1
  6
CONTINUOUS
 10
103.4590969999999999
 20
42.0
 30
0.0
 40
5.0
 41
100.0
 71
7
 72
2
  1
6
  7
ISO9
 50
0.0
 73
0
 44
1.0
  0
LINE
  5
137
100
AcDbEntity
100
AcDbLine
  8
FORT
 62
7
370
-1
  6
CONTINUOUS
 10
50.9590969999999999
 20
91.8929080000000056
 30
0.0
 11
56.9590969999999999
 21
91.8929080000000056
 31
0.0
  0
LINE
  5
138
100
AcDbEntity
100
AcDbLine
  8
FORT
 62
7
370
-1
  6
CONTINUOUS
 10
48.4590969999999999
 20
113.8929080000000056
 30
0.0
 11
56.9590969999999999
 21
113.8929080000000056
 31
0.0
  0
LINE
  5
139
100
AcDbEntity
100
AcDbLine
  8
FIN
 62
5
370
-1
  6
CONTINUOUS
 10
46.9590969999999999
 20
103.3929080000000056
 30
0.0
 11
56.9590969999999999
 21
103.3929080000000056
 31
0.0
  0
LINE
  5
13A
100
AcDbEntity
100
AcDbLine
  8
FIN
 62
5
370
-1
  6
CONTINUOUS
 10
46.9590969999999999
 20
112.3929080000000056
 30
0.0
 11
56.9590969999999999
 21
112.3929080000000056
 31
0.0
  0
LINE
  5
13B
100
AcDbEntity
100
AcDbLine
  8
FORT
 62
7
370
-1
  6
CONTINUOUS
 10
48.4590969999999999
 20
101.8929080000000056
 30
0.0
 11
56.9590969999999999
 21
101.8929080000000056
 31
0.0
  0
LINE
  5
13C
100
AcDbEntity
100
AcDbLine
  8
FORT
 62
7
370
-1
  6
CONTINUOUS
 10
48.4590969999999999
 20
101.8929080000000056
 30
0.0
 11
48.4590969999999999
 21
113.8929080000000056
 31
0.0
  0
LINE
  5
13D
100
AcDbEntity
100
AcDbLine
  8
FORT
 62
7
370
-1
  6
CONTINUOUS
 10
46.9590969999999999
 20
112.3929080000000056
 30
0.0
 11
46.9590969999999999
 21
103.3929080000000056
 31
0.0
  0
LINE
  5
13E
100
AcDbEntity
100
AcDbLine
  8
FORT
 62
7
370
-1
  6
CONTINUOUS
 10
48.9590969999999999
 20
73.8929080000000056
 30
0.0
 11
48.9590969999999999
 21
89.8929080000000056
 31
0.0
  0
LINE
  5
13F
100
AcDbEntity
100
AcDbLine
  8
FORT
 62
7
370
-1
  6
CONTINUOUS
 10
46.9590969999999999
 20
103.3929080000000056
 30
0.0
 11
48.4590969999999999
 21
101.8929080000000056
 31
0.0
  0
LINE
  5
140
100
AcDbEntity
100
AcDbLine
  8
FORT
 62
7
370
-1
  6
CONTINUOUS
 10
48.9590969999999999
 20
89.8929080000000056
 30
0.0
 11
50.9590969999999999
 21
91.8929080000000056
 31
0.0
  0
LINE
  5
141
100
AcDbEntity
100
AcDbLine
  8
FORT
 62
7
370
-1
  6
CONTINUOUS
 10
50.9590969999999999
 20
123.8929080000000056
 30
0.0
 11
50.9590969999999999
 21
143.8929080000000056
 31
0.0
  0
LINE
  5
142
100
AcDbEntity
100
AcDbLine
  8
FORT
 62
7
370
-1
  6
CONTINUOUS
 10
48.9590969999999999
 20
141.8929080000000056
 30
0.0
 11
48.9590969999999999
 21
125.8929080000000056
 31
0.0
  0
LINE
  5
143
100
AcDbEntity
100
AcDbLine
  8
FORT
 62
7
370
-1
  6
CONTINUOUS
 10
48.9590969999999999
 20
141.8929080000000056
 30
0.0
 11
50.9590969999999999
 21
143.8929080000000056
 31
0.0
  0
LINE
  5
144
100
AcDbEntity
100
AcDbLine
  8
FORT
 62
7
370
-1
  6
CONTINUOUS
 10
48.9590969999999999
 20
125.8929080000000056
 30
0.0
 11
50.9590969999999999
 21
123.8929080000000056
 31
0.0
  0
LINE
  5
145
100
AcDbEntity
100
AcDbLine
  8
FORT
 62
7
370
-1
  6
CONTINUOUS
 10
48.4590969999999999
 20
113.8929080000000056
 30
0.0
 11
46.9590969999999999
 21
112.3929080000000056
 31
0.0
  0
LINE
  5
146
100
AcDbEntity
100
AcDbLine
  8
FORT
 62
7
370
-1
  6
CONTINUOUS
 10
100.9628409999999974
 20
115.5374999999999943
 30
0.0
 11
103.719341
 21
100.5374999999999943
 31
0.0
  0
LINE
  5
147
100
AcDbEntity
100
AcDbLine
  8
FORT
 62
7
370
-1
  6
CONTINUOUS
 10
91.9590969999999999
 20
82.8929080000000056
 30
0.0
 11
91.9590969999999999
 21
117.7536630000000031
 31
0.0
  0
LINE
  5
148
100
AcDbEntity
100
AcDbLine
  8
FORT
 62
7
370
-1
  6
CONTINUOUS
 10
99.9590969999999999
 20
101.8929080000000056
 30
0.0
 11
99.9590969999999999
 21
112.1470709999999968
 31
0.0
  0
LINE
  5
149
100
AcDbEntity
100
AcDbLine
  8
FORT
 62
7
370
-1
  6
CONTINUOUS
 10
99.3891919999999942
 20
115.2483160000000026
 30
0.0
 11
102.1456919999999968
 21
100.2483160000000026
 31
0.0
  0
LINE
  5
14A
100
AcDbEntity
100
AcDbLine
  8
FORT
 62
7
370
-1
  6
CONTINUOUS
 10
109.2323410000000052
 20
100.5374999999999943
 30
0.0
 11
106.4758410000000026
 21
115.5374999999999943
 31
0.0
  0
LINE
  5
14B
100
AcDbEntity
100
AcDbLine
  8
FORT
 62
7
370
-1
  6
CONTINUOUS
 10
104.9021919999999994
 20
115.2483160000000026
 30
0.0
 11
107.6586920000000021
 21
100.2483160000000026
 31
0.0
  0
ARC
  5
14C
100
AcDbEntity
  8
FORT
 62
7
370
-1
  6
CONTINUOUS
100
AcDbCircle
 10
102.9325170000000043
 20
100.3929080000000056
 30
0.0
 40
0.8
100
AcDbArc
 50
190.4128770000000088
 51
349.5871230000000196
  0
LINE
  5
14D
100
AcDbEntity
100
AcDbLine
  8
FORT
 62
7
370
-1
  6
CONTINUOUS
 10
93.9590969999999999
 20
85.8929080000000056
 30
0.0
 11
93.9590969999999999
 21
73.8929080000000056
 31
0.0
  0
LINE
  5
14E
100
AcDbEntity
100
AcDbLine
  8
FORT
 62
7
370
-1
  6
CONTINUOUS
 10
93.9590969999999999
 20
73.8929080000000056
 30
0.0
 11
98.9590969999999999
 21
73.8929080000000056
 31
0.0
  0
LINE
  5
14F
100
AcDbEntity
100
AcDbLine
  8
FORT
 62
7
370
-1
  6
CONTINUOUS
 10
99.9590969999999999
 20
103.3929080000000056
 30
0.0
 11
101.567820999999995
 21
103.3929080000000056
 31
0.0
  0
LINE
  5
150
100
AcDbEntity
100
AcDbLine
  8
FIN
 62
5
370
-1
  6
CONTINUOUS
 10
98.9590969999999999
 20
103.3929080000000056
 30
0.0
 11
99.9590969999999999
 21
103.3929080000000056
 31
0.0
  0
LINE
  5
151
100
AcDbEntity
100
AcDbLine
  8
FORT
 62
7
370
-1
  6
CONTINUOUS
 10
81.8496389999999963
 20
82.8929080000000056
 30
0.0
 11
81.8496389999999963
 21
76.8929080000000056
 31
0.0
  0
LINE
  5
152
100
AcDbEntity
100
AcDbLine
  8
FORT
 62
7
370
-1
  6
CONTINUOUS
 10
84.9590969999999999
 20
82.8929080000000056
 30
0.0
 11
84.9590969999999999
 21
76.8929080000000056
 31
0.0
  0
LINE
  5
153
100
AcDbEntity
100
AcDbLine
  8
FORT
 62
7
370
-1
  6
CONTINUOUS
 10
95.4590969999999999
 20
80.6929080000000027
 30
0.0
 11
95.4590969999999999
 21
79.0929079999999942
 31
0.0
  0
LINE
  5
154
100
AcDbEntity
100
AcDbLine
  8
FORT
 62
7
370
-1
  6
CONTINUOUS
 10
79.927195999999995
 20
77.8929080000000056
 30
0.0
 11
79.927195999999995
 21
81.8929080000000056
 31
0.0
  0
LINE
  5
155
100
AcDbEntity
100
AcDbLine
  8
FORT
 62
7
370
-1
  6
CONTINUOUS
 10
78.7724960000000038
 20
79.8929080000000056
 30
0.0
 11
79.927195999999995
 21
77.8929080000000056
 31
0.0
  0
LINE
  5
156
100
AcDbEntity
100
AcDbLine
  8
FORT
 62
7
370
-1
  6
CONTINUOUS
 10
83.9590969999999999
 20
81.8929080000000056
 30
0.0
 11
83.9590969999999999
 21
77.8929080000000056
 31
0.0
  0
LWPOLYLINE
  5
157
  8
HACHURE
 62
5
370
-1
  6
CONTINUOUS
100
AcDbEntity
100
AcDbPolyline
 90
7
 70
1
 10
98.9590969999999999
 20
85.8929080000000056
 10
93.9590969999999999
 20
85.8929080000000056
 10
93.9590969999999999
 20
82.8929080000000056
 10
91.9590969999999999
 20
82.8929080000000056
 10
91.9590969999999999
 20
88.9836059999999947
 10
94.9806820000000016
 20
88.8446830000000034
 10
98.9590969999999999
 20
89.576777000000007
  0
INSERT
  5
158
100
AcDbEntity
100
AcDbBlockReference
  8
HACHURE
 62
256
370
-1
  6
ByLayer
  2
DESENS-G3
 10
0.0
 20
0.0
 30
0.0
  0
LINE
  5
159
100
AcDbEntity
100
AcDbLine
  8
FORT
 62
7
370
-1
  6
CONTINUOUS
 10
98.9590969999999999
 20
101.8929080000000056
 30
0.0
 11
99.9590969999999999
 21
101.8929080000000056
 31
0.0
  0
ARC
  5
15A
100
AcDbEntity
  8
FORT
 62
7
370
-1
  6
CONTINUOUS
100
AcDbCircle
 10
88.572771000000003
 20
79.8929080000000056
 30
0.0
 40
9.7637319999999992
100
AcDbArc
 50
4.6998490000000004
 51
30.803763
  0
LINE
  5
15B
100
AcDbEntity
100
AcDbLine
  8
FORT
 62
7
370
-1
  6
CONTINUOUS
 10
96.9590969999999999
 20
84.8929080000000056
 30
0.0
 11
96.9590969999999999
 21
80.6929080000000027
 31
0.0
  0
LINE
  5
15C
100
AcDbEntity
100
AcDbLine
  8
FORT
 62
7
370
-1
  6
CONTINUOUS
 10
95.4590969999999999
 20
80.6929080000000027
 30
0.0
 11
98.3036740000000009
 21
80.6929080000000027
 31
0.0
  0
LINE
  5
15D
100
AcDbEntity
100
AcDbLine
  8
FORT
 62
7
370
-1
  6
CONTINUOUS
 10
93.9590969999999999
 20
84.8929080000000056
 30
0.0
 11
96.9590969999999999
 21
84.8929080000000056
 31
0.0
  0
LINE
  5
15E
100
AcDbEntity
100
AcDbLine
  8
FORT
 62
7
370
-1
  6
CONTINUOUS
 10
93.9590969999999999
 20
85.8929080000000056
 30
0.0
 11
98.9590969999999999
 21
85.8929080000000056
 31
0.0
  0
LINE
  5
15F
100
AcDbEntity
100
AcDbLine
  8
FORT
 62
7
370
-1
  6
CONTINUOUS
 10
78.7724960000000038
 20
79.8929080000000056
 30
0.0
 11
79.927195999999995
 21
81.8929080000000056
 31
0.0
  0
LINE
  5
160
100
AcDbEntity
100
AcDbLine
  8
FORT
 62
7
370
-1
  6
CONTINUOUS
 10
79.927195999999995
 20
81.8929080000000056
 30
0.0
 11
83.9590969999999999
 21
81.8929080000000056
 31
0.0
  0
LINE
  5
161
100
AcDbEntity
100
AcDbLine
  8
FIN
 62
5
370
-1
  6
CONTINUOUS
 10
81.8496389999999963
 20
82.8929080000000056
 30
0.0
 11
84.9590969999999999
 21
82.8929080000000056
 31
0.0
  0
LINE
  5
162
100
AcDbEntity
100
AcDbLine
  8
FORT
 62
7
370
-1
  6
CONTINUOUS
 10
84.9590969999999999
 20
82.8929080000000056
 30
0.0
 11
83.9590969999999999
 21
81.8929080000000056
 31
0.0
  0
LINE
  5
163
100
AcDbEntity
100
AcDbLine
  8
FIN
 62
5
370
-1
  6
CONTINUOUS
 10
83.9590969999999999
 20
81.8929080000000056
 30
0.0
 11
93.9590969999999999
 21
81.8929080000000056
 31
0.0
  0
LINE
  5
164
100
AcDbEntity
100
AcDbLine
  8
FORT
 62
7
370
-1
  6
CONTINUOUS
 10
84.9590969999999999
 20
82.8929080000000056
 30
0.0
 11
93.9590969999999999
 21
82.8929080000000056
 31
0.0
  0
ARC
  5
165
100
AcDbEntity
  8
FORT
 62
7
370
-1
  6
CONTINUOUS
100
AcDbCircle
 10
88.572771000000003
 20
79.8929080000000056
 30
0.0
 40
9.7637319999999992
100
AcDbArc
 50
329.1962369999999964
 51
355.300151000000028
  0
LINE
  5
166
100
AcDbEntity
100
AcDbLine
  8
FORT
 62
7
370
-1
  6
CONTINUOUS
 10
96.9590969999999999
 20
79.0929079999999942
 30
0.0
 11
96.9590969999999999
 21
74.8929080000000056
 31
0.0
  0
LINE
  5
167
100
AcDbEntity
100
AcDbLine
  8
FORT
 62
7
370
-1
  6
CONTINUOUS
 10
84.9590969999999999
 20
76.8929080000000056
 30
0.0
 11
83.9590969999999999
 21
77.8929080000000056
 31
0.0
  0
LINE
  5
168
100
AcDbEntity
100
AcDbLine
  8
FORT
 62
7
370
-1
  6
CONTINUOUS
 10
95.4590969999999999
 20
79.0929079999999942
 30
0.0
 11
98.3036740000000009
 21
79.0929079999999942
 31
0.0
  0
LINE
  5
169
100
AcDbEntity
100
AcDbLine
  8
FORT
 62
7
370
-1
  6
CONTINUOUS
 10
79.927195999999995
 20
77.8929080000000056
 30
0.0
 11
83.9590969999999999
 21
77.8929080000000056
 31
0.0
  0
LINE
  5
16A
100
AcDbEntity
100
AcDbLine
  8
FIN
 62
5
370
-1
  6
CONTINUOUS
 10
83.9590969999999999
 20
77.8929080000000056
 30
0.0
 11
93.9590969999999999
 21
77.8929080000000056
 31
0.0
  0
LINE
  5
16B
100
AcDbEntity
100
AcDbLine
  8
FORT
 62
7
370
-1
  6
CONTINUOUS
 10
93.9590969999999999
 20
74.8929080000000056
 30
0.0
 11
96.9590969999999999
 21
74.8929080000000056
 31
0.0
  0
LINE
  5
16C
100
AcDbEntity
100
AcDbLine
  8
FIN
 62
5
370
-1
  6
CONTINUOUS
 10
81.8496389999999963
 20
76.8929080000000056
 30
0.0
 11
84.9590969999999999
 21
76.8929080000000056
 31
0.0
  0
LINE
  5
16D
100
AcDbEntity
100
AcDbLine
  8
FORT
 62
7
370
-1
  6
CONTINUOUS
 10
84.9590969999999999
 20
76.8929080000000056
 30
0.0
 11
93.9590969999999999
 21
76.8929080000000056
 31
0.0
  0
CIRCLE
  5
16E
100
AcDbEntity
100
AcDbCircle
  8
FORT
 62
7
370
-1
  6
CONTINUOUS
 10
89.4590969999999999
 20
78.8634540000000044
 30
0.0
 40
0.25
  0
LINE
  5
16F
100
AcDbEntity
100
AcDbLine
  8
FORT
 62
7
370
-1
  6
CONTINUOUS
 10
109.2323410000000052
 20
100.2483160000000026
 30
0.0
 11
109.810212000000007
 21
103.3929080000000056
 31
0.0
  0
LINE
  5
170
100
AcDbEntity
100
AcDbLine
  8
FORT
 62
7
370
-1
  6
CONTINUOUS
 10
103.719341
 20
100.2483160000000026
 30
0.0
 11
104.2972120000000018
 21
103.3929080000000056
 31
0.0
  0
LINE
  5
171
100
AcDbEntity
100
AcDbLine
  8
FORT
 62
7
370
-1
  6
CONTINUOUS
 10
111.9590969999999999
 20
102.8929080000000056
 30
0.0
 11
111.9590969999999999
 21
106.8468720000000047
 31
0.0
  0
LINE
  5
172
100
AcDbEntity
100
AcDbLine
  8
FORT
 62
7
370
-1
  6
CONTINUOUS
 10
108.7076119999999975
 20
103.3929080000000056
 30
0.0
 11
111.9590969999999999
 21
103.3929080000000056
 31
0.0
  0
LINE
  5
173
100
AcDbEntity
100
AcDbLine
  8
FORT
 62
7
370
-1
  6
CONTINUOUS
 10
103.1946120000000064
 20
103.3929080000000056
 30
0.0
 11
107.0808210000000003
 21
103.3929080000000056
 31
0.0
  0
ARC
  5
174
100
AcDbEntity
  8
FORT
 62
7
370
-1
  6
CONTINUOUS
100
AcDbCircle
 10
108.4455169999999953
 20
100.3929080000000056
 30
0.0
 40
0.8
100
AcDbArc
 50
190.4128770000000088
 51
349.5871230000000196
  0
LINE
  5
175
100
AcDbEntity
100
AcDbLine
  8
FORT
 62
7
370
-1
  6
CONTINUOUS
 10
101.5407119999999992
 20
112.3929080000000056
 30
0.0
 11
105.426920999999993
 21
112.3929080000000056
 31
0.0
  0
LWPOLYLINE
  5
176
  8
HACHURE
 62
5
370
-1
  6
CONTINUOUS
100
AcDbEntity
100
AcDbPolyline
 90
6
 70
1
 10
93.9590969999999999
 20
143.8929080000000056
 10
58.9590969999999999
 20
143.8929080000000056
 10
56.9590969999999999
 20
145.8929080000000056
 10
56.9590969999999999
 20
147.8929080000000056
 10
95.9590969999999999
 20
147.8929080000000056
 10
95.9590969999999999
 20
145.8929080000000056
  0
INSERT
  5
177
100
AcDbEntity
100
AcDbBlockReference
  8
HACHURE
 62
256
370
-1
  6
ByLayer
  2
DESENS-G4
 10
0.0
 20
0.0
 30
0.0
  0
LINE
  5
178
100
AcDbEntity
100
AcDbLine
  8
FORT
 62
7
370
-1
  6
CONTINUOUS
 10
95.9590969999999999
 20
143.8929080000000056
 30
0.0
 11
95.9590969999999999
 21
147.8929080000000056
 31
0.0
  0
LINE
  5
179
100
AcDbEntity
100
AcDbLine
  8
FORT
 62
7
370
-1
  6
CONTINUOUS
 10
56.9590969999999999
 20
143.8929080000000056
 30
0.0
 11
56.9590969999999999
 21
147.8929080000000056
 31
0.0
  0
LINE
  5
17A
100
AcDbEntity
100
AcDbLine
  8
FORT
 62
7
370
-1
  6
CONTINUOUS
 10
56.9590969999999999
 20
147.8929080000000056
 30
0.0
 11
95.9590969999999999
 21
147.8929080000000056
 31
0.0
  0
LINE
  5
17B
100
AcDbEntity
100
AcDbLine
  8
FORT
 62
7
370
-1
  6
CONTINUOUS
 10
58.9590969999999999
 20
143.8929080000000056
 30
0.0
 11
56.9590969999999999
 21
145.8929080000000056
 31
0.0
  0
LINE
  5
17C
100
AcDbEntity
100
AcDbLine
  8
FORT
 62
7
370
-1
  6
CONTINUOUS
 10
93.9590969999999999
 20
143.8929080000000056
 30
0.0
 11
95.9590969999999999
 21
145.8929080000000056
 31
0.0
  0
LWPOLYLINE
  5
17D
  8
HACHURE
 62
5
370
-1
  6
CONTINUOUS
100
AcDbEntity
100
AcDbPolyline
 90
12
 70
1
 10
95.9590969999999999
 20
118.0573859999999939
 10
91.9590969999999999
 20
117.7536630000000031
 10
86.5919150000000002
 20
116.3167119999999954
 10
80.9008050000000054
 20
116.5356009999999998
 10
73.9590969999999999
 20
115.2632320000000021
 10
67.7674740000000071
 20
115.7694900000000047
 10
62.6235860000000031
 20
115.7694900000000047
 10
56.9590969999999999
 20
117.3017119999999949
 10
56.9590969999999999
 20
121.8929080000000056
 10
58.9590969999999999
 20
123.8929080000000056
 10
93.9590969999999999
 20
123.8929080000000056
 10
95.9590969999999999
 20
121.8929080000000056
  0
INSERT
  5
17E
100
AcDbEntity
100
AcDbBlockReference
  8
HACHURE
 62
256
370
-1
  6
ByLayer
  2
DESENS-G5
 10
0.0
 20
0.0
 30
0.0
  0
LWPOLYLINE
  5
17F
  8
FIN
 62
5
370
-1
  6
CONTINUOUS
100
AcDbEntity
100
AcDbPolyline
 90
9
 70
0
 10
98.9590969999999999
 20
118.9078090000000003
 10
95.9590969999999999
 20
118.0573859999999939
 10
91.9590969999999999
 20
117.7536630000000031
 10
86.5919150000000002
 20
116.3167119999999954
 10
80.9008050000000054
 20
116.5356009999999998
 10
73.9590969999999999
 20
115.2632320000000021
 10
67.7674740000000071
 20
115.7694900000000047
 10
62.6235860000000031
 20
115.7694900000000047
 10
56.9590969999999999
 20
117.3017119999999949
  0
LINE
  5
180
100
AcDbEntity
100
AcDbLine
  8
FORT
 62
7
370
-1
  6
CONTINUOUS
 10
56.9590969999999999
 20
121.8929080000000056
 30
0.0
 11
58.9590969999999999
 21
123.8929080000000056
 31
0.0
  0
LINE
  5
181
100
AcDbEntity
100
AcDbLine
  8
FORT
 62
7
370
-1
  6
CONTINUOUS
 10
95.9590969999999999
 20
118.0573859999999939
 30
0.0
 11
95.9590969999999999
 21
123.8929080000000056
 31
0.0
  0
LINE
  5
182
100
AcDbEntity
100
AcDbLine
  8
FORT
 62
7
370
-1
  6
CONTINUOUS
 10
93.9590969999999999
 20
123.8929080000000056
 30
0.0
 11
95.9590969999999999
 21
121.8929080000000056
 31
0.0
  0
ARC
  5
183
100
AcDbEntity
  8
FORT
 62
7
370
-1
  6
CONTINUOUS
100
AcDbCircle
 10
100.1760170000000016
 20
115.3929080000000056
 30
0.0
 40
0.8
100
AcDbArc
 50
10.4128769999999999
 51
169.5871229999999912
  0
LINE
  5
184
100
AcDbEntity
100
AcDbLine
  8
FORT
 62
7
370
-1
  6
CONTINUOUS
 10
98.9590969999999999
 20
113.8929080000000056
 30
0.0
 11
99.6382710000000031
 21
113.8929080000000056
 31
0.0
  0
LINE
  5
185
100
AcDbEntity
100
AcDbLine
  8
FORT
 62
7
370
-1
  6
CONTINUOUS
 10
99.0869710000000055
 20
113.8929080000000056
 30
0.0
 11
99.3891919999999942
 21
115.5374999999999943
 31
0.0
  0
LINE
  5
186
100
AcDbEntity
100
AcDbLine
  8
FIN
 62
5
370
-1
  6
CONTINUOUS
 10
98.9590969999999999
 20
112.3929080000000056
 30
0.0
 11
99.913921000000002
 21
112.3929080000000056
 31
0.0
  0
ARC
  5
187
100
AcDbEntity
  8
FORT
 62
7
370
-1
  6
CONTINUOUS
100
AcDbCircle
 10
111.2020169999999979
 20
115.3929080000000056
 30
0.0
 40
0.8
100
AcDbArc
 50
10.4128769999999999
 51
169.5871229999999912
  0
ARC
  5
188
100
AcDbEntity
  8
FORT
 62
7
370
-1
  6
CONTINUOUS
100
AcDbCircle
 10
105.6890170000000069
 20
115.3929080000000056
 30
0.0
 40
0.8
100
AcDbArc
 50
10.4128769999999999
 51
169.5871229999999912
  0
LINE
  5
189
100
AcDbEntity
100
AcDbLine
  8
FORT
 62
7
370
-1
  6
CONTINUOUS
 10
107.0537120000000044
 20
112.3929080000000056
 30
0.0
 11
110.9399209999999982
 21
112.3929080000000056
 31
0.0
  0
LINE
  5
18A
100
AcDbEntity
100
AcDbLine
  8
FORT
 62
7
370
-1
  6
CONTINUOUS
 10
109.8373210000000029
 20
112.3929080000000056
 30
0.0
 11
110.4151920000000047
 21
115.5374999999999943
 31
0.0
  0
LINE
  5
18B
100
AcDbEntity
100
AcDbLine
  8
FORT
 62
7
370
-1
  6
CONTINUOUS
 10
104.3243209999999976
 20
112.3929080000000056
 30
0.0
 11
104.9021919999999994
 21
115.5374999999999943
 31
0.0
  0
CIRCLE
  5
18C
100
AcDbEntity
100
AcDbCircle
  8
FORT
 62
7
370
-1
  6
CONTINUOUS
 10
103.344151999999994
 20
139.5203809999999862
 30
0.0
 40
0.25
  0
LINE
  5
18D
100
AcDbEntity
100
AcDbLine
  8
FORT
 62
7
370
-1
  6
CONTINUOUS
 10
111.5487240000000071
 20
119.0066089999999974
 30
0.0
 11
111.1764960000000002
 21
116.1925009999999929
 31
0.0
  0
LINE
  5
18E
100
AcDbEntity
100
AcDbLine
  8
FORT
 62
7
370
-1
  6
CONTINUOUS
 10
110.6159559999999971
 20
118.9752249999999947
 30
0.0
 11
111.1764960000000002
 21
116.1925009999999929
 31
0.0
  0
LINE
  5
18F
100
AcDbEntity
100
AcDbLine
  8
FORT
 62
7
370
-1
  6
CONTINUOUS
 10
148.9590970000000141
 20
147.8929080000000056
 30
0.0
 11
148.9590970000000141
 21
67.8929080000000056
 31
0.0
  0
LINE
  5
190
100
AcDbEntity
100
AcDbLine
  8
FORT
 62
7
370
-1
  6
CONTINUOUS
 10
131.9590970000000141
 20
118.0428150000000045
 30
0.0
 11
131.9590970000000141
 21
67.8929080000000056
 31
0.0
  0
LINE
  5
191
100
AcDbEntity
100
AcDbLine
  8
FORT
 62
7
370
-1
  6
CONTINUOUS
 10
122.9590969999999999
 20
117.4717710000000039
 30
0.0
 11
122.9590969999999999
 21
65.8929080000000056
 31
0.0
  0
LINE
  5
192
100
AcDbEntity
100
AcDbLine
  8
FORT
 62
7
370
-1
  6
CONTINUOUS
 10
115.9590969999999999
 20
117.4717710000000039
 30
0.0
 11
115.9590969999999999
 21
65.8929080000000056
 31
0.0
  0
MTEXT
  5
193
100
AcDbEntity
100
AcDbMText
  8
TEXTE
 62
7
370
-1
  6
CONTINUOUS
 10
226.0
 20
70.0
 30
0.0
 40
5.0
 41
100.0
 71
7
 72
2
  1
3
  7
ISO9
 50
0.0
 73
0
 44
1.0
  0
LINE
  5
194
100
AcDbEntity
100
AcDbLine
  8
FORT
 62
7
370
-1
  6
CONTINUOUS
 10
122.9590969999999999
 20
67.8929080000000056
 30
0.0
 11
148.9590970000000141
 21
67.8929080000000056
 31
0.0
  0
LINE
  5
195
100
AcDbEntity
100
AcDbLine
  8
FORT
 62
7
370
-1
  6
CONTINUOUS
 10
115.9590969999999999
 20
65.8929080000000056
 30
0.0
 11
122.9590969999999999
 21
65.8929080000000056
 31
0.0
  0
LINE
  5
196
100
AcDbEntity
100
AcDbLine
  8
FIN
 62
5
370
-1
  6
CONTINUOUS
 10
119.4590969999999999
 20
40.0
 30
0.0
 11
119.4590969999999999
 21
70.9802990000000023
 31
0.0
  0
CIRCLE
  5
197
100
AcDbEntity
100
AcDbCircle
  8
FORT
 62
7
370
-1
  6
CONTINUOUS
 10
119.4590969999999999
 20
70.9802990000000023
 30
0.0
 40
0.25
  0
MTEXT
  5
198
100
AcDbEntity
100
AcDbMText
  8
TEXTE
 62
7
370
-1
  6
CONTINUOUS
 10
123.4590969999999999
 20
42.0
 30
0.0
 40
5.0
 41
100.0
 71
7
 72
2
  1
5
  7
ISO9
 50
0.0
 73
0
 44
1.0
  0
MTEXT
  5
199
100
AcDbEntity
100
AcDbMText
  8
TEXTE
 62
7
370
-1
  6
CONTINUOUS
 10
226.0
 20
52.0
 30
0.0
 40
5.0
 41
100.0
 71
7
 72
2
  1
1
  7
ISO9
 50
0.0
 73
0
 44
1.0
  0
MTEXT
  5
19A
100
AcDbEntity
100
AcDbMText
  8
TEXTE
 62
7
370
-1
  6
CONTINUOUS
 10
226.0
 20
61.0
 30
0.0
 40
5.0
 41
100.0
 71
7
 72
2
  1
2
  7
ISO9
 50
0.0
 73
0
 44
1.0
  0
LINE
  5
19B
100
AcDbEntity
100
AcDbLine
  8
FORT
 62
7
370
-1
  6
CONTINUOUS
 10
151.9590970000000141
 20
95.8929080000000056
 30
0.0
 11
194.9590970000000141
 21
95.8929080000000056
 31
0.0
  0
LINE
  5
19C
100
AcDbEntity
100
AcDbLine
  8
FORT
 62
7
370
-1
  6
CONTINUOUS
 10
151.9590970000000141
 20
119.8929080000000056
 30
0.0
 11
194.9590970000000141
 21
119.8929080000000056
 31
0.0
  0
LINE
  5
19D
100
AcDbEntity
100
AcDbLine
  8
FORT
 62
7
370
-1
  6
CONTINUOUS
 10
151.9590970000000141
 20
95.8929080000000056
 30
0.0
 11
151.9590970000000141
 21
119.8929080000000056
 31
0.0
  0
LINE
  5
19E
100
AcDbEntity
100
AcDbLine
  8
FORT
 62
7
370
-1
  6
CONTINUOUS
 10
150.4590970000000141
 20
95.8929080000000056
 30
0.0
 11
150.4590970000000141
 21
119.8929080000000056
 31
0.0
  0
LINE
  5
19F
100
AcDbEntity
100
AcDbLine
  8
FORT
 62
7
370
-1
  6
CONTINUOUS
 10
114.7453409999999963
 20
100.2483160000000026
 30
0.0
 11
115.2313290000000023
 21
102.8929080000000056
 31
0.0
  0
LINE
  5
1A0
100
AcDbEntity
100
AcDbLine
  8
FORT
 62
7
370
-1
  6
CONTINUOUS
 10
114.3124959999999959
 20
102.8929080000000056
 30
0.0
 11
115.9590969999999999
 21
102.8929080000000056
 31
0.0
  0
ARC
  5
1A1
100
AcDbEntity
  8
FORT
 62
7
370
-1
  6
CONTINUOUS
100
AcDbCircle
 10
113.9585170000000005
 20
100.3929080000000056
 30
0.0
 40
0.8
100
AcDbArc
 50
190.4128770000000088
 51
349.5871230000000196
  0
LINE
  5
1A2
100
AcDbEntity
100
AcDbLine
  8
FORT
 62
7
370
-1
  6
CONTINUOUS
 10
148.9590970000000141
 20
95.8929080000000056
 30
0.0
 11
150.4590970000000141
 21
95.8929080000000056
 31
0.0
  0
LINE
  5
1A3
100
AcDbEntity
100
AcDbLine
  8
FORT
 62
7
370
-1
  6
CONTINUOUS
 10
151.9590970000000141
 20
97.3929080000000056
 30
0.0
 11
150.4590970000000141
 21
95.8929080000000056
 31
0.0
  0
LINE
  5
1A4
100
AcDbEntity
100
AcDbLine
  8
FORT
 62
7
370
-1
  6
CONTINUOUS
 10
146.9590970000000141
 20
123.8929080000000056
 30
0.0
 11
146.9590970000000141
 21
143.8929080000000056
 31
0.0
  0
LWPOLYLINE
  5
1A5
  8
HACHURE
 62
5
370
-1
  6
CONTINUOUS
100
AcDbEntity
100
AcDbPolyline
 90
6
 70
1
 10
148.9590970000000141
 20
145.8929080000000056
 10
146.9590970000000141
 20
143.8929080000000056
 10
120.9590969999999999
 20
143.8929080000000056
 10
118.9590969999999999
 20
145.8929080000000056
 10
118.9590969999999999
 20
147.8929080000000056
 10
148.9590970000000141
 20
147.8929080000000056
  0
INSERT
  5
1A6
100
AcDbEntity
100
AcDbBlockReference
  8
HACHURE
 62
256
370
-1
  6
ByLayer
  2
DESENS-G6
 10
0.0
 20
0.0
 30
0.0
  0
LINE
  5
1A7
100
AcDbEntity
100
AcDbLine
  8
FORT
 62
7
370
-1
  6
CONTINUOUS
 10
118.9590969999999999
 20
147.8929080000000056
 30
0.0
 11
118.9590969999999999
 21
143.8929080000000056
 31
0.0
  0
LINE
  5
1A8
100
AcDbEntity
100
AcDbLine
  8
FORT
 62
7
370
-1
  6
CONTINUOUS
 10
118.9590969999999999
 20
147.8929080000000056
 30
0.0
 11
148.9590970000000141
 21
147.8929080000000056
 31
0.0
  0
LINE
  5
1A9
100
AcDbEntity
100
AcDbLine
  8
FORT
 62
7
370
-1
  6
CONTINUOUS
 10
120.9590969999999999
 20
143.8929080000000056
 30
0.0
 11
118.9590969999999999
 21
145.8929080000000056
 31
0.0
  0
LINE
  5
1AA
100
AcDbEntity
100
AcDbLine
  8
FORT
 62
7
370
-1
  6
CONTINUOUS
 10
146.9590970000000141
 20
143.8929080000000056
 30
0.0
 11
148.9590970000000141
 21
141.8929080000000056
 31
0.0
  0
LINE
  5
1AB
100
AcDbEntity
100
AcDbLine
  8
FORT
 62
7
370
-1
  6
CONTINUOUS
 10
146.9590970000000141
 20
143.8929080000000056
 30
0.0
 11
148.9590970000000141
 21
145.8929080000000056
 31
0.0
  0
LWPOLYLINE
  5
1AC
  8
HACHURE
 62
5
370
-1
  6
CONTINUOUS
100
AcDbEntity
100
AcDbPolyline
 90
11
 70
1
 10
148.9590970000000141
 20
120.8645719999999955
 10
143.7130300000000034
 20
119.6074399999999969
 10
137.9450129999999888
 20
119.5334909999999979
 10
131.9590970000000141
 20
118.0428150000000045
 10
127.7400599999999997
 20
118.2024100000000004
 10
122.9590969999999999
 20
117.4717710000000039
 10
118.9590969999999999
 20
117.8587870000000066
 10
118.9590969999999999
 20
121.8929080000000056
 10
120.9590969999999999
 20
123.8929080000000056
 10
146.9590970000000141
 20
123.8929080000000056
 10
148.9590970000000141
 20
121.8929080000000056
  0
INSERT
  5
1AD
100
AcDbEntity
100
AcDbBlockReference
  8
HACHURE
 62
256
370
-1
  6
ByLayer
  2
DESENS-G7
 10
0.0
 20
0.0
 30
0.0
  0
LWPOLYLINE
  5
1AE
  8
FIN
 62
5
370
-1
  6
CONTINUOUS
100
AcDbEntity
100
AcDbPolyline
 90
8
 70
0
 10
148.9590970000000141
 20
120.8645719999999955
 10
143.7130300000000034
 20
119.6074399999999969
 10
137.9450129999999888
 20
119.5334909999999979
 10
131.9590970000000141
 20
118.0428150000000045
 10
127.7400599999999997
 20
118.2024100000000004
 10
122.9590969999999999
 20
117.4717710000000039
 10
118.9590969999999999
 20
117.8587870000000066
 10
115.9590969999999999
 20
117.4717710000000039
  0
LINE
  5
1AF
100
AcDbEntity
100
AcDbLine
  8
FORT
 62
7
370
-1
  6
CONTINUOUS
 10
118.9590969999999999
 20
117.8587870000000066
 30
0.0
 11
118.9590969999999999
 21
123.8929080000000056
 31
0.0
  0
LINE
  5
1B0
100
AcDbEntity
100
AcDbLine
  8
FORT
 62
7
370
-1
  6
CONTINUOUS
 10
120.9590969999999999
 20
123.8929080000000056
 30
0.0
 11
118.9590969999999999
 21
121.8929080000000056
 31
0.0
  0
LINE
  5
1B1
100
AcDbEntity
100
AcDbLine
  8
FORT
 62
7
370
-1
  6
CONTINUOUS
 10
148.9590970000000141
 20
125.8929080000000056
 30
0.0
 11
146.9590970000000141
 21
123.8929080000000056
 31
0.0
  0
LINE
  5
1B2
100
AcDbEntity
100
AcDbLine
  8
FORT
 62
7
370
-1
  6
CONTINUOUS
 10
134.4590970000000141
 20
131.4434180000000083
 30
0.0
 11
134.4590970000000141
 21
132.4786939999999902
 31
0.0
  0
LINE
  5
1B3
100
AcDbEntity
100
AcDbLine
  8
FORT
 62
7
370
-1
  6
CONTINUOUS
 10
133.4590970000000141
 20
131.4434180000000083
 30
0.0
 11
133.4590970000000141
 21
132.4786939999999902
 31
0.0
  0
ARC
  5
1B4
100
AcDbEntity
  8
FORT
 62
7
370
-1
  6
CONTINUOUS
100
AcDbCircle
 10
133.9590970000000141
 20
133.8929080000000056
 30
0.0
 40
1.5
100
AcDbArc
 50
289.4712210000000141
 51
250.5287789999999575
  0
CIRCLE
  5
1B5
100
AcDbEntity
100
AcDbCircle
  8
FORT
 62
7
370
-1
  6
CONTINUOUS
 10
133.9590970000000141
 20
133.8929080000000056
 30
0.0
 40
2.5
  0
LINE
  5
1B6
100
AcDbEntity
100
AcDbLine
  8
FORT
 62
7
370
-1
  6
CONTINUOUS
 10
148.9590970000000141
 20
119.8929080000000056
 30
0.0
 11
150.4590970000000141
 21
119.8929080000000056
 31
0.0
  0
LINE
  5
1B7
100
AcDbEntity
100
AcDbLine
  8
FORT
 62
7
370
-1
  6
CONTINUOUS
 10
150.4590970000000141
 20
119.8929080000000056
 30
0.0
 11
151.9590970000000141
 21
118.3929080000000056
 31
0.0
  0
LINE
  5
1B8
100
AcDbEntity
100
AcDbLine
  8
FORT
 62
7
370
-1
  6
CONTINUOUS
 10
146.9590970000000141
 20
123.8929080000000056
 30
0.0
 11
148.9590970000000141
 21
121.8929080000000056
 31
0.0
  0
LINE
  5
1B9
100
AcDbEntity
100
AcDbLine
  8
FORT
 62
7
370
-1
  6
CONTINUOUS
 10
112.4748289999999997
 20
112.8929080000000056
 30
0.0
 11
115.9590969999999999
 21
112.8929080000000056
 31
0.0
  0
ARC
  5
1BA
100
AcDbEntity
  8
FORT
 62
7
370
-1
  6
CONTINUOUS
100
AcDbCircle
 10
116.7150170000000031
 20
115.3929080000000056
 30
0.0
 40
0.8
100
AcDbArc
 50
160.8912929999999903
 51
169.5871229999999912
  0
LINE
  5
1BB
100
AcDbEntity
100
AcDbLine
  8
FORT
 62
7
370
-1
  6
CONTINUOUS
 10
115.4422040000000038
 20
112.8929080000000056
 30
0.0
 11
115.9281919999999957
 21
115.5374999999999943
 31
0.0
  0
LINE
  5
1BC
100
AcDbEntity
100
AcDbLine
  8
FIN
 62
5
370
-1
  6
CONTINUOUS
 10
129.4590970000000141
 20
139.5142620000000022
 30
0.0
 11
132.396741999999989
 21
135.8445859999999925
 31
0.0
  0
LINE
  5
1BD
100
AcDbEntity
100
AcDbLine
  8
FORT
 62
7
370
-1
  6
CONTINUOUS
 10
130.9588050000000123
 20
138.2920530000000099
 30
0.0
 11
132.396741999999989
 21
135.8445859999999925
 31
0.0
  0
LINE
  5
1BE
100
AcDbEntity
100
AcDbLine
  8
FORT
 62
7
370
-1
  6
CONTINUOUS
 10
130.2427820000000054
 20
137.6934280000000115
 30
0.0
 11
132.396741999999989
 21
135.8445859999999925
 31
0.0
  0
LINE
  5
1BF
100
AcDbEntity
100
AcDbLine
  8
FORT
 62
7
370
-1
  6
CONTINUOUS
 10
194.9590970000000141
 20
95.8929080000000056
 30
0.0
 11
194.9590970000000141
 21
119.8929080000000056
 31
0.0
  0
LINE
  5
1C0
100
AcDbEntity
100
AcDbLine
  8
FORT
 62
7
370
-1
  6
CONTINUOUS
 10
196.9590970000000141
 20
97.8929080000000056
 30
0.0
 11
196.9590970000000141
 21
117.8929080000000056
 31
0.0
  0
MTEXT
  5
1C1
100
AcDbEntity
100
AcDbMText
  8
TEXTE
 62
7
370
-1
  6
CONTINUOUS
 10
226.0
 20
106.0
 30
0.0
 40
5.0
 41
100.0
 71
7
 72
2
  1
7
  7
ISO9
 50
0.0
 73
0
 44
1.0
  0
LINE
  5
1C2
100
AcDbEntity
100
AcDbLine
  8
FORT
 62
7
370
-1
  6
CONTINUOUS
 10
196.9590970000000141
 20
97.8929080000000056
 30
0.0
 11
194.9590970000000141
 21
95.8929080000000056
 31
0.0
  0
MTEXT
  5
1C3
100
AcDbEntity
100
AcDbMText
  8
TEXTE
 62
7
370
-1
  6
CONTINUOUS
 10
226.0
 20
79.0
 30
0.0
 40
5.0
 41
100.0
 71
7
 72
2
  1
4
  7
ISO9
 50
0.0
 73
0
 44
1.0
  0
MTEXT
  5
1C4
100
AcDbEntity
100
AcDbMText
  8
TEXTE
 62
7
370
-1
  6
CONTINUOUS
 10
226.0
 20
88.0
 30
0.0
 40
5.0
 41
100.0
 71
7
 72
2
  1
5
  7
ISO9
 50
0.0
 73
0
 44
1.0
  0
MTEXT
  5
1C5
100
AcDbEntity
100
AcDbMText
  8
TEXTE
 62
7
370
-1
  6
CONTINUOUS
 10
226.0
 20
97.0
 30
0.0
 40
5.0
 41
100.0
 71
7
 72
2
  1
6
  7
ISO9
 50
0.0
 73
0
 44
1.0
  0
LINE
  5
1C6
100
AcDbEntity
100
AcDbLine
  8
FORT
 62
7
370
-1
  6
CONTINUOUS
 10
194.9590970000000141
 20
119.8929080000000056
 30
0.0
 11
196.9590970000000141
 21
117.8929080000000056
 31
0.0
  0
MTEXT
  5
1C7
100
AcDbEntity
100
AcDbMText
  8
TEXTE
 62
7
370
-1
  6
CONTINUOUS
 10
226.0
 20
115.0
 30
0.0
 40
5.0
 41
100.0
 71
7
 72
2
  1
8
  7
ISO9
 50
0.0
 73
0
 44
1.0
  0
MTEXT
  5
1C8
100
AcDbEntity
100
AcDbMText
  8
TEXTE
 62
7
370
-1
  6
CONTINUOUS
 10
226.0
 20
124.0
 30
0.0
 40
5.0
 41
100.0
 71
7
 72
2
  1
9
  7
ISO9
 50
0.0
 73
0
 44
1.0
  0
MTEXT
  5
1C9
100
AcDbEntity
100
AcDbMText
  8
TEXTE
 62
7
370
-1
  6
CONTINUOUS
 10
224.0
 20
133.0
 30
0.0
 40
5.0
 41
100.0
 71
7
 72
2
  1
10
  7
ISO9
 50
0.0
 73
0
 44
1.0
  0
LINE
  5
1CA
100
AcDbEntity
100
AcDbLine
  8
FORT
 62
7
370
-1
  6
CONTINUOUS
 10
95.9590969999999999
 20
198.9479440000000068
 30
0.0
 11
118.9590969999999999
 21
198.9479440000000068
 31
0.0
  0
LINE
  5
1CB
100
AcDbEntity
100
AcDbLine
  8
FORT
 62
7
370
-1
  6
CONTINUOUS
 10
95.9590969999999999
 20
218.9479440000000068
 30
0.0
 11
118.9590969999999999
 21
218.9479440000000068
 31
0.0
  0
LINE
  5
1CC
100
AcDbEntity
100
AcDbLine
  8
FORT
 62
7
370
-1
  6
CONTINUOUS
 10
111.9590969999999999
 20
213.9479440000000068
 30
0.0
 11
151.9590970000000141
 21
213.9479440000000068
 31
0.0
  0
LINE
  5
1CD
100
AcDbEntity
100
AcDbLine
  8
FORT
 62
7
370
-1
  6
CONTINUOUS
 10
111.9590969999999999
 20
203.9479440000000068
 30
0.0
 11
151.9590970000000141
 21
203.9479440000000068
 31
0.0
  0
LWPOLYLINE
  5
1CE
  8
HACHURE
 62
5
370
-1
  6
CONTINUOUS
100
AcDbEntity
100
AcDbPolyline
 90
9
 70
1
 10
91.9590969999999999
 20
239.9479440000000068
 10
73.9590969999999999
 20
239.9479440000000068
 10
56.9590969999999999
 20
222.9479440000000068
 10
56.9590969999999999
 20
214.9479440000000068
 10
75.9590969999999999
 20
214.9479440000000068
 10
75.9590969999999999
 20
218.4479440000000068
 10
95.9590969999999999
 20
218.4479440000000068
 10
95.9590969999999999
 20
226.9479440000000068
 10
91.9590969999999999
 20
226.9479440000000068
  0
INSERT
  5
1CF
100
AcDbEntity
100
AcDbBlockReference
  8
HACHURE
 62
256
370
-1
  6
ByLayer
  2
DESENS-G8
 10
0.0
 20
0.0
 30
0.0
  0
LINE
  5
1D0
100
AcDbEntity
100
AcDbLine
  8
FORT
 62
7
370
-1
  6
CONTINUOUS
 10
95.9590969999999999
 20
214.9479440000000068
 30
0.0
 11
95.9590969999999999
 21
226.9479440000000068
 31
0.0
  0
LINE
  5
1D1
100
AcDbEntity
100
AcDbLine
  8
FORT
 62
7
370
-1
  6
CONTINUOUS
 10
56.9590969999999999
 20
222.9479440000000068
 30
0.0
 11
73.9590969999999999
 21
239.9479440000000068
 31
0.0
  0
LINE
  5
1D2
100
AcDbEntity
100
AcDbLine
  8
FIN
 62
5
370
-1
  6
CONTINUOUS
 10
46.9590969999999999
 20
213.4479440000000068
 30
0.0
 11
99.9590969999999999
 21
213.4479440000000068
 31
0.0
  0
LINE
  5
1D3
100
AcDbEntity
100
AcDbLine
  8
FIN
 62
5
370
-1
  6
CONTINUOUS
 10
46.9590969999999999
 20
204.4479440000000068
 30
0.0
 11
99.9590969999999999
 21
204.4479440000000068
 31
0.0
  0
LINE
  5
1D4
100
AcDbEntity
100
AcDbLine
  8
FORT
 62
7
370
-1
  6
CONTINUOUS
 10
48.4590969999999999
 20
202.9479440000000068
 30
0.0
 11
99.9590969999999999
 21
202.9479440000000068
 31
0.0
  0
LINE
  5
1D5
100
AcDbEntity
100
AcDbLine
  8
FORT
 62
7
370
-1
  6
CONTINUOUS
 10
48.4590969999999999
 20
214.9479440000000068
 30
0.0
 11
99.9590969999999999
 21
214.9479440000000068
 31
0.0
  0
LINE
  5
1D6
100
AcDbEntity
100
AcDbLine
  8
FORT
 62
7
370
-1
  6
CONTINUOUS
 10
50.9590969999999999
 20
198.9479440000000068
 30
0.0
 11
56.9590969999999999
 21
198.9479440000000068
 31
0.0
  0
LINE
  5
1D7
100
AcDbEntity
100
AcDbLine
  8
FORT
 62
7
370
-1
  6
CONTINUOUS
 10
50.9590969999999999
 20
218.9479440000000068
 30
0.0
 11
56.9590969999999999
 21
218.9479440000000068
 31
0.0
  0
LINE
  5
1D8
100
AcDbEntity
100
AcDbLine
  8
FORT
 62
7
370
-1
  6
CONTINUOUS
 10
48.4590969999999999
 20
202.9479440000000068
 30
0.0
 11
48.4590969999999999
 21
214.9479440000000068
 31
0.0
  0
LINE
  5
1D9
100
AcDbEntity
100
AcDbLine
  8
FORT
 62
7
370
-1
  6
CONTINUOUS
 10
46.9590969999999999
 20
213.4479440000000068
 30
0.0
 11
46.9590969999999999
 21
204.4479440000000068
 31
0.0
  0
LINE
  5
1DA
100
AcDbEntity
100
AcDbLine
  8
FORT
 62
7
370
-1
  6
CONTINUOUS
 10
48.9590969999999999
 20
200.9479440000000068
 30
0.0
 11
50.9590969999999999
 21
198.9479440000000068
 31
0.0
  0
LINE
  5
1DB
100
AcDbEntity
100
AcDbLine
  8
FORT
 62
7
370
-1
  6
CONTINUOUS
 10
46.9590969999999999
 20
204.4479440000000068
 30
0.0
 11
48.4590969999999999
 21
202.9479440000000068
 31
0.0
  0
LINE
  5
1DC
100
AcDbEntity
100
AcDbLine
  8
FORT
 62
7
370
-1
  6
CONTINUOUS
 10
50.9590969999999999
 20
198.9479440000000068
 30
0.0
 11
50.9590969999999999
 21
202.9479440000000068
 31
0.0
  0
LINE
  5
1DD
100
AcDbEntity
100
AcDbLine
  8
FORT
 62
7
370
-1
  6
CONTINUOUS
 10
48.9590969999999999
 20
202.9479440000000068
 30
0.0
 11
48.9590969999999999
 21
200.9479440000000068
 31
0.0
  0
LINE
  5
1DE
100
AcDbEntity
100
AcDbLine
  8
FORT
 62
7
370
-1
  6
CONTINUOUS
 10
48.4590969999999999
 20
214.9479440000000068
 30
0.0
 11
46.9590969999999999
 21
213.4479440000000068
 31
0.0
  0
LINE
  5
1DF
100
AcDbEntity
100
AcDbLine
  8
FORT
 62
7
370
-1
  6
CONTINUOUS
 10
48.9590969999999999
 20
216.9479440000000068
 30
0.0
 11
50.9590969999999999
 21
218.9479440000000068
 31
0.0
  0
LINE
  5
1E0
100
AcDbEntity
100
AcDbLine
  8
FORT
 62
7
370
-1
  6
CONTINUOUS
 10
50.9590969999999999
 20
214.9479440000000068
 30
0.0
 11
50.9590969999999999
 21
218.9479440000000068
 31
0.0
  0
LINE
  5
1E1
100
AcDbEntity
100
AcDbLine
  8
FORT
 62
7
370
-1
  6
CONTINUOUS
 10
48.9590969999999999
 20
216.9479440000000068
 30
0.0
 11
48.9590969999999999
 21
214.9479440000000068
 31
0.0
  0
LINE
  5
1E2
100
AcDbEntity
100
AcDbLine
  8
FIN
 62
5
370
-1
  6
CONTINUOUS
 10
69.4590969999999999
 20
170.0
 30
0.0
 11
69.4590969999999999
 21
195.8236210000000028
 31
0.0
  0
MTEXT
  5
1E3
100
AcDbEntity
100
AcDbMText
  8
TEXTE
 62
7
370
-1
  6
CONTINUOUS
 10
63.4590969999999999
 20
172.0
 30
0.0
 40
5.0
 41
100.0
 71
7
 72
2
  1
2
  7
ISO9
 50
0.0
 73
0
 44
1.0
  0
MTEXT
  5
1E4
100
AcDbEntity
100
AcDbMText
  8
TEXTE
 62
7
370
-1
  6
CONTINUOUS
 10
83.4590969999999999
 20
172.0
 30
0.0
 40
5.0
 41
100.0
 71
7
 72
2
  1
4
  7
ISO9
 50
0.0
 73
0
 44
1.0
  0
MTEXT
  5
1E5
100
AcDbEntity
100
AcDbMText
  8
TEXTE
 62
7
370
-1
  6
CONTINUOUS
 10
103.4590969999999999
 20
172.0
 30
0.0
 40
5.0
 41
100.0
 71
7
 72
2
  1
8
  7
ISO9
 50
0.0
 73
0
 44
1.0
  0
LINE
  5
1E6
100
AcDbEntity
100
AcDbLine
  8
FORT
 62
7
370
-1
  6
CONTINUOUS
 10
99.9590969999999999
 20
204.4479440000000068
 30
0.0
 11
111.9590969999999999
 21
204.4479440000000068
 31
0.0
  0
LINE
  5
1E7
100
AcDbEntity
100
AcDbLine
  8
FORT
 62
7
370
-1
  6
CONTINUOUS
 10
99.9590969999999999
 20
213.4479440000000068
 30
0.0
 11
111.9590969999999999
 21
213.4479440000000068
 31
0.0
  0
LINE
  5
1E8
100
AcDbEntity
100
AcDbLine
  8
FORT
 62
7
370
-1
  6
CONTINUOUS
 10
56.9590969999999999
 20
214.9479440000000068
 30
0.0
 11
56.9590969999999999
 21
222.9479440000000068
 31
0.0
  0
LINE
  5
1E9
100
AcDbEntity
100
AcDbLine
  8
FORT
 62
7
370
-1
  6
CONTINUOUS
 10
56.9590969999999999
 20
191.9479440000000068
 30
0.0
 11
95.9590969999999999
 21
191.9479440000000068
 31
0.0
  0
LWPOLYLINE
  5
1EA
  8
HACHURE
 62
5
370
-1
  6
CONTINUOUS
100
AcDbEntity
100
AcDbPolyline
 90
6
 70
1
 10
95.9590969999999999
 20
199.4479440000000068
 10
75.9590969999999999
 20
199.4479440000000068
 10
75.9590969999999999
 20
202.9479440000000068
 10
56.9590969999999999
 20
202.9479440000000068
 10
56.9590969999999999
 20
191.9479440000000068
 10
95.9590969999999999
 20
191.9479440000000068
  0
INSERT
  5
1EB
100
AcDbEntity
100
AcDbBlockReference
  8
HACHURE
 62
256
370
-1
  6
ByLayer
  2
DESENS-G9
 10
0.0
 20
0.0
 30
0.0
  0
LINE
  5
1EC
100
AcDbEntity
100
AcDbLine
  8
FORT
 62
7
370
-1
  6
CONTINUOUS
 10
95.9590969999999999
 20
202.9479440000000068
 30
0.0
 11
95.9590969999999999
 21
191.9479440000000068
 31
0.0
  0
LINE
  5
1ED
100
AcDbEntity
100
AcDbLine
  8
FORT
 62
7
370
-1
  6
CONTINUOUS
 10
99.9590969999999999
 20
202.9479440000000068
 30
0.0
 11
99.9590969999999999
 21
214.9479440000000068
 31
0.0
  0
LINE
  5
1EE
100
AcDbEntity
100
AcDbLine
  8
FORT
 62
7
370
-1
  6
CONTINUOUS
 10
75.9590969999999999
 20
199.4479440000000068
 30
0.0
 11
95.9590969999999999
 21
199.4479440000000068
 31
0.0
  0
CIRCLE
  5
1EF
100
AcDbEntity
100
AcDbCircle
  8
FORT
 62
7
370
-1
  6
CONTINUOUS
 10
76.759096999999997
 20
201.4479440000000068
 30
0.0
 40
0.8
  0
LINE
  5
1F0
100
AcDbEntity
100
AcDbLine
  8
FORT
 62
7
370
-1
  6
CONTINUOUS
 10
75.9741669999999942
 20
201.6024920000000122
 30
0.0
 11
76.2214170000000024
 21
202.9479440000000068
 31
0.0
  0
LINE
  5
1F1
100
AcDbEntity
100
AcDbLine
  8
FORT
 62
7
370
-1
  6
CONTINUOUS
 10
75.9590969999999999
 20
202.9479440000000068
 30
0.0
 11
75.9590969999999999
 21
199.4479440000000068
 31
0.0
  0
LINE
  5
1F2
100
AcDbEntity
100
AcDbLine
  8
FORT
 62
7
370
-1
  6
CONTINUOUS
 10
77.5440269999999998
 20
201.2933969999999988
 30
0.0
 11
77.848078000000001
 21
202.9479440000000068
 31
0.0
  0
CIRCLE
  5
1F3
100
AcDbEntity
100
AcDbCircle
  8
FORT
 62
7
370
-1
  6
CONTINUOUS
 10
82.2720970000000023
 20
201.4479440000000068
 30
0.0
 40
0.8
  0
LINE
  5
1F4
100
AcDbEntity
100
AcDbLine
  8
FORT
 62
7
370
-1
  6
CONTINUOUS
 10
81.4871669999999995
 20
201.6024920000000122
 30
0.0
 11
81.7344169999999934
 21
202.9479440000000068
 31
0.0
  0
LINE
  5
1F5
100
AcDbEntity
100
AcDbLine
  8
FORT
 62
7
370
-1
  6
CONTINUOUS
 10
83.3610780000000062
 20
202.9479440000000068
 30
0.0
 11
83.057027000000005
 21
201.2933969999999988
 31
0.0
  0
CIRCLE
  5
1F6
100
AcDbEntity
100
AcDbCircle
  8
FORT
 62
7
370
-1
  6
CONTINUOUS
 10
87.7850969999999933
 20
201.4479440000000068
 30
0.0
 40
0.8
  0
LINE
  5
1F7
100
AcDbEntity
100
AcDbLine
  8
FORT
 62
7
370
-1
  6
CONTINUOUS
 10
87.0001670000000047
 20
201.6024920000000122
 30
0.0
 11
87.2474169999999987
 21
202.9479440000000068
 31
0.0
  0
LINE
  5
1F8
100
AcDbEntity
100
AcDbLine
  8
FORT
 62
7
370
-1
  6
CONTINUOUS
 10
88.8740779999999972
 20
202.9479440000000068
 30
0.0
 11
88.5700269999999961
 21
201.2933969999999988
 31
0.0
  0
LINE
  5
1F9
100
AcDbEntity
100
AcDbLine
  8
FORT
 62
7
370
-1
  6
CONTINUOUS
 10
75.9590969999999999
 20
218.4479440000000068
 30
0.0
 11
95.9590969999999999
 21
218.4479440000000068
 31
0.0
  0
ARC
  5
1FA
100
AcDbEntity
  8
FORT
 62
7
370
-1
  6
CONTINUOUS
100
AcDbCircle
 10
75.9590969999999999
 20
216.4479440000000068
 30
0.0
 40
0.8
100
AcDbArc
 50
270.0
 51
90.0
  0
LINE
  5
1FB
100
AcDbEntity
100
AcDbLine
  8
FORT
 62
7
370
-1
  6
CONTINUOUS
 10
76.6027500000000003
 20
214.9479440000000068
 30
0.0
 11
76.753855999999999
 21
216.3565159999999992
 31
0.0
  0
LINE
  5
1FC
100
AcDbEntity
100
AcDbLine
  8
FORT
 62
7
370
-1
  6
CONTINUOUS
 10
75.9590969999999999
 20
218.4479440000000068
 30
0.0
 11
75.9590969999999999
 21
214.9479440000000068
 31
0.0
  0
CIRCLE
  5
1FD
100
AcDbEntity
100
AcDbCircle
  8
FORT
 62
7
370
-1
  6
CONTINUOUS
 10
90.5415969999999959
 20
216.4479440000000068
 30
0.0
 40
0.8
  0
CIRCLE
  5
1FE
100
AcDbEntity
100
AcDbCircle
  8
FORT
 62
7
370
-1
  6
CONTINUOUS
 10
79.5155969999999996
 20
216.4479440000000068
 30
0.0
 40
0.8
  0
CIRCLE
  5
1FF
100
AcDbEntity
100
AcDbCircle
  8
FORT
 62
7
370
-1
  6
CONTINUOUS
 10
85.0285970000000049
 20
216.4479440000000068
 30
0.0
 40
0.8
  0
LINE
  5
200
100
AcDbEntity
100
AcDbLine
  8
FORT
 62
7
370
-1
  6
CONTINUOUS
 10
78.4266169999999931
 20
214.9479440000000068
 30
0.0
 11
78.7306669999999968
 21
216.6024920000000122
 31
0.0
  0
LINE
  5
201
100
AcDbEntity
100
AcDbLine
  8
FORT
 62
7
370
-1
  6
CONTINUOUS
 10
80.0532780000000059
 20
214.9479440000000068
 30
0.0
 11
80.3005270000000024
 21
216.2933969999999988
 31
0.0
  0
LINE
  5
202
100
AcDbEntity
100
AcDbLine
  8
FORT
 62
7
370
-1
  6
CONTINUOUS
 10
83.9396169999999984
 20
214.9479440000000068
 30
0.0
 11
84.2436670000000021
 21
216.6024920000000122
 31
0.0
  0
LINE
  5
203
100
AcDbEntity
100
AcDbLine
  8
FORT
 62
7
370
-1
  6
CONTINUOUS
 10
85.8135269999999934
 20
216.2933969999999988
 30
0.0
 11
85.566277999999997
 21
214.9479440000000068
 31
0.0
  0
LINE
  5
204
100
AcDbEntity
100
AcDbLine
  8
FORT
 62
7
370
-1
  6
CONTINUOUS
 10
89.4526170000000036
 20
214.9479440000000068
 30
0.0
 11
89.7566669999999931
 21
216.6024920000000122
 31
0.0
  0
LINE
  5
205
100
AcDbEntity
100
AcDbLine
  8
FORT
 62
7
370
-1
  6
CONTINUOUS
 10
91.3265269999999987
 20
216.2933969999999988
 30
0.0
 11
91.0792780000000022
 21
214.9479440000000068
 31
0.0
  0
LINE
  5
206
100
AcDbEntity
100
AcDbLine
  8
FORT
 62
7
370
-1
  6
CONTINUOUS
 10
56.9590969999999999
 20
191.9479440000000068
 30
0.0
 11
56.9590969999999999
 21
202.9479440000000068
 31
0.0
  0
CIRCLE
  5
207
100
AcDbEntity
100
AcDbCircle
  8
FORT
 62
7
370
-1
  6
CONTINUOUS
 10
69.4590969999999999
 20
195.8236210000000028
 30
0.0
 40
0.25
  0
LINE
  5
208
100
AcDbEntity
100
AcDbLine
  8
FORT
 62
7
370
-1
  6
CONTINUOUS
 10
111.9590969999999999
 20
203.9479440000000068
 30
0.0
 11
111.9590969999999999
 21
213.9479440000000068
 31
0.0
  0
MTEXT
  5
209
100
AcDbEntity
100
AcDbMText
  8
TEXTE
 62
7
370
-1
  6
CONTINUOUS
 10
100.8221400000000045
 20
257.2638769999999795
 30
0.0
 40
5.0
 41
100.0
 71
7
 72
2
  1
A-A
  7
ISO9
 50
0.0
 73
0
 44
1.0
  0
LINE
  5
20A
100
AcDbEntity
100
AcDbLine
  8
FORT
 62
7
370
-1
  6
CONTINUOUS
 10
91.9590969999999999
 20
226.9479440000000068
 30
0.0
 11
91.9590969999999999
 21
241.9479440000000068
 31
0.0
  0
LINE
  5
20B
100
AcDbEntity
100
AcDbLine
  8
FORT
 62
7
370
-1
  6
CONTINUOUS
 10
98.9590969999999999
 20
226.9479440000000068
 30
0.0
 11
98.9590969999999999
 21
241.9479440000000068
 31
0.0
  0
LWPOLYLINE
  5
20C
  8
HACHURE
 62
5
370
-1
  6
CONTINUOUS
100
AcDbEntity
100
AcDbPolyline
 90
4
 70
1
 10
98.9590969999999999
 20
241.9479440000000068
 10
91.9590969999999999
 20
241.9479440000000068
 10
91.9590969999999999
 20
226.9479440000000068
 10
98.9590969999999999
 20
226.9479440000000068
  0
INSERT
  5
20D
100
AcDbEntity
100
AcDbBlockReference
  8
HACHURE
 62
256
370
-1
  6
ByLayer
  2
DESENS-G10
 10
0.0
 20
0.0
 30
0.0
  0
LINE
  5
20E
100
AcDbEntity
100
AcDbLine
  8
FORT
 62
7
370
-1
  6
CONTINUOUS
 10
91.9590969999999999
 20
226.9479440000000068
 30
0.0
 11
98.9590969999999999
 21
226.9479440000000068
 31
0.0
  0
LINE
  5
20F
100
AcDbEntity
100
AcDbLine
  8
FORT
 62
7
370
-1
  6
CONTINUOUS
 10
73.9590969999999999
 20
239.9479440000000068
 30
0.0
 11
91.9590969999999999
 21
239.9479440000000068
 31
0.0
  0
LINE
  5
210
100
AcDbEntity
100
AcDbLine
  8
FORT
 62
7
370
-1
  6
CONTINUOUS
 10
91.9590969999999999
 20
241.9479440000000068
 30
0.0
 11
98.9590969999999999
 21
241.9479440000000068
 31
0.0
  0
LWPOLYLINE
  5
211
  8
HACHURE
 62
5
370
-1
  6
CONTINUOUS
100
AcDbEntity
100
AcDbPolyline
 90
10
 70
1
 10
131.9590970000000141
 20
239.9479440000000068
 10
122.9590969999999999
 20
239.9479440000000068
 10
122.9590969999999999
 20
226.9479440000000068
 10
118.9590969999999999
 20
226.9479440000000068
 10
118.9590969999999999
 20
218.4479440000000068
 10
140.9590970000000141
 20
218.4479440000000068
 10
140.9590970000000141
 20
214.9479440000000068
 10
146.9590970000000141
 20
214.9479440000000068
 10
148.9590970000000141
 20
216.9479440000000068
 10
148.9590970000000141
 20
222.9479440000000068
  0
INSERT
  5
212
100
AcDbEntity
100
AcDbBlockReference
  8
HACHURE
 62
256
370
-1
  6
ByLayer
  2
DESENS-G11
 10
0.0
 20
0.0
 30
0.0
  0
LINE
  5
213
100
AcDbEntity
100
AcDbLine
  8
FORT
 62
7
370
-1
  6
CONTINUOUS
 10
118.9590969999999999
 20
213.9479440000000068
 30
0.0
 11
118.9590969999999999
 21
226.9479440000000068
 31
0.0
  0
LINE
  5
214
100
AcDbEntity
100
AcDbLine
  8
FORT
 62
7
370
-1
  6
CONTINUOUS
 10
131.9590970000000141
 20
239.9479440000000068
 30
0.0
 11
148.9590970000000141
 21
222.9479440000000068
 31
0.0
  0
LINE
  5
215
100
AcDbEntity
100
AcDbLine
  8
FORT
 62
7
370
-1
  6
CONTINUOUS
 10
151.9590970000000141
 20
196.9479440000000068
 30
0.0
 11
194.9590970000000141
 21
196.9479440000000068
 31
0.0
  0
LINE
  5
216
100
AcDbEntity
100
AcDbLine
  8
FORT
 62
7
370
-1
  6
CONTINUOUS
 10
151.9590970000000141
 20
220.9479440000000068
 30
0.0
 11
194.9590970000000141
 21
220.9479440000000068
 31
0.0
  0
LINE
  5
217
100
AcDbEntity
100
AcDbLine
  8
FIN
 62
5
370
-1
  6
CONTINUOUS
 10
159.4590970000000141
 20
170.0
 30
0.0
 11
150.4590970000000141
 21
196.9479440000000068
 31
0.0
  0
LINE
  5
218
100
AcDbEntity
100
AcDbLine
  8
FIN
 62
5
370
-1
  6
CONTINUOUS
 10
139.4590970000000141
 20
170.0
 30
0.0
 11
139.4590970000000141
 21
195.8236210000000028
 31
0.0
  0
MTEXT
  5
219
100
AcDbEntity
100
AcDbMText
  8
TEXTE
 62
7
370
-1
  6
CONTINUOUS
 10
143.4590970000000141
 20
172.0
 30
0.0
 40
5.0
 41
100.0
 71
7
 72
2
  1
1
  7
ISO9
 50
0.0
 73
0
 44
1.0
  0
MTEXT
  5
21A
100
AcDbEntity
100
AcDbMText
  8
TEXTE
 62
7
370
-1
  6
CONTINUOUS
 10
121.4590969999999999
 20
172.0
 30
0.0
 40
5.0
 41
100.0
 71
7
 72
2
  1
10
  7
ISO9
 50
0.0
 73
0
 44
1.0
  0
MTEXT
  5
21B
100
AcDbEntity
100
AcDbMText
  8
TEXTE
 62
7
370
-1
  6
CONTINUOUS
 10
163.4590970000000141
 20
172.0
 30
0.0
 40
5.0
 41
100.0
 71
7
 72
2
  1
7
  7
ISO9
 50
0.0
 73
0
 44
1.0
  0
LINE
  5
21C
100
AcDbEntity
100
AcDbLine
  8
FORT
 62
7
370
-1
  6
CONTINUOUS
 10
148.9590970000000141
 20
222.9479440000000068
 30
0.0
 11
148.9590970000000141
 21
213.9479440000000068
 31
0.0
  0
LINE
  5
21D
100
AcDbEntity
100
AcDbLine
  8
FORT
 62
7
370
-1
  6
CONTINUOUS
 10
118.9590969999999999
 20
218.4479440000000068
 30
0.0
 11
140.9590970000000141
 21
218.4479440000000068
 31
0.0
  0
LINE
  5
21E
100
AcDbEntity
100
AcDbLine
  8
FORT
 62
7
370
-1
  6
CONTINUOUS
 10
118.9590969999999999
 20
191.9479440000000068
 30
0.0
 11
148.9590970000000141
 21
191.9479440000000068
 31
0.0
  0
LINE
  5
21F
100
AcDbEntity
100
AcDbLine
  8
FORT
 62
7
370
-1
  6
CONTINUOUS
 10
118.9590969999999999
 20
199.4479440000000068
 30
0.0
 11
140.9590970000000141
 21
199.4479440000000068
 31
0.0
  0
LWPOLYLINE
  5
220
  8
HACHURE
 62
5
370
-1
  6
CONTINUOUS
100
AcDbEntity
100
AcDbPolyline
 90
7
 70
1
 10
148.9590970000000141
 20
200.9479440000000068
 10
146.9590970000000141
 20
202.9479440000000068
 10
140.9590970000000141
 20
202.9479440000000068
 10
140.9590970000000141
 20
199.4479440000000068
 10
118.9590969999999999
 20
199.4479440000000068
 10
118.9590969999999999
 20
191.9479440000000068
 10
148.9590970000000141
 20
191.9479440000000068
  0
INSERT
  5
221
100
AcDbEntity
100
AcDbBlockReference
  8
HACHURE
 62
256
370
-1
  6
ByLayer
  2
DESENS-G12
 10
0.0
 20
0.0
 30
0.0
  0
CIRCLE
  5
222
100
AcDbEntity
100
AcDbCircle
  8
FORT
 62
7
370
-1
  6
CONTINUOUS
 10
126.3760970000000015
 20
201.4479440000000068
 30
0.0
 40
0.8
  0
LINE
  5
223
100
AcDbEntity
100
AcDbLine
  8
FORT
 62
7
370
-1
  6
CONTINUOUS
 10
118.9590969999999999
 20
191.9479440000000068
 30
0.0
 11
118.9590969999999999
 21
203.9479440000000068
 31
0.0
  0
LINE
  5
224
100
AcDbEntity
100
AcDbLine
  8
FORT
 62
7
370
-1
  6
CONTINUOUS
 10
125.5911669999999987
 20
201.6024920000000122
 30
0.0
 11
126.0221829999999983
 21
203.9479440000000068
 31
0.0
  0
LINE
  5
225
100
AcDbEntity
100
AcDbLine
  8
FORT
 62
7
370
-1
  6
CONTINUOUS
 10
148.9590970000000141
 20
191.9479440000000068
 30
0.0
 11
148.9590970000000141
 21
203.9479440000000068
 31
0.0
  0
LINE
  5
226
100
AcDbEntity
100
AcDbLine
  8
FORT
 62
7
370
-1
  6
CONTINUOUS
 10
151.9590970000000141
 20
196.9479440000000068
 30
0.0
 11
151.9590970000000141
 21
220.9479440000000068
 31
0.0
  0
LINE
  5
227
100
AcDbEntity
100
AcDbLine
  8
FORT
 62
7
370
-1
  6
CONTINUOUS
 10
146.9590970000000141
 20
202.9479440000000068
 30
0.0
 11
148.9590970000000141
 21
200.9479440000000068
 31
0.0
  0
CIRCLE
  5
228
100
AcDbEntity
100
AcDbCircle
  8
FORT
 62
7
370
-1
  6
CONTINUOUS
 10
137.4020969999999977
 20
201.4479440000000068
 30
0.0
 40
0.8
  0
LINE
  5
229
100
AcDbEntity
100
AcDbLine
  8
FORT
 62
7
370
-1
  6
CONTINUOUS
 10
136.6171730000000082
 20
201.6025190000000009
 30
0.0
 11
137.048261999999994
 21
203.9479440000000068
 31
0.0
  0
LINE
  5
22A
100
AcDbEntity
100
AcDbLine
  8
FORT
 62
7
370
-1
  6
CONTINUOUS
 10
140.9590970000000141
 20
202.9479440000000068
 30
0.0
 11
146.9590970000000141
 21
202.9479440000000068
 31
0.0
  0
ARC
  5
22B
100
AcDbEntity
  8
FORT
 62
7
370
-1
  6
CONTINUOUS
100
AcDbCircle
 10
140.9585969999999975
 20
201.4479440000000068
 30
0.0
 40
0.8
100
AcDbArc
 50
89.9641900000000021
 51
270.0358100000000263
  0
LINE
  5
22C
100
AcDbEntity
100
AcDbLine
  8
FORT
 62
7
370
-1
  6
CONTINUOUS
 10
138.1870220000000131
 20
201.2933700000000101
 30
0.0
 11
138.67493300000001
 21
203.9479440000000068
 31
0.0
  0
LINE
  5
22D
100
AcDbEntity
100
AcDbLine
  8
FORT
 62
7
370
-1
  6
CONTINUOUS
 10
140.1638450000000091
 20
201.5394300000000101
 30
0.0
 11
140.4223829999999964
 21
203.9479440000000068
 31
0.0
  0
LINE
  5
22E
100
AcDbEntity
100
AcDbLine
  8
FORT
 62
7
370
-1
  6
CONTINUOUS
 10
140.9590970000000141
 20
203.9479440000000068
 30
0.0
 11
140.9590970000000141
 21
199.4479440000000068
 31
0.0
  0
LINE
  5
22F
100
AcDbEntity
100
AcDbLine
  8
FORT
 62
7
370
-1
  6
CONTINUOUS
 10
146.9590970000000141
 20
203.9479440000000068
 30
0.0
 11
146.9590970000000141
 21
202.9479440000000068
 31
0.0
  0
CIRCLE
  5
230
100
AcDbEntity
100
AcDbCircle
  8
FORT
 62
7
370
-1
  6
CONTINUOUS
 10
131.8890969999999925
 20
201.4479440000000068
 30
0.0
 40
0.8
  0
LINE
  5
231
100
AcDbEntity
100
AcDbLine
  8
FORT
 62
7
370
-1
  6
CONTINUOUS
 10
127.6488449999999943
 20
203.9479440000000068
 30
0.0
 11
127.1610270000000043
 21
201.2933969999999988
 31
0.0
  0
LINE
  5
232
100
AcDbEntity
100
AcDbLine
  8
FORT
 62
7
370
-1
  6
CONTINUOUS
 10
131.1041669999999897
 20
201.6024920000000122
 30
0.0
 11
131.5351829999999893
 21
203.9479440000000068
 31
0.0
  0
LINE
  5
233
100
AcDbEntity
100
AcDbLine
  8
FORT
 62
7
370
-1
  6
CONTINUOUS
 10
133.1618449999999996
 20
203.9479440000000068
 30
0.0
 11
132.6740269999999953
 21
201.2933969999999988
 31
0.0
  0
LINE
  5
234
100
AcDbEntity
100
AcDbLine
  8
FORT
 62
7
370
-1
  6
CONTINUOUS
 10
151.9590970000000141
 20
198.4479440000000068
 30
0.0
 11
150.4590970000000141
 21
196.9479440000000068
 31
0.0
  0
LINE
  5
235
100
AcDbEntity
100
AcDbLine
  8
FORT
 62
7
370
-1
  6
CONTINUOUS
 10
148.9590970000000141
 20
196.9479440000000068
 30
0.0
 11
150.4590970000000141
 21
196.9479440000000068
 31
0.0
  0
LINE
  5
236
100
AcDbEntity
100
AcDbLine
  8
FORT
 62
7
370
-1
  6
CONTINUOUS
 10
148.9590970000000141
 20
202.9479440000000068
 30
0.0
 11
151.9590970000000141
 21
202.9479440000000068
 31
0.0
  0
LINE
  5
237
100
AcDbEntity
100
AcDbLine
  8
FORT
 62
7
370
-1
  6
CONTINUOUS
 10
138.8862619999999879
 20
213.9479440000000068
 30
0.0
 11
139.3741730000000132
 21
216.6025190000000009
 31
0.0
  0
LINE
  5
238
100
AcDbEntity
100
AcDbLine
  8
FORT
 62
7
370
-1
  6
CONTINUOUS
 10
140.5129330000000039
 20
213.9479440000000068
 30
0.0
 11
140.9440219999999897
 21
216.2933700000000101
 31
0.0
  0
LINE
  5
239
100
AcDbEntity
100
AcDbLine
  8
FORT
 62
7
370
-1
  6
CONTINUOUS
 10
140.9590970000000141
 20
213.9479440000000068
 30
0.0
 11
140.9590970000000141
 21
218.4479440000000068
 31
0.0
  0
LINE
  5
23A
100
AcDbEntity
100
AcDbLine
  8
FORT
 62
7
370
-1
  6
CONTINUOUS
 10
146.9590970000000141
 20
213.9479440000000068
 30
0.0
 11
146.9590970000000141
 21
214.9479440000000068
 31
0.0
  0
LINE
  5
23B
100
AcDbEntity
100
AcDbLine
  8
FORT
 62
7
370
-1
  6
CONTINUOUS
 10
127.8598499999999945
 20
213.9479440000000068
 30
0.0
 11
128.3476670000000013
 21
216.6024920000000122
 31
0.0
  0
LINE
  5
23C
100
AcDbEntity
100
AcDbLine
  8
FORT
 62
7
370
-1
  6
CONTINUOUS
 10
129.9175270000000069
 20
216.2933969999999988
 30
0.0
 11
129.4865110000000072
 21
213.9479440000000068
 31
0.0
  0
LINE
  5
23D
100
AcDbEntity
100
AcDbLine
  8
FORT
 62
7
370
-1
  6
CONTINUOUS
 10
133.3728499999999997
 20
213.9479440000000068
 30
0.0
 11
133.8606670000000065
 21
216.6024920000000122
 31
0.0
  0
LINE
  5
23E
100
AcDbEntity
100
AcDbLine
  8
FORT
 62
7
370
-1
  6
CONTINUOUS
 10
135.4305270000000121
 20
216.2933969999999988
 30
0.0
 11
134.9995110000000125
 21
213.9479440000000068
 31
0.0
  0
LINE
  5
23F
100
AcDbEntity
100
AcDbLine
  8
FORT
 62
7
370
-1
  6
CONTINUOUS
 10
150.4590970000000141
 20
220.9479440000000068
 30
0.0
 11
151.9590970000000141
 21
219.4479440000000068
 31
0.0
  0
LINE
  5
240
100
AcDbEntity
100
AcDbLine
  8
FORT
 62
7
370
-1
  6
CONTINUOUS
 10
146.9590970000000141
 20
214.9479440000000068
 30
0.0
 11
148.9590970000000141
 21
216.9479440000000068
 31
0.0
  0
LINE
  5
241
100
AcDbEntity
100
AcDbLine
  8
FORT
 62
7
370
-1
  6
CONTINUOUS
 10
140.9590970000000141
 20
214.9479440000000068
 30
0.0
 11
146.9590970000000141
 21
214.9479440000000068
 31
0.0
  0
CIRCLE
  5
242
100
AcDbEntity
100
AcDbCircle
  8
FORT
 62
7
370
-1
  6
CONTINUOUS
 10
140.1590970000000027
 20
216.4479440000000068
 30
0.0
 40
0.8
  0
CIRCLE
  5
243
100
AcDbEntity
100
AcDbCircle
  8
FORT
 62
7
370
-1
  6
CONTINUOUS
 10
129.1325970000000041
 20
216.4479440000000068
 30
0.0
 40
0.8
  0
CIRCLE
  5
244
100
AcDbEntity
100
AcDbCircle
  8
FORT
 62
7
370
-1
  6
CONTINUOUS
 10
134.6455970000000093
 20
216.4479440000000068
 30
0.0
 40
0.8
  0
LINE
  5
245
100
AcDbEntity
100
AcDbLine
  8
FORT
 62
7
370
-1
  6
CONTINUOUS
 10
148.9590970000000141
 20
214.9479440000000068
 30
0.0
 11
151.9590970000000141
 21
214.9479440000000068
 31
0.0
  0
LINE
  5
246
100
AcDbEntity
100
AcDbLine
  8
FORT
 62
7
370
-1
  6
CONTINUOUS
 10
148.9590970000000141
 20
220.9479440000000068
 30
0.0
 11
150.4590970000000141
 21
220.9479440000000068
 31
0.0
  0
CIRCLE
  5
247
100
AcDbEntity
100
AcDbCircle
  8
FORT
 62
7
370
-1
  6
CONTINUOUS
 10
139.4590970000000141
 20
195.8236210000000028
 30
0.0
 40
0.25
  0
LINE
  5
248
100
AcDbEntity
100
AcDbLine
  8
FORT
 62
7
370
-1
  6
CONTINUOUS
 10
150.9146560000000079
 20
194.1461189999999988
 30
0.0
 11
150.4590970000000141
 21
196.9479440000000068
 31
0.0
  0
LINE
  5
249
100
AcDbEntity
100
AcDbLine
  8
FORT
 62
7
370
-1
  6
CONTINUOUS
 10
151.7986989999999992
 20
194.4453000000000031
 30
0.0
 11
150.4590970000000141
 21
196.9479440000000068
 31
0.0
  0
LWPOLYLINE
  5
24A
  8
HACHURE
 62
5
370
-1
  6
CONTINUOUS
100
AcDbEntity
100
AcDbPolyline
 90
5
 70
1
 10
151.9590970000000141
 20
219.4479440000000068
 10
150.4590970000000141
 20
220.9479440000000068
 10
148.9590970000000141
 20
220.9479440000000068
 10
148.9590970000000141
 20
214.9479440000000068
 10
151.9590970000000141
 20
214.9479440000000068
  0
INSERT
  5
24B
100
AcDbEntity
100
AcDbBlockReference
  8
HACHURE
 62
256
370
-1
  6
ByLayer
  2
DESENS-G13
 10
0.0
 20
0.0
 30
0.0
  0
LWPOLYLINE
  5
24C
  8
HACHURE
 62
5
370
-1
  6
CONTINUOUS
100
AcDbEntity
100
AcDbPolyline
 90
5
 70
1
 10
151.9590970000000141
 20
202.9479440000000068
 10
148.9590970000000141
 20
202.9479440000000068
 10
148.9590970000000141
 20
196.9479440000000068
 10
150.4590970000000141
 20
196.9479440000000068
 10
151.9590970000000141
 20
198.4479440000000068
  0
INSERT
  5
24D
100
AcDbEntity
100
AcDbBlockReference
  8
HACHURE
 62
256
370
-1
  6
ByLayer
  2
DESENS-G14
 10
0.0
 20
0.0
 30
0.0
  0
LINE
  5
24E
100
AcDbEntity
100
AcDbLine
  8
FIN
 62
5
370
-1
  6
CONTINUOUS
 10
179.4590970000000141
 20
170.0
 30
0.0
 11
179.4590970000000141
 21
202.3030269999999859
 31
0.0
  0
MTEXT
  5
24F
100
AcDbEntity
100
AcDbMText
  8
TEXTE
 62
7
370
-1
  6
CONTINUOUS
 10
183.4590970000000141
 20
172.0
 30
0.0
 40
5.0
 41
100.0
 71
7
 72
2
  1
3
  7
ISO9
 50
0.0
 73
0
 44
1.0
  0
LINE
  5
250
100
AcDbEntity
100
AcDbLine
  8
FORT
 62
7
370
-1
  6
CONTINUOUS
 10
194.9590970000000141
 20
196.9479440000000068
 30
0.0
 11
194.9590970000000141
 21
220.9479440000000068
 31
0.0
  0
LINE
  5
251
100
AcDbEntity
100
AcDbLine
  8
FORT
 62
7
370
-1
  6
CONTINUOUS
 10
196.9590970000000141
 20
198.9479440000000068
 30
0.0
 11
196.9590970000000141
 21
218.9479440000000068
 31
0.0
  0
LINE
  5
252
100
AcDbEntity
100
AcDbLine
  8
FORT
 62
7
370
-1
  6
CONTINUOUS
 10
196.9590970000000141
 20
198.9479440000000068
 30
0.0
 11
194.9590970000000141
 21
196.9479440000000068
 31
0.0
  0
LINE
  5
253
100
AcDbEntity
100
AcDbLine
  8
FORT
 62
7
370
-1
  6
CONTINUOUS
 10
194.9590970000000141
 20
220.9479440000000068
 30
0.0
 11
196.9590970000000141
 21
218.9479440000000068
 31
0.0
  0
CIRCLE
  5
254
100
AcDbEntity
100
AcDbCircle
  8
FORT
 62
7
370
-1
  6
CONTINUOUS
 10
179.4590970000000141
 20
202.3030269999999859
 30
0.0
 40
0.25
  0
LINE
  5
255
100
AcDbEntity
100
AcDbLine
  8
FORT
 62
7
370
-1
  6
CONTINUOUS
 10
115.9590969999999999
 20
226.9479440000000068
 30
0.0
 11
115.9590969999999999
 21
233.4479440000000068
 31
0.0
  0
LINE
  5
256
100
AcDbEntity
100
AcDbLine
  8
FORT
 62
7
370
-1
  6
CONTINUOUS
 10
122.9590969999999999
 20
226.9479440000000068
 30
0.0
 11
122.9590969999999999
 21
241.9479440000000068
 31
0.0
  0
LWPOLYLINE
  5
257
  8
HACHURE
 62
5
370
-1
  6
CONTINUOUS
100
AcDbEntity
100
AcDbPolyline
 90
7
 70
1
 10
122.9590969999999999
 20
241.9479440000000068
 10
115.9590969999999999
 20
241.9479440000000068
 10
115.9590969999999999
 20
239.4479440000000068
 10
118.9590969999999999
 20
236.4479440000000068
 10
115.9590969999999999
 20
233.4479440000000068
 10
115.9590969999999999
 20
226.9479440000000068
 10
122.9590969999999999
 20
226.9479440000000068
  0
INSERT
  5
258
100
AcDbEntity
100
AcDbBlockReference
  8
HACHURE
 62
256
370
-1
  6
ByLayer
  2
DESENS-G15
 10
0.0
 20
0.0
 30
0.0
  0
LINE
  5
259
100
AcDbEntity
100
AcDbLine
  8
FORT
 62
7
370
-1
  6
CONTINUOUS
 10
115.9590969999999999
 20
226.9479440000000068
 30
0.0
 11
122.9590969999999999
 21
226.9479440000000068
 31
0.0
  0
LINE
  5
25A
100
AcDbEntity
100
AcDbLine
  8
FORT
 62
7
370
-1
  6
CONTINUOUS
 10
122.9590969999999999
 20
239.9479440000000068
 30
0.0
 11
131.9590970000000141
 21
239.9479440000000068
 31
0.0
  0
LINE
  5
25B
100
AcDbEntity
100
AcDbLine
  8
FORT
 62
7
370
-1
  6
CONTINUOUS
 10
115.9590969999999999
 20
241.9479440000000068
 30
0.0
 11
122.9590969999999999
 21
241.9479440000000068
 31
0.0
  0
LINE
  5
25C
100
AcDbEntity
100
AcDbLine
  8
FORT
 62
7
370
-1
  6
CONTINUOUS
 10
118.9590969999999999
 20
236.4479440000000068
 30
0.0
 11
115.9590969999999999
 21
239.4479440000000068
 31
0.0
  0
LINE
  5
25D
100
AcDbEntity
100
AcDbLine
  8
FORT
 62
7
370
-1
  6
CONTINUOUS
 10
115.9590969999999999
 20
233.4479440000000068
 30
0.0
 11
118.9590969999999999
 21
236.4479440000000068
 31
0.0
  0
LINE
  5
25E
100
AcDbEntity
100
AcDbLine
  8
FORT
 62
7
370
-1
  6
CONTINUOUS
 10
115.9590969999999999
 20
239.4479440000000068
 30
0.0
 11
115.9590969999999999
 21
241.9479440000000068
 31
0.0
  0
MTEXT
  5
25F
100
AcDbEntity
100
AcDbMText
  8
TEXTE
 62
7
370
-1
  6
CONTINUOUS
 10
339.3056889999999726
 20
43.0
 30
0.0
 40
5.0
 41
100.0
 71
7
 72
2
  1
MATIERE
  7
ISO9
 50
0.0
 73
0
 44
1.0
  0
MTEXT
  5
260
100
AcDbEntity
100
AcDbMText
  8
TEXTE
 62
7
370
-1
  6
CONTINUOUS
 10
267.4193940000000111
 20
43.1000000000000014
 30
0.0
 40
5.0
 41
100.0
 71
7
 72
2
  1
DESIGNATION
  7
ISO9
 50
0.0
 73
0
 44
1.0
  0
LINE
  5
261
100
AcDbEntity
100
AcDbLine
  8
FIN
 62
5
370
-1
  6
CONTINUOUS
 10
250.0
 20
10.5
 30
0.0
 11
250.0
 21
40.5
 31
0.0
  0
MTEXT
  5
262
100
AcDbEntity
100
AcDbMText
  8
TEXTE
 62
7
370
-1
  6
CONTINUOUS
 10
384.0947689999999852
 20
43.0
 30
0.0
 40
5.0
 41
100.0
 71
7
 72
2
  1
OBS.
  7
ISO9
 50
0.0
 73
0
 44
1.0
  0
LINE
  5
263
100
AcDbEntity
100
AcDbLine
  8
FORT
 62
7
370
-1
  6
CONTINUOUS
 10
265.3982589999999959
 20
191.9479440000000068
 30
0.0
 11
265.3982589999999959
 21
239.9479440000000068
 31
0.0
  0
LINE
  5
264
100
AcDbEntity
100
AcDbLine
  8
FORT
 62
7
370
-1
  6
CONTINUOUS
 10
345.3982589999999959
 20
191.9479440000000068
 30
0.0
 11
345.3982589999999959
 21
239.9479440000000068
 31
0.0
  0
LINE
  5
265
100
AcDbEntity
100
AcDbLine
  8
FORT
 62
7
370
-1
  6
CONTINUOUS
 10
265.3982589999999959
 20
191.9479440000000068
 30
0.0
 11
345.3982589999999959
 21
191.9479440000000068
 31
0.0
  0
LINE
  5
266
100
AcDbEntity
100
AcDbLine
  8
FORT
 62
7
370
-1
  6
CONTINUOUS
 10
265.3982589999999959
 20
222.9479440000000068
 30
0.0
 11
345.3982589999999959
 21
222.9479440000000068
 31
0.0
  0
CIRCLE
  5
267
100
AcDbEntity
100
AcDbCircle
  8
FORT
 62
7
370
-1
  6
CONTINUOUS
 10
279.3982589999999959
 20
208.9479440000000068
 30
0.0
 40
8.0
  0
CIRCLE
  5
268
100
AcDbEntity
100
AcDbCircle
  8
FORT
 62
7
370
-1
  6
CONTINUOUS
 10
279.3982589999999959
 20
208.9479440000000068
 30
0.0
 40
10.0
  0
LINE
  5
269
100
AcDbEntity
100
AcDbLine
  8
FORT
 62
7
370
-1
  6
CONTINUOUS
 10
305.3982589999999959
 20
179.9054669999999874
 30
0.0
 11
305.3982589999999959
 21
189.9054669999999874
 31
0.0
  0
LINE
  5
26A
100
AcDbEntity
100
AcDbLine
  8
FORT
 62
7
370
-1
  6
CONTINUOUS
 10
314.8168709999999919
 20
184.5721340000000055
 30
0.0
 11
305.3982589999999959
 21
184.5721340000000055
 31
0.0
  0
LINE
  5
26B
100
AcDbEntity
100
AcDbLine
  8
FORT
 62
7
370
-1
  6
CONTINUOUS
 10
305.3982589999999959
 20
184.5721340000000055
 30
0.0
 11
308.1982590000000073
 21
185.5054670000000101
 31
0.0
  0
LINE
  5
26C
100
AcDbEntity
100
AcDbLine
  8
FORT
 62
7
370
-1
  6
CONTINUOUS
 10
305.3982589999999959
 20
184.5721340000000055
 30
0.0
 11
308.1982590000000073
 21
183.6388010000000008
 31
0.0
  0
MTEXT
  5
26D
100
AcDbEntity
100
AcDbMText
  8
TEXTE
 62
7
370
-1
  6
CONTINUOUS
 10
306.6801730000000248
 20
172.2040780000000098
 30
0.0
 40
5.0
 41
100.0
 71
9
 72
2
  1
A
  7
ISO9
 50
0.0
 73
0
 44
1.0
  0
CIRCLE
  5
26E
100
AcDbEntity
100
AcDbCircle
  8
FORT
 62
7
370
-1
  6
CONTINUOUS
 10
305.3982589999999959
 20
208.9479440000000068
 30
0.0
 40
6.0
  0
ARC
  5
26F
100
AcDbEntity
  8
FIN
 62
5
370
-1
  6
CONTINUOUS
100
AcDbCircle
 10
305.3982589999999959
 20
208.9479440000000068
 30
0.0
 40
4.5
100
AcDbArc
 50
0.0
 51
270.0
  0
LINE
  5
270
100
AcDbEntity
100
AcDbLine
  8
FORT
 62
7
370
-1
  6
CONTINUOUS
 10
305.3982589999999959
 20
190.9054669999999874
 30
0.0
 11
305.3982589999999959
 21
192.9054669999999874
 31
0.0
  0
LINE
  5
271
100
AcDbEntity
100
AcDbLine
  8
FORT
 62
7
370
-1
  6
CONTINUOUS
 10
305.3982589999999959
 20
193.9054669999999874
 30
0.0
 11
305.3982589999999959
 21
198.9054669999999874
 31
0.0
  0
CIRCLE
  5
272
100
AcDbEntity
100
AcDbCircle
  8
FORT
 62
7
370
-1
  6
CONTINUOUS
 10
331.3982589999999959
 20
208.9479440000000068
 30
0.0
 40
8.0
  0
CIRCLE
  5
273
100
AcDbEntity
100
AcDbCircle
  8
FORT
 62
7
370
-1
  6
CONTINUOUS
 10
331.3982589999999959
 20
208.9479440000000068
 30
0.0
 40
10.0
  0
LINE
  5
274
100
AcDbEntity
100
AcDbLine
  8
FORT
 62
7
370
-1
  6
CONTINUOUS
 10
265.3982589999999959
 20
239.9479440000000068
 30
0.0
 11
345.3982589999999959
 21
239.9479440000000068
 31
0.0
  0
LINE
  5
275
100
AcDbEntity
100
AcDbLine
  8
FORT
 62
7
370
-1
  6
CONTINUOUS
 10
263.3982589999999959
 20
241.9479440000000068
 30
0.0
 11
347.3982589999999959
 21
241.9479440000000068
 31
0.0
  0
LINE
  5
276
100
AcDbEntity
100
AcDbLine
  8
FORT
 62
7
370
-1
  6
CONTINUOUS
 10
263.3982589999999959
 20
226.9479440000000068
 30
0.0
 11
263.3982589999999959
 21
241.9479440000000068
 31
0.0
  0
LINE
  5
277
100
AcDbEntity
100
AcDbLine
  8
FORT
 62
7
370
-1
  6
CONTINUOUS
 10
263.3982589999999959
 20
226.9479440000000068
 30
0.0
 11
265.3982589999999959
 21
226.9479440000000068
 31
0.0
  0
LINE
  5
278
100
AcDbEntity
100
AcDbLine
  8
FORT
 62
7
370
-1
  6
CONTINUOUS
 10
314.8168709999999919
 20
249.3047249999999906
 30
0.0
 11
305.3982589999999959
 21
249.3047249999999906
 31
0.0
  0
LINE
  5
279
100
AcDbEntity
100
AcDbLine
  8
FORT
 62
7
370
-1
  6
CONTINUOUS
 10
305.3982589999999959
 20
249.3047249999999906
 30
0.0
 11
308.1982590000000073
 21
248.3713909999999885
 31
0.0
  0
LINE
  5
27A
100
AcDbEntity
100
AcDbLine
  8
FORT
 62
7
370
-1
  6
CONTINUOUS
 10
305.3982589999999959
 20
249.3047249999999906
 30
0.0
 11
308.1982590000000073
 21
250.2380579999999952
 31
0.0
  0
MTEXT
  5
27B
100
AcDbEntity
100
AcDbMText
  8
TEXTE
 62
7
370
-1
  6
CONTINUOUS
 10
306.6801730000000248
 20
256.6727799999999888
 30
0.0
 40
5.0
 41
100.0
 71
9
 72
2
  1
A
  7
ISO9
 50
0.0
 73
0
 44
1.0
  0
LINE
  5
27C
100
AcDbEntity
100
AcDbLine
  8
FORT
 62
7
370
-1
  6
CONTINUOUS
 10
305.3982589999999959
 20
242.9713910000000112
 30
0.0
 11
305.3982589999999959
 21
240.9713910000000112
 31
0.0
  0
LINE
  5
27D
100
AcDbEntity
100
AcDbLine
  8
FORT
 62
7
370
-1
  6
CONTINUOUS
 10
305.3982589999999959
 20
239.9713910000000112
 30
0.0
 11
305.3982589999999959
 21
234.9713910000000112
 31
0.0
  0
LINE
  5
27E
100
AcDbEntity
100
AcDbLine
  8
FORT
 62
7
370
-1
  6
CONTINUOUS
 10
305.3982589999999959
 20
253.9713910000000112
 30
0.0
 11
305.3982589999999959
 21
243.9713910000000112
 31
0.0
  0
LINE
  5
27F
100
AcDbEntity
100
AcDbLine
  8
FORT
 62
7
370
-1
  6
CONTINUOUS
 10
347.3982589999999959
 20
226.9479440000000068
 30
0.0
 11
347.3982589999999959
 21
241.9479440000000068
 31
0.0
  0
LINE
  5
280
100
AcDbEntity
100
AcDbLine
  8
FORT
 62
7
370
-1
  6
CONTINUOUS
 10
345.3982589999999959
 20
226.9479440000000068
 30
0.0
 11
347.3982589999999959
 21
226.9479440000000068
 31
0.0
  0
LINE
  5
281
100
AcDbEntity
100
AcDbLine
  8
FIN
 62
256
370
-1
  6
ByLayer
 10
369.8109789999999748
 20
41.0
 30
0.0
 11
369.8109789999999748
 21
140.0
 31
0.0
  0
LINE
  5
282
100
AcDbEntity
100
AcDbLine
  8
FIN
 62
5
370
-1
  6
CONTINUOUS
 10
220.0
 20
30.5825658030890963
 30
0.0
 11
250.0
 21
30.5825658030890963
 31
0.0
  0
LINE
  5
283
100
AcDbEntity
100
AcDbLine
  8
FORT
 62
256
370
-1
  6
ByLayer
 10
224.8814435716547564
 20
26.9188689946106621
 30
0.0
 11
224.8814435716547564
 21
24.0904418698644704
 31
0.0
  0
LINE
  5
284
100
AcDbEntity
100
AcDbLine
  8
FORT
 62
256
370
-1
  6
ByLayer
 10
236.8814435716547564
 20
28.5046554322375663
 30
0.0
 11
236.8814435716547564
 21
22.5046554322375663
 31
0.0
  0
LINE
  5
285
100
AcDbEntity
100
AcDbLine
  8
FORT
 62
256
370
-1
  6
ByLayer
 10
236.8814435716547564
 20
28.5046554322375663
 30
0.0
 11
224.8814435716547564
 21
26.9188689946106621
 31
0.0
  0
LINE
  5
286
100
AcDbEntity
100
AcDbLine
  8
FORT
 62
256
370
-1
  6
ByLayer
 10
236.8814435716547564
 20
22.5046554322375663
 30
0.0
 11
224.8814435716547564
 21
24.0904418698644704
 31
0.0
  0
CIRCLE
  5
287
100
AcDbEntity
100
AcDbCircle
  8
FORT
 62
256
370
-1
  6
ByLayer
 10
242.8783639540679928
 20
25.5046554322375663
 30
0.0
 40
3.0
  0
CIRCLE
  5
288
100
AcDbEntity
100
AcDbCircle
  8
FORT
 62
256
370
-1
  6
ByLayer
 10
242.8783639540679928
 20
25.5046554322375663
 30
0.0
 40
1.4142135623730951
  0
LINE
  5
289
100
AcDbEntity
100
AcDbLine
  8
AXE
 62
256
370
-1
  6
ByLayer
 10
242.8783639540679928
 20
29.5046554322375663
 30
0.0
 11
242.8783639540679928
 21
21.5046554322375663
 31
0.0
  0
LINE
  5
28A
100
AcDbEntity
100
AcDbLine
  8
AXE
 62
256
370
-1
  6
ByLayer
 10
222.3024931506585915
 20
25.5046554322375663
 30
0.0
 11
247.9535704471489055
 21
25.5046554322375663
 31
0.0
  0
LINE
  5
28B
100
AcDbEntity
100
AcDbLine
  8
FIN
 62
256
370
-1
  6
ByLayer
 10
220.0
 20
41.0
 30
0.0
 11
220.0
 21
140.0
 31
0.0
  0
LINE
  5
28C
100
AcDbEntity
100
AcDbLine
  8
FORT
 62
7
370
-1
  6
CONTINUOUS
 10
10.0
 20
10.0
 30
0.0
 11
220.0
 21
10.0
 31
0.0
  0
LINE
  5
28D
100
AcDbEntity
100
AcDbLine
  8
RENFORCE
 62
256
370
-1
  6
ByLayer
 10
220.0
 20
41.0
 30
0.0
 11
220.0
 21
10.0
 31
0.0
  0
LINE
  5
28E
100
AcDbEntity
100
AcDbLine
  8
FORT
 62
7
370
-1
  6
CONTINUOUS
 10
410.0
 20
41.0
 30
0.0
 11
410.0
 21
287.0
 31
0.0
  0
LINE
  5
28F
100
AcDbEntity
100
AcDbLine
  8
RENFORCE
 62
256
370
-1
  6
ByLayer
 10
410.0
 20
41.0
 30
0.0
 11
410.0
 21
10.0
 31
0.0
  0
LINE
  5
290
100
AcDbEntity
100
AcDbLine
  8
RENFORCE
 62
256
370
-1
  6
ByLayer
 10
220.0
 20
41.0
 30
0.0
 11
410.0
 21
41.0
 31
0.0
  0
LINE
  5
291
100
AcDbEntity
100
AcDbLine
  8
RENFORCE
 62
256
370
-1
  6
ByLayer
 10
220.0
 20
10.0
 30
0.0
 11
410.0
 21
10.0
 31
0.0
  0
MTEXT
  5
292
100
AcDbEntity
100
AcDbMText
  8
TEXTE
 62
7
370
-1
  6
CONTINUOUS
 10
224.9359426571881215
 20
33.1431996719746564
 30
0.0
 40
5.0
 41
100.0
 71
7
 72
2
  1
Ech\~2:1
  7
ISO9
 50
0.0
 73
0
 44
1.0
  0
LINE
  5
293
100
AcDbEntity
100
AcDbLine
  8
AXE
 62
256
370
-1
  6
ByLayer
 10
305.3982589999999959
 20
198.9054669999999874
 30
0.0
 11
305.3982589999999959
 21
234.9713910000000112
 31
0.0
  0
LINE
  5
294
100
AcDbEntity
100
AcDbLine
  8
AXE
 62
256
370
-1
  6
ByLayer
 10
279.3982589999999959
 20
188.5278089999999906
 30
0.0
 11
279.3982589999999959
 21
229.368079999999992
 31
0.0
  0
LINE
  5
295
100
AcDbEntity
100
AcDbLine
  8
AXE
 62
256
370
-1
  6
ByLayer
 10
331.3982589999999959
 20
188.5278089999999906
 30
0.0
 11
331.3982589999999959
 21
229.368079999999992
 31
0.0
  0
LINE
  5
296
100
AcDbEntity
100
AcDbLine
  8
AXE
 62
256
370
-1
  6
ByLayer
 10
258.9781239999999798
 20
208.9479440000000068
 30
0.0
 11
351.8183950000000095
 21
208.9479440000000068
 31
0.0
  0
LINE
  5
297
100
AcDbEntity
100
AcDbLine
  8
AXE
 62
256
370
-1
  6
ByLayer
 10
40.5860630000000029
 20
208.9479440000000068
 30
0.0
 11
204.7356920000000002
 21
208.9479440000000068
 31
0.0
  0
LINE
  5
298
100
AcDbEntity
100
AcDbLine
  8
AXE
 62
256
370
-1
  6
ByLayer
 10
90.2494190000000032
 20
201.4479440000000068
 30
0.0
 11
123.766964999999999
 21
201.4479440000000068
 31
0.0
  0
LINE
  5
299
100
AcDbEntity
100
AcDbLine
  8
AXE
 62
256
370
-1
  6
ByLayer
 10
92.9122930000000053
 20
216.4479440000000068
 30
0.0
 11
126.7325759999999946
 21
216.4479440000000068
 31
0.0
  0
LINE
  5
29A
100
AcDbEntity
100
AcDbLine
  8
AXE
 62
256
370
-1
  6
ByLayer
 10
77.4590969999999999
 20
234.4479440000000068
 30
0.0
 11
101.6142870000000045
 21
234.4479440000000068
 31
0.0
  0
LINE
  5
29B
100
AcDbEntity
100
AcDbLine
  8
AXE
 62
256
370
-1
  6
ByLayer
 10
113.3039069999999953
 20
234.4479440000000068
 30
0.0
 11
135.9596150000000137
 21
234.4479440000000068
 31
0.0
  0
MTEXT
  5
29C
100
AcDbEntity
100
AcDbMText
  8
TEXTE
 62
7
370
70
  6
CONTINUOUS
 10
282.59707225445311
 20
27.0
 30
0.0
 40
7.0
 41
100.0
 71
7
 72
2
  1
ETAU\~D'HORLOGER
  7
ISO9
 50
0.0
 73
0
 44
1.0
  0
MTEXT
  5
29D
100
AcDbEntity
100
AcDbMText
  8
TEXTE
 62
7
370
-1
  6
CONTINUOUS
 10
268.6725446311701262
 20
12.6947080000000003
 30
0.0
 40
5.0
 41
100.0
 71
7
 72
2
  1
Dessin\~d'ensemble\~et\~nomenclature
  7
ISO9
 50
0.0
 73
0
 44
1.0
  0
MTEXT
  5
29E
100
AcDbEntity
100
AcDbMText
  8
TEXTE
 62
7
370
-1
  6
CONTINUOUS
 10
242.6826984270611263
 20
70.0
 30
0.0
 40
5.0
 41
100.0
 71
7
 72
2
  1
1
  7
ISO9
 50
0.0
 73
0
 44
1.0
  0
MTEXT
  5
29F
100
AcDbEntity
100
AcDbMText
  8
TEXTE
 62
7
370
-1
  6
CONTINUOUS
 10
255.4123724270611149
 20
70.0
 30
0.0
 40
5.0
 41
100.0
 71
7
 72
2
  1
Vis\~de\~serrage
  7
ISO9
 50
0.0
 73
0
 44
1.0
  0
MTEXT
  5
2A0
100
AcDbEntity
100
AcDbMText
  8
TEXTE
 62
7
370
-1
  6
CONTINUOUS
 10
255.4123724270611149
 20
52.0
 30
0.0
 40
5.0
 41
100.0
 71
7
 72
2
  1
Mors\~fixe
  7
ISO9
 50
0.0
 73
0
 44
1.0
  0
MTEXT
  5
2A1
100
AcDbEntity
100
AcDbMText
  8
TEXTE
 62
7
370
-1
  6
CONTINUOUS
 10
255.4123724270611149
 20
61.0
 30
0.0
 40
5.0
 41
100.0
 71
7
 72
2
  1
Mors\~mobile
  7
ISO9
 50
0.0
 73
0
 44
1.0
  0
MTEXT
  5
2A2
100
AcDbEntity
100
AcDbMText
  8
TEXTE
 62
7
370
-1
  6
CONTINUOUS
 10
240.6826984270611263
 20
43.0
 30
0.0
 40
5.0
 41
100.0
 71
7
 72
2
  1
NB.
  7
ISO9
 50
0.0
 73
0
 44
1.0
  0
MTEXT
  5
2A3
100
AcDbEntity
100
AcDbMText
  8
TEXTE
 62
7
370
-1
  6
CONTINUOUS
 10
242.6826984270611263
 20
52.0
 30
0.0
 40
5.0
 41
100.0
 71
7
 72
2
  1
1
  7
ISO9
 50
0.0
 73
0
 44
1.0
  0
MTEXT
  5
2A4
100
AcDbEntity
100
AcDbMText
  8
TEXTE
 62
7
370
-1
  6
CONTINUOUS
 10
242.6826984270611263
 20
61.0
 30
0.0
 40
5.0
 41
100.0
 71
7
 72
2
  1
1
  7
ISO9
 50
0.0
 73
0
 44
1.0
  0
MTEXT
  5
2A5
100
AcDbEntity
100
AcDbMText
  8
TEXTE
 62
7
370
-1
  6
CONTINUOUS
 10
255.4123724270611149
 20
88.0
 30
0.0
 40
5.0
 41
100.0
 71
7
 72
2
  1
Plaquette\~en\~v\U+00e9
  7
ISO9
 50
0.0
 73
0
 44
1.0
  0
MTEXT
  5
2A6
100
AcDbEntity
100
AcDbMText
  8
TEXTE
 62
7
370
-1
  6
CONTINUOUS
 10
255.4123724270611149
 20
106.0
 30
0.0
 40
5.0
 41
100.0
 71
7
 72
2
  1
Rondelle
  7
ISO9
 50
0.0
 73
0
 44
1.0
  0
MTEXT
  5
2A7
100
AcDbEntity
100
AcDbMText
  8
TEXTE
 62
7
370
-1
  6
CONTINUOUS
 10
242.6826984270611263
 20
106.0
 30
0.0
 40
5.0
 41
100.0
 71
7
 72
2
  1
1
  7
ISO9
 50
0.0
 73
0
 44
1.0
  0
MTEXT
  5
2A8
100
AcDbEntity
100
AcDbMText
  8
TEXTE
 62
7
370
-1
  6
CONTINUOUS
 10
255.4123724270611149
 20
79.0
 30
0.0
 40
5.0
 41
100.0
 71
7
 72
2
  1
Colonne
  7
ISO9
 50
0.0
 73
0
 44
1.0
  0
MTEXT
  5
2A9
100
AcDbEntity
100
AcDbMText
  8
TEXTE
 62
7
370
-1
  6
CONTINUOUS
 10
255.4123724270611149
 20
97.0
 30
0.0
 40
5.0
 41
100.0
 71
7
 72
2
  1
Plaquette
  7
ISO9
 50
0.0
 73
0
 44
1.0
  0
MTEXT
  5
2AA
100
AcDbEntity
100
AcDbMText
  8
TEXTE
 62
7
370
-1
  6
CONTINUOUS
 10
242.6826984270611263
 20
79.0
 30
0.0
 40
5.0
 41
100.0
 71
7
 72
2
  1
2
  7
ISO9
 50
0.0
 73
0
 44
1.0
  0
MTEXT
  5
2AB
100
AcDbEntity
100
AcDbMText
  8
TEXTE
 62
7
370
-1
  6
CONTINUOUS
 10
242.6826984270611263
 20
97.0
 30
0.0
 40
5.0
 41
100.0
 71
7
 72
2
  1
1
  7
ISO9
 50
0.0
 73
0
 44
1.0
  0
MTEXT
  5
2AC
100
AcDbEntity
100
AcDbMText
  8
TEXTE
 62
7
370
-1
  6
CONTINUOUS
 10
242.6826984270611263
 20
88.0
 30
0.0
 40
5.0
 41
100.0
 71
7
 72
2
  1
1
  7
ISO9
 50
0.0
 73
0
 44
1.0
  0
MTEXT
  5
2AD
100
AcDbEntity
100
AcDbMText
  8
TEXTE
 62
7
370
-1
  6
CONTINUOUS
 10
255.4123724270611149
 20
115.0
 30
0.0
 40
5.0
 41
100.0
 71
7
 72
2
  1
Ressort
  7
ISO9
 50
0.0
 73
0
 44
1.0
  0
MTEXT
  5
2AE
100
AcDbEntity
100
AcDbMText
  8
TEXTE
 62
7
370
-1
  6
CONTINUOUS
 10
255.4123724270611149
 20
124.0
 30
0.0
 40
5.0
 41
100.0
 71
7
 72
2
  1
Vis\~CB,\~M3-5
  7
ISO9
 50
0.0
 73
0
 44
1.0
  0
MTEXT
  5
2AF
100
AcDbEntity
100
AcDbMText
  8
TEXTE
 62
7
370
-1
  6
CONTINUOUS
 10
242.6826984270611263
 20
115.0
 30
0.0
 40
5.0
 41
100.0
 71
7
 72
2
  1
1
  7
ISO9
 50
0.0
 73
0
 44
1.0
  0
MTEXT
  5
2B0
100
AcDbEntity
100
AcDbMText
  8
TEXTE
 62
7
370
-1
  6
CONTINUOUS
 10
242.6826984270611263
 20
124.0
 30
0.0
 40
5.0
 41
100.0
 71
7
 72
2
  1
4
  7
ISO9
 50
0.0
 73
0
 44
1.0
  0
MTEXT
  5
2B1
100
AcDbEntity
100
AcDbMText
  8
TEXTE
 62
7
370
-1
  6
CONTINUOUS
 10
242.6826984270611263
 20
133.0
 30
0.0
 40
5.0
 41
100.0
 71
7
 72
2
  1
2
  7
ISO9
 50
0.0
 73
0
 44
1.0
  0
LINE
  5
2B2
100
AcDbEntity
100
AcDbLine
  8
FIN
 62
256
370
-1
  6
ByLayer
 10
236.6826984270611263
 20
41.0
 30
0.0
 11
236.6826984270611263
 21
140.0
 31
0.0
  0
LINE
  5
2B3
100
AcDbEntity
100
AcDbLine
  8
FIN
 62
256
370
-1
  6
ByLayer
 10
251.6826984270611263
 20
41.0
 30
0.0
 11
251.6826984270611263
 21
140.0
 31
0.0
  0
MTEXT
  5
2B4
100
AcDbEntity
100
AcDbMText
  8
TEXTE
 62
7
370
-1
  6
CONTINUOUS
 10
255.4123724270611149
 20
133.0
 30
0.0
 40
5.0
 41
100.0
 71
7
 72
2
  1
Goupille\~\U+00e9lastique\~5x15
  7
ISO9
 50
0.0
 73
0
 44
1.0
  0
MTEXT
  5
2B5
100
AcDbEntity
100
AcDbMText
  8
TEXTE
 62
7
370
-1
  6
CONTINUOUS
 10
338.9951961427613014
 20
106.0
 30
0.0
 40
5.0
 41
100.0
 71
7
 72
2
  1
CW612N
  7
ISO9
 50
0.0
 73
0
 44
1.0
  0
MTEXT
  5
2B6
100
AcDbEntity
100
AcDbMText
  8
TEXTE
 62
7
370
-1
  6
CONTINUOUS
 10
338.9951961427613014
 20
97.0
 30
0.0
 40
5.0
 41
100.0
 71
7
 72
2
  1
CW612N
  7
ISO9
 50
0.0
 73
0
 44
1.0
  0
MTEXT
  5
2B7
100
AcDbEntity
100
AcDbMText
  8
TEXTE
 62
7
370
-1
  6
CONTINUOUS
 10
338.9951961427613014
 20
88.0
 30
0.0
 40
5.0
 41
100.0
 71
7
 72
2
  1
CW612N
  7
ISO9
 50
0.0
 73
0
 44
1.0
  0
MTEXT
  5
2B8
100
AcDbEntity
100
AcDbMText
  8
TEXTE
 62
7
370
-1
  6
CONTINUOUS
 10
338.9951961427613014
 20
70.0
 30
0.0
 40
5.0
 41
100.0
 71
7
 72
2
  1
C\~60
  7
ISO9
 50
0.0
 73
0
 44
1.0
  0
MTEXT
  5
2B9
100
AcDbEntity
100
AcDbMText
  8
TEXTE
 62
7
370
-1
  6
CONTINUOUS
 10
338.9951961427613014
 20
61.0
 30
0.0
 40
5.0
 41
100.0
 71
7
 72
2
  1
C\~35
  7
ISO9
 50
0.0
 73
0
 44
1.0
  0
MTEXT
  5
2BA
100
AcDbEntity
100
AcDbMText
  8
TEXTE
 62
7
370
-1
  6
CONTINUOUS
 10
338.9951961427613014
 20
52.0
 30
0.0
 40
5.0
 41
100.0
 71
7
 72
2
  1
C\~35
  7
ISO9
 50
0.0
 73
0
 44
1.0
  0
MTEXT
  5
2BB
100
AcDbEntity
100
AcDbMText
  8
TEXTE
 62
7
370
-1
  6
CONTINUOUS
 10
338.9951961427613014
 20
79.0
 30
0.0
 40
5.0
 41
100.0
 71
7
 72
2
  1
Stub
  7
ISO9
 50
0.0
 73
0
 44
1.0
  0
MTEXT
  5
2BC
100
AcDbEntity
100
AcDbMText
  8
TEXTE
 62
7
370
-1
  6
CONTINUOUS
 10
338.9951961427613014
 20
115.0
 30
0.0
 40
5.0
 41
100.0
 71
7
 72
2
  1
C\~60
  7
ISO9
 50
0.0
 73
0
 44
1.0
  0
LINE
  5
2BD
100
AcDbEntity
100
AcDbLine
  8
FIN
 62
256
370
-1
  6
ByLayer
 10
335.2655221427613128
 20
41.0
 30
0.0
 11
335.2655221427613128
 21
140.0
 31
0.0
  0
LINE
  5
2BE
100
AcDbEntity
100
AcDbLine
  8
AXE
 62
256
370
-1
  6
ByLayer
 10
42.2942839999999975
 20
133.8929080000000056
 30
0.0
 11
154.938479000000001
 21
133.8929080000000056
 31
0.0
  0
LINE
  5
2BF
100
AcDbEntity
100
AcDbLine
  8
AXE
 62
256
370
-1
  6
ByLayer
 10
40.5860630000000029
 20
107.8929080000000056
 30
0.0
 11
204.7356920000000002
 21
107.8929080000000056
 31
0.0
  0
LINE
  5
2C0
100
AcDbEntity
100
AcDbLine
  8
AXE
 62
256
370
-1
  6
ByLayer
 10
42.2942839999999975
 20
81.8929080000000056
 30
0.0
 11
154.938479000000001
 21
81.8929080000000056
 31
0.0
  0
LINE
  5
2C1
100
AcDbEntity
100
AcDbLine
  8
AXE
 62
256
370
-1
  6
ByLayer
 10
77.4590969999999999
 20
79.8929080000000056
 30
0.0
 11
101.6142870000000045
 21
79.8929080000000056
 31
0.0
  0
LINE
  5
2C2
100
AcDbEntity
100
AcDbLine
  8
AXE
 62
256
370
-1
  6
ByLayer
 10
133.9590970000000141
 20
127.4026719999999955
 30
0.0
 11
133.9590970000000141
 21
140.3831439999999873
 31
0.0
  0
LINE
  5
2C3
100
AcDbEntity
100
AcDbLine
  8
FIN
 62
256
370
-1
  6
ByLayer
 10
99.4590969999999999
 20
40.0
 30
0.0
 11
109.4590969999999999
 21
40.0
 31
0.0
  0
LINE
  5
2C4
100
AcDbEntity
100
AcDbLine
  8
FIN
 62
256
370
-1
  6
ByLayer
 10
89.4590969999999999
 20
40.0
 30
0.0
 11
79.4590969999999999
 21
40.0
 31
0.0
  0
LINE
  5
2C5
100
AcDbEntity
100
AcDbLine
  8
FIN
 62
256
370
-1
  6
ByLayer
 10
119.4590969999999999
 20
40.0
 30
0.0
 11
129.4590970000000141
 21
40.0
 31
0.0
  0
LINE
  5
2C6
100
AcDbEntity
100
AcDbLine
  8
FIN
 62
256
370
-1
  6
ByLayer
 10
99.4590969999999999
 20
170.0
 30
0.0
 11
109.4590969999999999
 21
170.0
 31
0.0
  0
LINE
  5
2C7
100
AcDbEntity
100
AcDbLine
  8
FIN
 62
256
370
-1
  6
ByLayer
 10
89.4590969999999999
 20
170.0
 30
0.0
 11
79.4590969999999999
 21
170.0
 31
0.0
  0
LINE
  5
2C8
100
AcDbEntity
100
AcDbLine
  8
FIN
 62
256
370
-1
  6
ByLayer
 10
69.4590969999999999
 20
170.0
 30
0.0
 11
59.4590969999999999
 21
170.0
 31
0.0
  0
LINE
  5
2C9
100
AcDbEntity
100
AcDbLine
  8
FIN
 62
256
370
-1
  6
ByLayer
 10
119.4590969999999999
 20
170.0
 30
0.0
 11
129.4590970000000141
 21
170.0
 31
0.0
  0
LINE
  5
2CA
100
AcDbEntity
100
AcDbLine
  8
FIN
 62
256
370
-1
  6
ByLayer
 10
139.4590970000000141
 20
170.0
 30
0.0
 11
149.4590970000000141
 21
170.0
 31
0.0
  0
LINE
  5
2CB
100
AcDbEntity
100
AcDbLine
  8
FIN
 62
256
370
-1
  6
ByLayer
 10
159.4590970000000141
 20
170.0
 30
0.0
 11
169.4590970000000141
 21
170.0
 31
0.0
  0
LINE
  5
2CC
100
AcDbEntity
100
AcDbLine
  8
FIN
 62
256
370
-1
  6
ByLayer
 10
179.4590970000000141
 20
170.0
 30
0.0
 11
189.4590970000000141
 21
170.0
 31
0.0
  0
LINE
  5
2CD
100
AcDbEntity
100
AcDbLine
  8
FORT
 62
256
370
-1
  6
ByLayer
 10
151.9590970000000141
 20
99.8929080000000056
 30
0.0
 11
171.9590970000000141
 21
119.8929080000000056
 31
0.0
  0
LINE
  5
2CE
100
AcDbEntity
100
AcDbLine
  8
FORT
 62
256
370
-1
  6
ByLayer
 10
151.9590970000000141
 20
103.8929080000000056
 30
0.0
 11
167.9590970000000141
 21
119.8929080000000056
 31
0.0
  0
LINE
  5
2CF
100
AcDbEntity
100
AcDbLine
  8
FORT
 62
256
370
-1
  6
ByLayer
 10
151.9590970000000141
 20
107.8929080000000056
 30
0.0
 11
163.9590970000000141
 21
119.8929080000000056
 31
0.0
  0
LINE
  5
2D0
100
AcDbEntity
100
AcDbLine
  8
FORT
 62
256
370
-1
  6
ByLayer
 10
161.9590970000000141
 20
109.8929080000000056
 30
0.0
 11
151.9590970000000141
 21
119.8929080000000056
 31
0.0
  0
LINE
  5
2D1
100
AcDbEntity
100
AcDbLine
  8
FORT
 62
256
370
-1
  6
ByLayer
 10
151.9590970000000141
 20
115.8929080000000056
 30
0.0
 11
159.9590970000000141
 21
107.8929080000000056
 31
0.0
  0
LINE
  5
2D2
100
AcDbEntity
100
AcDbLine
  8
FORT
 62
256
370
-1
  6
ByLayer
 10
151.9590970000000141
 20
111.8929080000000056
 30
0.0
 11
157.9590970000000141
 21
105.8929080000000056
 31
0.0
  0
LINE
  5
2D3
100
AcDbEntity
100
AcDbLine
  8
FORT
 62
256
370
-1
  6
ByLayer
 10
155.9590970000000141
 20
103.8929080000000056
 30
0.0
 11
151.9590970000000141
 21
107.8929080000000056
 31
0.0
  0
LINE
  5
2D4
100
AcDbEntity
100
AcDbLine
  8
FORT
 62
256
370
-1
  6
ByLayer
 10
151.9590970000000141
 20
103.8929080000000056
 30
0.0
 11
153.9590970000000141
 21
101.8929080000000056
 31
0.0
  0
LINE
  5
2D5
100
AcDbEntity
100
AcDbLine
  8
FORT
 62
256
370
-1
  6
ByLayer
 10
151.9590970000000141
 20
111.8929080000000056
 30
0.0
 11
159.9590970000000141
 21
119.8929080000000056
 31
0.0
  0
LINE
  5
2D6
100
AcDbEntity
100
AcDbLine
  8
FORT
 62
256
370
-1
  6
ByLayer
 10
151.9590970000000141
 20
115.8929080000000056
 30
0.0
 11
155.9590970000000141
 21
119.8929080000000056
 31
0.0
  0
LINE
  5
2D7
100
AcDbEntity
100
AcDbLine
  8
FORT
 62
256
370
-1
  6
ByLayer
 10
163.9590970000000141
 20
111.8929080000000056
 30
0.0
 11
155.9590970000000141
 21
119.8929080000000056
 31
0.0
  0
LINE
  5
2D8
100
AcDbEntity
100
AcDbLine
  8
FORT
 62
256
370
-1
  6
ByLayer
 10
167.9590970000000141
 20
119.8929080000000056
 30
0.0
 11
169.9590970000000141
 21
117.8929080000000056
 31
0.0
  0
LINE
  5
2D9
100
AcDbEntity
100
AcDbLine
  8
FORT
 62
256
370
-1
  6
ByLayer
 10
163.9590970000000141
 20
119.8929080000000056
 30
0.0
 11
167.9590970000000141
 21
115.8929080000000056
 31
0.0
  0
LINE
  5
2DA
100
AcDbEntity
100
AcDbLine
  8
FORT
 62
256
370
-1
  6
ByLayer
 10
165.9590970000000141
 20
113.8929080000000056
 30
0.0
 11
159.9590970000000141
 21
119.8929080000000056
 31
0.0
  0
LINE
  5
2DB
100
AcDbEntity
100
AcDbLine
  8
FORT
 62
256
370
-1
  6
ByLayer
 10
151.9590970000000141
 20
200.9479440000000068
 30
0.0
 11
171.9590970000000141
 21
220.9479440000000068
 31
0.0
  0
LINE
  5
2DC
100
AcDbEntity
100
AcDbLine
  8
FORT
 62
256
370
-1
  6
ByLayer
 10
151.9590970000000141
 20
204.9479440000000068
 30
0.0
 11
167.9590970000000141
 21
220.9479440000000068
 31
0.0
  0
LINE
  5
2DD
100
AcDbEntity
100
AcDbLine
  8
FORT
 62
256
370
-1
  6
ByLayer
 10
151.9590970000000141
 20
208.9479440000000068
 30
0.0
 11
163.9590970000000141
 21
220.9479440000000068
 31
0.0
  0
LINE
  5
2DE
100
AcDbEntity
100
AcDbLine
  8
FORT
 62
256
370
-1
  6
ByLayer
 10
161.9590970000000141
 20
210.9479440000000068
 30
0.0
 11
151.9590970000000141
 21
220.9479440000000068
 31
0.0
  0
LINE
  5
2DF
100
AcDbEntity
100
AcDbLine
  8
FORT
 62
256
370
-1
  6
ByLayer
 10
151.9590970000000141
 20
216.9479440000000068
 30
0.0
 11
159.9590970000000141
 21
208.9479440000000068
 31
0.0
  0
LINE
  5
2E0
100
AcDbEntity
100
AcDbLine
  8
FORT
 62
256
370
-1
  6
ByLayer
 10
151.9590970000000141
 20
212.9479440000000068
 30
0.0
 11
157.9590970000000141
 21
206.9479440000000068
 31
0.0
  0
LINE
  5
2E1
100
AcDbEntity
100
AcDbLine
  8
FORT
 62
256
370
-1
  6
ByLayer
 10
155.9590970000000141
 20
204.9479440000000068
 30
0.0
 11
151.9590970000000141
 21
208.9479440000000068
 31
0.0
  0
LINE
  5
2E2
100
AcDbEntity
100
AcDbLine
  8
FORT
 62
256
370
-1
  6
ByLayer
 10
151.9590970000000141
 20
204.9479440000000068
 30
0.0
 11
153.9590970000000141
 21
202.9479440000000068
 31
0.0
  0
LINE
  5
2E3
100
AcDbEntity
100
AcDbLine
  8
FORT
 62
256
370
-1
  6
ByLayer
 10
151.9590970000000141
 20
212.9479440000000068
 30
0.0
 11
159.9590970000000141
 21
220.9479440000000068
 31
0.0
  0
LINE
  5
2E4
100
AcDbEntity
100
AcDbLine
  8
FORT
 62
256
370
-1
  6
ByLayer
 10
151.9590970000000141
 20
216.9479440000000068
 30
0.0
 11
155.9590970000000141
 21
220.9479440000000068
 31
0.0
  0
LINE
  5
2E5
100
AcDbEntity
100
AcDbLine
  8
FORT
 62
256
370
-1
  6
ByLayer
 10
163.9590970000000141
 20
212.9479440000000068
 30
0.0
 11
155.9590970000000141
 21
220.9479440000000068
 31
0.0
  0
LINE
  5
2E6
100
AcDbEntity
100
AcDbLine
  8
FORT
 62
256
370
-1
  6
ByLayer
 10
167.9590970000000141
 20
220.9479440000000068
 30
0.0
 11
169.9590970000000141
 21
218.9479440000000068
 31
0.0
  0
LINE
  5
2E7
100
AcDbEntity
100
AcDbLine
  8
FORT
 62
256
370
-1
  6
ByLayer
 10
163.9590970000000141
 20
220.9479440000000068
 30
0.0
 11
167.9590970000000141
 21
216.9479440000000068
 31
0.0
  0
LINE
  5
2E8
100
AcDbEntity
100
AcDbLine
  8
FORT
 62
256
370
-1
  6
ByLayer
 10
165.9590970000000141
 20
214.9479440000000068
 30
0.0
 11
159.9590970000000141
 21
220.9479440000000068
 31
0.0
  0
LINE
  5
2E9
100
AcDbEntity
100
AcDbLine
  8
FIN
 62
256
370
-1
  6
ByLayer
 10
220.0
 20
50.0
 30
0.0
 11
410.0
 21
50.0
 31
0.0
  0
ENDSEC
  0
SECTION
  2
OBJECTS
  0
DICTIONARY
  5
C
100
AcDbDictionary
280
0
281
1
  3
ACAD_GROUP
350
D
  3
ACAD_LAYOUT
350
1A
  3
ACAD_MLINESTYLE
350
17
  3
ACAD_PLOTSETTINGS
350
19
  3
ACAD_PLOTSTYLENAME
350
E
  3
AcDbVariableDictionary
350
2EA
  0
DICTIONARY
  5
D
100
AcDbDictionary
280
0
281
1
  0
ACDBDICTIONARYWDFLT
  5
E
100
AcDbDictionary
281
1
  3
Normal
350
F
100
AcDbDictionaryWithDefault
340
F
  0
ACDBPLACEHOLDER
  5
F
  0
DICTIONARY
  5
17
100
AcDbDictionary
280
0
281
1
  3
Standard
350
18
  0
MLINESTYLE
  5
18
100
AcDbMlineStyle
  2
STANDARD
 70
0
  3

 62
256
 51
90.0
 52
90.0
 71
2
 49
0.5
 62
256
  6
BYLAYER
 49
-0.5
 62
256
  6
BYLAYER
  0
DICTIONARY
  5
19
100
AcDbDictionary
280
0
281
1
  0
DICTIONARY
  5
1A
100
AcDbDictionary
281
1
  3
Layout1
350
1E
  3
Layout2
350
26
  3
Model
350
22
  0
LAYOUT
  5
1E
100
AcDbPlotSettings
  1

  2
C:\Program Files\AutoCAD 2002\plotters\DWF ePlot (optimized for plotting).pc3
  4

  6

 40
0.0
 41
0.0
 42
0.0
 43
0.0
 44
0.0
 45
0.0
 46
0.0
 47
0.0
 48
0.0
 49
0.0
140
0.0
141
0.0
142
1.0
143
1.0
 70
688
 72
0
 73
0
 74
5
  7

 75
16
147
1.0
148
0.0
149
0.0
100
AcDbLayout
  1
Layout1
 70
1
 71
1
 10
0.0
 20
0.0
 11
420.0
 21
297.0
 12
0.0
 22
0.0
 32
0.0
 14
100000000000000000000.0
 24
100000000000000000000.0
 34
100000000000000000000.0
 15
-100000000000000000000.0
 25
-100000000000000000000.0
 35
-100000000000000000000.0
146
0.0
 13
0.0
 23
0.0
 33
0.0
 16
1.0
 26
0.0
 36
0.0
 17
0.0
 27
1.0
 37
0.0
 76
0
330
1B
  0
LAYOUT
  5
22
100
AcDbPlotSettings
  1

  2
C:\Program Files\AutoCAD 2002\plotters\DWF ePlot (optimized for plotting).pc3
  4

  6

 40
0.0
 41
0.0
 42
0.0
 43
0.0
 44
0.0
 45
0.0
 46
0.0
 47
0.0
 48
0.0
 49
0.0
140
0.0
141
0.0
142
1.0
143
1.0
 70
1712
 72
0
 73
0
 74
0
  7

 75
0
147
1.0
148
0.0
149
0.0
100
AcDbLayout
  1
Model
 70
1
 71
0
 10
0.0
 20
0.0
 11
12.0
 21
9.0
 12
0.0
 22
0.0
 32
0.0
 14
0.0
 24
0.0
 34
0.0
 15
0.0
 25
0.0
 35
0.0
146
0.0
 13
0.0
 23
0.0
 33
0.0
 16
1.0
 26
0.0
 36
0.0
 17
0.0
 27
1.0
 37
0.0
 76
0
330
1F
  0
LAYOUT
  5
26
100
AcDbPlotSettings
  1

  2
C:\Program Files\AutoCAD 2002\plotters\DWF ePlot (optimized for plotting).pc3
  4

  6

 40
0.0
 41
0.0
 42
0.0
 43
0.0
 44
0.0
 45
0.0
 46
0.0
 47
0.0
 48
0.0
 49
0.0
140
0.0
141
0.0
142
1.0
143
1.0
 70
688
 72
0
 73
0
 74
5
  7

 75
16
147
1.0
148
0.0
149
0.0
100
AcDbLayout
  1
Layout2
 70
1
 71
2
 10
0.0
 20
0.0
 11
12.0
 21
9.0
 12
0.0
 22
0.0
 32
0.0
 14
0.0
 24
0.0
 34
0.0
 15
0.0
 25
0.0
 35
0.0
146
0.0
 13
0.0
 23
0.0
 33
0.0
 16
1.0
 26
0.0
 36
0.0
 17
0.0
 27
1.0
 37
0.0
 76
0
330
23
  0
DICTIONARY
  5
2EA
100
AcDbDictionary
281
1
  3
DIMASSOC
350
2EC
  3
HIDETEXT
350
2EB
  0
DICTIONARYVAR
  5
2EB
100
DictionaryVariables
280
0
  1
2
  0
DICTIONARYVAR
  5
2EC
100
DictionaryVariables
280
0
  1
1
  0
ENDSEC
  0
EOF
