999
dxfrw 0.6.3
  0
SECTION
  2
HEADER
  9
$ACADVER
  1
AC1021
  9
$DWGCODEPAGE
  3
ANSI_1252
  9
$INSBASE
 10
0
 20
0
 30
0
  9
$EXTMIN
 10
10
 20
10
 30
0
  9
$EXTMAX
 10
410
 20
287
 30
0
  9
$LIMMIN
 10
-0.696377
 20
-4.592784
  9
$LIMMAX
 10
489.604069
 20
301.592784
  9
$ORTHOMODE
 70
    0
  9
$REGENMODE
 70
    1
  9
$FILLMODE
 70
    1
  9
$QTEXTMODE
 70
    0
  9
$MIRRTEXT
 70
    0
  9
$LTSCALE
 40
0.3
  9
$ATTMODE
 70
    1
  9
$TEXTSIZE
 40
0.2
  9
$TRACEWID
 40
0.05
  9
$TEXTSTYLE
  7
STANDARD
  9
$CLAYER
  8
INTERROMPU
  9
$CELTYPE
  6
CONTINUOUS
  9
$CECOLOR
 62
    7
  9
$CELTSCALE
 40
1
  9
$DISPSILH
 70
    0
  9
$DIMSCALE
 40
1
  9
$DIMASZ
 40
0.18
  9
$DIMEXO
 40
0.0625
  9
$DIMDLI
 40
0.38
  9
$DIMRND
 40
0
  9
$DIMDLE
 40
0
  9
$DIMEXE
 40
0.18
  9
$DIMTP
 40
0
  9
$DIMTM
 40
0
  9
$DIMTXT
 40
0.18
  9
$DIMCEN
 40
0.09
  9
$DIMTSZ
 40
0
  9
$DIMTOL
 70
    0
  9
$DIMLIM
 70
    0
  9
$DIMTIH
 70
    1
  9
$DIMTOH
 70
    1
  9
$DIMSE1
 70
    0
  9
$DIMSE2
 70
    0
  9
$DIMTAD
 70
    0
  9
$DIMZIN
 70
    0
  9
$DIMBLK
  1

  9
$DIMASO
 70
    1
  9
$DIMSHO
 70
    1
  9
$DIMPOST
  1

  9
$DIMAPOST
  1

  9
$DIMALT
 70
    0
  9
$DIMALTD
 70
    2
  9
$DIMALTF
 40
25.4
  9
$DIMLFAC
 40
1
  9
$DIMTOFL
 70
    1
  9
$DIMTVP
 40
0
  9
$DIMTIX
 70
    0
  9
$DIMSOXD
 70
    0
  9
$DIMSAH
 70
    0
  9
$DIMBLK1
  1

  9
$DIMBLK2
  1

  9
$DIMSTYLE
  2
Standard
  9
$DIMCLRD
 70
    0
  9
$DIMCLRE
 70
    0
  9
$DIMCLRT
 70
    0
  9
$DIMTFAC
 40
1
  9
$DIMGAP
 40
0.625
  9
$DIMJUST
 70
    0
  9
$DIMSD1
 70
    0
  9
$DIMSD2
 70
    0
  9
$DIMTOLJ
 70
    0
  9
$DIMTZIN
 70
    8
  9
$DIMALTZ
 70
    0
  9
$DIMALTTZ
 70
    0
  9
$DIMUPT
 70
    0
  9
$DIMDEC
 70
    2
  9
$DIMTDEC
 70
    2
  9
$DIMALTU
 70
    2
  9
$DIMALTTD
 70
    3
  9
$DIMTXSTY
  7
STANDARD
  9
$DIMAUNIT
 70
    0
  9
$DIMADEC
 70
    0
  9
$DIMALTRND
 40
0
  9
$DIMAZIN
 70
    0
  9
$DIMDSEP
 70
   44
  9
$DIMATFIT
 70
    3
  9
$DIMFRAC
 70
    0
  9
$DIMLDRBLK
  1
STANDARD
  9
$DIMLUNIT
 70
    2
  9
$DIMLWD
 70
   -2
  9
$DIMLWE
 70
   -2
  9
$DIMTMOVE
 70
    0
  9
$DIMFXL
 40
1
  9
$DIMFXLON
 70
    0
  9
$DIMJOGANG
 40
0.7854
  9
$DIMTFILL
 70
    0
  9
$DIMTFILLCLR
 70
    0
  9
$DIMARCSYM
 70
    0
  9
$DIMLTYPE
  6

  9
$DIMLTEX1
  6

  9
$DIMLTEX2
  6

  9
$LUNITS
 70
    2
  9
$LUPREC
 70
    4
  9
$SKETCHINC
 40
0.1
  9
$FILLETRAD
 40
10
  9
$AUNITS
 70
    0
  9
$AUPREC
 70
    0
  9
$MENU
  1
acad
  9
$ELEVATION
 40
0
  9
$PELEVATION
 40
0
  9
$THICKNESS
 40
0
  9
$LIMCHECK
 70
    0
  9
$CHAMFERA
 40
10
  9
$CHAMFERB
 40
10
  9
$CHAMFERC
 40
0
  9
$CHAMFERD
 40
0
  9
$SKPOLY
 70
    0
  9
$USRTIMER
 70
    1
  9
$ANGBASE
 50
0
  9
$ANGDIR
 70
    0
  9
$PDMODE
 70
    0
  9
$PDSIZE
 40
0
  9
$PLINEWID
 40
0
  9
$SPLFRAME
 70
    0
  9
$SPLINETYPE
 70
    2
  9
$SPLINESEGS
 70
   10
  9
$HANDSEED
  5
20000
  9
$SURFTAB1
 70
    6
  9
$SURFTAB2
 70
    6
  9
$SURFTYPE
 70
    6
  9
$SURFU
 70
    6
  9
$SURFV
 70
    6
  9
$UCSBASE
  2

  9
$UCSNAME
  2

  9
$UCSORG
 10
0
 20
0
 30
0
  9
$UCSXDIR
 10
1
 20
0
 30
0
  9
$UCSYDIR
 10
0
 20
1
 30
0
  9
$UCSORTHOREF
  2

  9
$UCSORTHOVIEW
 70
    0
  9
$UCSORGTOP
 10
0
 20
0
 30
0
  9
$UCSORGBOTTOM
 10
0
 20
0
 30
0
  9
$UCSORGLEFT
 10
0
 20
0
 30
0
  9
$UCSORGRIGHT
 10
0
 20
0
 30
0
  9
$UCSORGFRONT
 10
0
 20
0
 30
0
  9
$UCSORGBACK
 10
0
 20
0
 30
0
  9
$PUCSBASE
  2

  9
$PUCSNAME
  2

  9
$PUCSORG
 10
0
 20
0
 30
0
  9
$PUCSXDIR
 10
1
 20
0
 30
0
  9
$PUCSYDIR
 10
0
 20
1
 30
0
  9
$PUCSORTHOREF
  2

  9
$PUCSORTHOVIEW
 70
    0
  9
$PUCSORGTOP
 10
0
 20
0
 30
0
  9
$PUCSORGBOTTOM
 10
0
 20
0
 30
0
  9
$PUCSORGLEFT
 10
0
 20
0
 30
0
  9
$PUCSORGRIGHT
 10
0
 20
0
 30
0
  9
$PUCSORGFRONT
 10
0
 20
0
 30
0
  9
$PUCSORGBACK
 10
0
 20
0
 30
0
  9
$USERI1
 70
    0
  9
$USERI2
 70
    0
  9
$USERI3
 70
    0
  9
$USERI4
 70
    0
  9
$USERI5
 70
    0
  9
$USERR1
 40
0
  9
$USERR2
 40
0
  9
$USERR3
 40
0
  9
$USERR4
 40
0
  9
$USERR5
 40
0
  9
$WORLDVIEW
 70
    1
  9
$SHADEDGE
 70
    3
  9
$SHADEDIF
 70
   70
  9
$TILEMODE
 70
    1
  9
$MAXACTVP
 70
   64
  9
$PINSBASE
 10
-0.9029702970296967
 20
1.176237623762376
 30
0
  9
$PLIMCHECK
 70
    0
  9
$PEXTMIN
 10
0
 20
0
 30
0
  9
$PEXTMAX
 10
0
 20
0
 30
0
  9
$GRIDMODE
 70
    1
  9
$SNAPSTYLE
 70
    0
  9
$GRIDUNIT
 10
1
 20
1
  9
$VIEWCTR
 10
6
 20
4.5
  9
$PLIMMIN
 10
0
 20
0
  9
$PLIMMAX
 10
420
 20
297
  9
$UNITMODE
 70
    0
  9
$VISRETAIN
 70
    1
  9
$PLINEGEN
 70
    0
  9
$PSLTSCALE
 70
    1
  9
$TREEDEPTH
 70
 3020
  9
$CMLSTYLE
  2
Standard
  9
$CMLJUST
 70
    0
  9
$CMLSCALE
 40
20
  9
$PROXYGRAPHICS
 70
    1
  9
$MEASUREMENT
 70
    1
  9
$CELWEIGHT
370
   -1
  9
$ENDCAPS
280
    0
  9
$JOINSTYLE
280
    0
  9
$LWDISPLAY
290
    0
  9
$INSUNITS
 70
    4
  9
$HYPERLINKBASE
  1

  9
$STYLESHEET
  1

  9
$XEDIT
290
    1
  9
$CEPSNTYPE
380
    0
  9
$PSTYLEMODE
290
    1
  9
$EXTNAMES
290
    1
  9
$PSVPSCALE
 40
1
  9
$OLESTARTUP
290
    0
  9
$SORTENTS
280
  127
  9
$INDEXCTL
280
    0
  9
$HIDETEXT
280
    1
  9
$XCLIPFRAME
290
    0
  9
$HALOGAP
280
    0
  9
$OBSCOLOR
 70
  257
  9
$OBSLTYPE
280
    0
  9
$INTERSECTIONDISPLAY
280
    0
  9
$INTERSECTIONCOLOR
 70
  257
  9
$DIMASSOC
280
    1
  9
$PROJECTNAME
  1

  9
$CAMERADISPLAY
290
    0
  9
$LENSLENGTH
 40
50
  9
$CAMERAHEIGHT
 40
0
  9
$STEPSPERSEC
 40
2
  9
$STEPSIZE
 40
50
  9
$3DDWFPREC
 40
2
  9
$PSOLWIDTH
 40
5
  9
$PSOLHEIGHT
 40
80
  9
$LOFTANG1
 40
1.570796326794897
  9
$LOFTANG2
 40
1.570796326794897
  9
$LOFTMAG1
 40
0
  9
$LOFTMAG2
 40
0
  9
$LOFTPARAM
 70
    7
  9
$LOFTNORMALS
280
    1
  9
$LATITUDE
 40
1
  9
$LONGITUDE
 40
1
  9
$NORTHDIRECTION
 40
0
  9
$TIMEZONE
 70
-8000
  9
$LIGHTGLYPHDISPLAY
280
    1
  9
$TILEMODELIGHTSYNCH
280
    1
  9
$SOLIDHIST
280
    1
  9
$SHOWHIST
280
    1
  9
$DWFFRAME
280
    2
  9
$DGNFRAME
280
    0
  9
$REALWORLDSCALE
290
    1
  9
$INTERFERECOLOR
 62
    1
  9
$CSHADOW
280
    0
  9
$SHADOWPLANELOCATION
 40
0
  0
ENDSEC
  0
SECTION
  2
CLASSES
  0
ENDSEC
  0
SECTION
  2
TABLES
  0
TABLE
  2
VPORT
  5
8
330
0
100
AcDbSymbolTable
 70
    1
  0
VPORT
  5
31
330
2
100
AcDbSymbolTableRecord
100
AcDbViewportTableRecord
  2
*ACTIVE
 70
    0
 10
0
 20
0
 11
1
 21
1
 12
186.0828689655178
 22
133.1433931034487
 13
0
 23
0
 14
10
 24
10
 15
1
 25
1
 16
0
 26
0
 36
1
 17
0
 27
0
 37
0
 40
146.7144827586212
 41
1.565
 42
50
 43
0
 44
0
 50
0
 51
0
 71
    0
 72
  100
 73
    1
 74
    3
 75
    0
 76
    1
 77
    0
 78
    0
281
    0
 65
    1
110
0
120
0
130
0
111
1
121
0
131
0
112
0
122
1
132
0
 79
    0
146
0
348
10020
 60
    3
 61
    5
292
1
282
    1
141
0
142
0
 63
  250
421
3358443
  0
ENDTAB
  0
TABLE
  2
LTYPE
  5
5
330
0
100
AcDbSymbolTable
 70
    4
  0
LTYPE
  5
14
330
5
100
AcDbSymbolTableRecord
100
AcDbLinetypeTableRecord
  2
ByBlock
 70
    0
  3

 72
   65
 73
    0
 40
0
  0
LTYPE
  5
15
330
5
100
AcDbSymbolTableRecord
100
AcDbLinetypeTableRecord
  2
ByLayer
 70
    0
  3

 72
   65
 73
    0
 40
0
  0
LTYPE
  5
16
330
5
100
AcDbSymbolTableRecord
100
AcDbLinetypeTableRecord
  2
Continuous
 70
    0
  3
Solid line
 72
   65
 73
    0
 40
0
  0
LTYPE
  5
32
330
5
100
AcDbSymbolTableRecord
100
AcDbLinetypeTableRecord
  2
DOT
 70
    0
  3
Dot . . . . . . . . . . . . . . . . . . . . . .
 72
   65
 73
    2
 40
6.35
 49
0
 74
    0
 49
-6.35
 74
    0
  0
LTYPE
  5
33
330
5
100
AcDbSymbolTableRecord
100
AcDbLinetypeTableRecord
  2
DOTTINY
 70
    0
  3
Dot (.15x) .....................................
 72
   65
 73
    2
 40
0.9525
 49
0
 74
    0
 49
-0.9525
 74
    0
  0
LTYPE
  5
34
330
5
100
AcDbSymbolTableRecord
100
AcDbLinetypeTableRecord
  2
DOT2
 70
    0
  3
Dot (.5x) .....................................
 72
   65
 73
    2
 40
3.175
 49
0
 74
    0
 49
-3.175
 74
    0
  0
LTYPE
  5
35
330
5
100
AcDbSymbolTableRecord
100
AcDbLinetypeTableRecord
  2
DOTX2
 70
    0
  3
Dot (2x) .  .  .  .  .  .  .  .  .  .  .  .  .
 72
   65
 73
    2
 40
12.7
 49
0
 74
    0
 49
-12.7
 74
    0
  0
LTYPE
  5
36
330
5
100
AcDbSymbolTableRecord
100
AcDbLinetypeTableRecord
  2
DASHED
 70
    0
  3
Dashed _ _ _ _ _ _ _ _ _ _ _ _ _ _ _ _ _
 72
   65
 73
    2
 40
19.05
 49
12.7
 74
    0
 49
-6.35
 74
    0
  0
LTYPE
  5
37
330
5
100
AcDbSymbolTableRecord
100
AcDbLinetypeTableRecord
  2
DASHEDTINY
 70
    0
  3
Dashed (.15x) _ _ _ _ _ _ _ _ _ _ _ _ _ _ _ _ _
 72
   65
 73
    2
 40
2.8575
 49
1.905
 74
    0
 49
-0.9525
 74
    0
  0
LTYPE
  5
38
330
5
100
AcDbSymbolTableRecord
100
AcDbLinetypeTableRecord
  2
DASHED2
 70
    0
  3
Dashed (.5x) _ _ _ _ _ _ _ _ _ _ _ _ _ _ _ _ _
 72
   65
 73
    2
 40
9.524999999999999
 49
6.35
 74
    0
 49
-3.175
 74
    0
  0
LTYPE
  5
39
330
5
100
AcDbSymbolTableRecord
100
AcDbLinetypeTableRecord
  2
DASHEDX2
 70
    0
  3
Dashed (2x) ____  ____  ____  ____  ____  ___
 72
   65
 73
    2
 40
38.09999999999999
 49
25.4
 74
    0
 49
-12.7
 74
    0
  0
LTYPE
  5
3A
330
5
100
AcDbSymbolTableRecord
100
AcDbLinetypeTableRecord
  2
DASHDOT
 70
    0
  3
Dash dot __ . __ . __ . __ . __ . __ . __ . __
 72
   65
 73
    4
 40
25.4
 49
12.7
 74
    0
 49
-6.35
 74
    0
 49
0
 74
    0
 49
-6.35
 74
    0
  0
LTYPE
  5
3B
330
5
100
AcDbSymbolTableRecord
100
AcDbLinetypeTableRecord
  2
DASHDOTTINY
 70
    0
  3
Dash dot (.15x) _._._._._._._._._._._._._._._.
 72
   65
 73
    4
 40
3.81
 49
1.905
 74
    0
 49
-0.9525
 74
    0
 49
0
 74
    0
 49
-0.9525
 74
    0
  0
LTYPE
  5
3C
330
5
100
AcDbSymbolTableRecord
100
AcDbLinetypeTableRecord
  2
DASHDOT2
 70
    0
  3
Dash dot (.5x) _._._._._._._._._._._._._._._.
 72
   65
 73
    4
 40
12.7
 49
6.35
 74
    0
 49
-3.175
 74
    0
 49
0
 74
    0
 49
-3.175
 74
    0
  0
LTYPE
  5
3D
330
5
100
AcDbSymbolTableRecord
100
AcDbLinetypeTableRecord
  2
DASHDOTX2
 70
    0
  3
Dash dot (2x) ____  .  ____  .  ____  .  ___
 72
   65
 73
    4
 40
50.8
 49
25.4
 74
    0
 49
-12.7
 74
    0
 49
0
 74
    0
 49
-12.7
 74
    0
  0
LTYPE
  5
3E
330
5
100
AcDbSymbolTableRecord
100
AcDbLinetypeTableRecord
  2
DIVIDE
 70
    0
  3
Divide ____ . . ____ . . ____ . . ____ . . ____
 72
   65
 73
    6
 40
31.75
 49
12.7
 74
    0
 49
-6.35
 74
    0
 49
0
 74
    0
 49
-6.35
 74
    0
 49
0
 74
    0
 49
-6.35
 74
    0
  0
LTYPE
  5
3F
330
5
100
AcDbSymbolTableRecord
100
AcDbLinetypeTableRecord
  2
DIVIDETINY
 70
    0
  3
Divide (.15x) __..__..__..__..__..__..__..__.._
 72
   65
 73
    6
 40
4.7625
 49
1.905
 74
    0
 49
-0.9525
 74
    0
 49
0
 74
    0
 49
-0.9525
 74
    0
 49
0
 74
    0
 49
-0.9525
 74
    0
  0
LTYPE
  5
40
330
5
100
AcDbSymbolTableRecord
100
AcDbLinetypeTableRecord
  2
DIVIDE2
 70
    0
  3
Divide (.5x) __..__..__..__..__..__..__..__.._
 72
   65
 73
    6
 40
15.875
 49
6.35
 74
    0
 49
-3.175
 74
    0
 49
0
 74
    0
 49
-3.175
 74
    0
 49
0
 74
    0
 49
-3.175
 74
    0
  0
LTYPE
  5
41
330
5
100
AcDbSymbolTableRecord
100
AcDbLinetypeTableRecord
  2
DIVIDEX2
 70
    0
  3
Divide (2x) ________  .  .  ________  .  .  _
 72
   65
 73
    6
 40
63.5
 49
25.4
 74
    0
 49
-12.7
 74
    0
 49
0
 74
    0
 49
-12.7
 74
    0
 49
0
 74
    0
 49
-12.7
 74
    0
  0
LTYPE
  5
42
330
5
100
AcDbSymbolTableRecord
100
AcDbLinetypeTableRecord
  2
BORDER
 70
    0
  3
Border __ __ . __ __ . __ __ . __ __ . __ __ .
 72
   65
 73
    6
 40
44.45
 49
12.7
 74
    0
 49
-6.35
 74
    0
 49
12.7
 74
    0
 49
-6.35
 74
    0
 49
0
 74
    0
 49
-6.35
 74
    0
  0
LTYPE
  5
43
330
5
100
AcDbSymbolTableRecord
100
AcDbLinetypeTableRecord
  2
BORDERTINY
 70
    0
  3
Border (.15x) __.__.__.__.__.__.__.__.__.__.__.
 72
   65
 73
    6
 40
6.6675
 49
1.905
 74
    0
 49
-0.9525
 74
    0
 49
1.905
 74
    0
 49
-0.9525
 74
    0
 49
0
 74
    0
 49
-0.9525
 74
    0
  0
LTYPE
  5
44
330
5
100
AcDbSymbolTableRecord
100
AcDbLinetypeTableRecord
  2
BORDER2
 70
    0
  3
Border (.5x) __.__.__.__.__.__.__.__.__.__.__.
 72
   65
 73
    6
 40
22.225
 49
6.35
 74
    0
 49
-3.175
 74
    0
 49
6.35
 74
    0
 49
-3.175
 74
    0
 49
0
 74
    0
 49
-3.175
 74
    0
  0
LTYPE
  5
45
330
5
100
AcDbSymbolTableRecord
100
AcDbLinetypeTableRecord
  2
BORDERX2
 70
    0
  3
Border (2x) ____  ____  .  ____  ____  .  ___
 72
   65
 73
    6
 40
88.89999999999999
 49
25.4
 74
    0
 49
-12.7
 74
    0
 49
25.4
 74
    0
 49
-12.7
 74
    0
 49
0
 74
    0
 49
-12.7
 74
    0
  0
LTYPE
  5
46
330
5
100
AcDbSymbolTableRecord
100
AcDbLinetypeTableRecord
  2
CENTER
 70
    0
  3
Center ____ _ ____ _ ____ _ ____ _ ____ _ ____
 72
   65
 73
    4
 40
50.8
 49
31.75
 74
    0
 49
-6.35
 74
    0
 49
6.35
 74
    0
 49
-6.35
 74
    0
  0
LTYPE
  5
47
330
5
100
AcDbSymbolTableRecord
100
AcDbLinetypeTableRecord
  2
CENTERTINY
 70
    0
  3
Center (.15x) ___ _ ___ _ ___ _ ___ _ ___ _ ___
 72
   65
 73
    4
 40
7.619999999999999
 49
4.7625
 74
    0
 49
-0.9525
 74
    0
 49
0.9525
 74
    0
 49
-0.9525
 74
    0
  0
LTYPE
  5
48
330
5
100
AcDbSymbolTableRecord
100
AcDbLinetypeTableRecord
  2
CENTER2
 70
    0
  3
Center (.5x) ___ _ ___ _ ___ _ ___ _ ___ _ ___
 72
   65
 73
    4
 40
28.575
 49
19.05
 74
    0
 49
-3.175
 74
    0
 49
3.175
 74
    0
 49
-3.175
 74
    0
  0
LTYPE
  5
49
330
5
100
AcDbSymbolTableRecord
100
AcDbLinetypeTableRecord
  2
CENTERX2
 70
    0
  3
Center (2x) ________  __  ________  __  _____
 72
   65
 73
    4
 40
101.6
 49
63.5
 74
    0
 49
-12.7
 74
    0
 49
12.7
 74
    0
 49
-12.7
 74
    0
  0
ENDTAB
  0
TABLE
  2
LAYER
  5
2
330
0
100
AcDbSymbolTable
 70
    1
  0
LAYER
  5
10
330
2
100
AcDbSymbolTableRecord
100
AcDbLayerTableRecord
  2
0
 70
    0
 62
    7
  6
CONTINUOUS
370
   -3
390
F
  0
LAYER
  5
4A
330
2
100
AcDbSymbolTableRecord
100
AcDbLayerTableRecord
  2
AXE
 70
    0
 62
    7
  6
CENTER
370
   25
390
F
  0
LAYER
  5
4B
330
2
100
AcDbSymbolTableRecord
100
AcDbLayerTableRecord
  2
FIN
 70
    0
 62
    7
  6
CONTINUOUS
370
   25
390
F
  0
LAYER
  5
4C
330
2
100
AcDbSymbolTableRecord
100
AcDbLayerTableRecord
  2
FORT
 70
    0
 62
    7
  6
CONTINUOUS
370
   50
390
F
  0
LAYER
  5
4D
330
2
100
AcDbSymbolTableRecord
100
AcDbLayerTableRecord
  2
HACHURE
 70
    0
 62
    7
  6
CONTINUOUS
370
   18
390
F
  0
LAYER
  5
4E
330
2
100
AcDbSymbolTableRecord
100
AcDbLayerTableRecord
  2
INTERROMPU
 70
    0
 62
    7
  6
DASHED2
370
   25
390
F
  0
LAYER
  5
4F
330
2
100
AcDbSymbolTableRecord
100
AcDbLayerTableRecord
  2
TEXTE
 70
    0
 62
    7
  6
CONTINUOUS
370
   35
390
F
  0
ENDTAB
  0
TABLE
  2
STYLE
  5
3
330
0
100
AcDbSymbolTable
 70
    3
  0
STYLE
  5
50
330
2
100
AcDbSymbolTableRecord
100
AcDbTextStyleTableRecord
  2
iso
 70
    0
 40
0
 41
1
 50
0
 71
    0
 42
1
  3
iso
  4

  0
STYLE
  5
51
330
2
100
AcDbSymbolTableRecord
100
AcDbTextStyleTableRecord
  2
iso9
 70
    0
 40
0
 41
1
 50
0
 71
    0
 42
1
  3
iso9
  4

  0
STYLE
  5
52
330
2
100
AcDbSymbolTableRecord
100
AcDbTextStyleTableRecord
  2
Standard
 70
    0
 40
0
 41
1
 50
0
 71
    0
 42
1
  3
txt
  4

  0
ENDTAB
  0
TABLE
  2
VIEW
  5
6
330
0
100
AcDbSymbolTable
 70
    0
  0
ENDTAB
  0
TABLE
  2
UCS
  5
7
330
0
100
AcDbSymbolTable
 70
    0
  0
ENDTAB
  0
TABLE
  2
APPID
  5
9
330
0
100
AcDbSymbolTable
 70
    1
  0
APPID
  5
12
330
9
100
AcDbSymbolTableRecord
100
AcDbRegAppTableRecord
  2
ACAD
 70
    0
  0
APPID
  5
53
330
9
100
AcDbSymbolTableRecord
100
AcDbRegAppTableRecord
  2
LibreCad
 70
    0
  0
ENDTAB
  0
TABLE
  2
DIMSTYLE
  5
A
330
0
100
AcDbSymbolTable
 70
    1
100
AcDbDimStyleTable
 71
    1
  0
DIMSTYLE
105
54
330
A
100
AcDbSymbolTableRecord
100
AcDbDimStyleTableRecord
  2
Standard
 70
    0
 40
1
 41
0.18
 42
0.0625
 43
0.38
 44
0.18
 45
0
 46
0
 47
0
 48
0
 49
1
140
0.18
141
0.09
142
0
143
25.4
144
1
145
0
146
1
147
0.625
148
0
 71
    0
 72
    0
 73
    1
 74
    1
 75
    0
 76
    0
 77
    0
 78
    0
 79
    0
170
    0
171
    2
172
    0
173
    0
174
    0
175
    0
176
    0
177
    0
178
    0
179
    0
271
    2
272
    4
273
    2
274
    2
275
    0
276
    0
277
    2
278
   44
279
    0
280
    0
281
    0
282
    0
283
    1
284
    0
285
    0
286
    0
288
    0
289
    3
340
STANDARD
341

371
   -2
372
   -2
  0
ENDTAB
  0
TABLE
  2
BLOCK_RECORD
  5
1
330
0
100
AcDbSymbolTable
 70
    2
  0
BLOCK_RECORD
  5
1F
330
1
100
AcDbSymbolTableRecord
100
AcDbBlockTableRecord
  2
*Model_Space
 70
    0
280
    1
281
    0
  0
BLOCK_RECORD
  5
1E
330
1
100
AcDbSymbolTableRecord
100
AcDbBlockTableRecord
  2
*Paper_Space
 70
    0
280
    1
281
    0
  0
BLOCK_RECORD
  5
55
330
1
100
AcDbSymbolTableRecord
100
AcDbBlockTableRecord
  2
DESENS-G1
 70
    0
280
    1
281
    0
  0
BLOCK_RECORD
  5
58
330
1
100
AcDbSymbolTableRecord
100
AcDbBlockTableRecord
  2
DESENS-G2
 70
    0
280
    1
281
    0
  0
BLOCK_RECORD
  5
5B
330
1
100
AcDbSymbolTableRecord
100
AcDbBlockTableRecord
  2
DESENS-G3
 70
    0
280
    1
281
    0
  0
BLOCK_RECORD
  5
5E
330
1
100
AcDbSymbolTableRecord
100
AcDbBlockTableRecord
  2
DESENS-G4
 70
    0
280
    1
281
    0
  0
BLOCK_RECORD
  5
61
330
1
100
AcDbSymbolTableRecord
100
AcDbBlockTableRecord
  2
DESENS-G5
 70
    0
280
    1
281
    0
  0
BLOCK_RECORD
  5
64
330
1
100
AcDbSymbolTableRecord
100
AcDbBlockTableRecord
  2
DESENS-G6
 70
    0
280
    1
281
    0
  0
BLOCK_RECORD
  5
67
330
1
100
AcDbSymbolTableRecord
100
AcDbBlockTableRecord
  2
DESENS-G7
 70
    0
280
    1
281
    0
  0
BLOCK_RECORD
  5
6A
330
1
100
AcDbSymbolTableRecord
100
AcDbBlockTableRecord
  2
DESENS-G8
 70
    0
280
    1
281
    0
  0
BLOCK_RECORD
  5
6D
330
1
100
AcDbSymbolTableRecord
100
AcDbBlockTableRecord
  2
DESENS-G9
 70
    0
280
    1
281
    0
  0
BLOCK_RECORD
  5
70
330
1
100
AcDbSymbolTableRecord
100
AcDbBlockTableRecord
  2
DESENS-G10
 70
    0
280
    1
281
    0
  0
BLOCK_RECORD
  5
73
330
1
100
AcDbSymbolTableRecord
100
AcDbBlockTableRecord
  2
DESENS-G11
 70
    0
280
    1
281
    0
  0
ENDTAB
  0
ENDSEC
  0
SECTION
  2
BLOCKS
  0
BLOCK
  5
20
330
1F
100
AcDbEntity
  8
0
100
AcDbBlockBegin
  2
*Model_Space
 70
    0
 10
0
 20
0
 30
0
  3
*Model_Space
  1

  0
ENDBLK
  5
21
330
1F
100
AcDbEntity
  8
0
100
AcDbBlockEnd
  0
BLOCK
  5
1C
330
1B
100
AcDbEntity
  8
0
100
AcDbBlockBegin
  2
*Paper_Space
 70
    0
 10
0
 20
0
 30
0
  3
*Paper_Space
  1

  0
ENDBLK
  5
1D
330
1F
100
AcDbEntity
  8
0
100
AcDbBlockEnd
  0
BLOCK
  5
56
330
55
100
AcDbEntity
  8
0
100
AcDbBlockBegin
  2
DESENS-G1
 70
    0
 10
0
 20
0
  3
DESENS-G1
  1

  0
LINE
  5
76
100
AcDbEntity
  8
HACHURE
  6
CONTINUOUS
 62
    5
370
   -1
100
AcDbLine
 10
100.638231
 20
76.055037
 11
98.40415400000001
 21
74.490719
  0
LINE
  5
77
100
AcDbEntity
  8
HACHURE
  6
CONTINUOUS
 62
    5
370
   -1
100
AcDbLine
 10
99.36944699999999
 20
71.29018499999999
 11
102.918154
 21
73.77501599999999
  0
LINE
  5
78
100
AcDbEntity
  8
HACHURE
  6
CONTINUOUS
 62
    5
370
   -1
100
AcDbLine
 10
107.759735
 20
73.29037599999999
 11
104.904011
 21
71.29077700000001
  0
LINE
  5
79
100
AcDbEntity
  8
HACHURE
  6
CONTINUOUS
 62
    5
370
   -1
100
AcDbLine
 10
98.405017
 20
62.863693
 11
101.871064
 21
65.290645
  0
LINE
  5
7A
100
AcDbEntity
  8
HACHURE
  6
CONTINUOUS
 62
    5
370
   -1
100
AcDbLine
 10
110.439368
 20
71.29023599999999
 11
113.296224
 21
73.290628
  0
LINE
  5
7B
100
AcDbEntity
  8
HACHURE
  6
CONTINUOUS
 62
    5
370
   -1
100
AcDbLine
 10
118.832713
 20
73.290881
 11
115.975857
 21
71.29048899999999
  0
LINE
  5
7C
100
AcDbEntity
  8
HACHURE
  6
CONTINUOUS
 62
    5
370
   -1
100
AcDbLine
 10
107.407553
 20
65.290898
 11
104.549565
 21
63.289712
  0
LINE
  5
7D
100
AcDbEntity
  8
HACHURE
  6
CONTINUOUS
 62
    5
370
   -1
100
AcDbLine
 10
100.723438
 20
60.61063
 11
100.264846
 21
60.289521
  0
LINE
  5
7E
100
AcDbEntity
  8
HACHURE
  6
CONTINUOUS
 62
    5
370
   -1
100
AcDbLine
 10
110.087186
 20
63.290758
 11
112.94291
 21
65.290357
  0
LINE
  5
7F
100
AcDbEntity
  8
HACHURE
  6
CONTINUOUS
 62
    5
370
   -1
100
AcDbLine
 10
120.084484
 20
70.290941
 11
124.369203
 21
73.291133
  0
LINE
  5
80
100
AcDbEntity
  8
HACHURE
  6
CONTINUOUS
 62
    5
370
   -1
100
AcDbLine
 10
129.902634
 20
73.290932
 11
125.616784
 21
70.289947
  0
LINE
  5
81
100
AcDbEntity
  8
HACHURE
  6
CONTINUOUS
 62
    5
370
   -1
100
AcDbLine
 10
119.904204
 20
66.289956
 11
115.620618
 21
63.290557
  0
LINE
  5
82
100
AcDbEntity
  8
HACHURE
  6
CONTINUOUS
 62
    5
370
   -1
100
AcDbLine
 10
121.157107
 20
63.290809
 11
125.441825
 21
66.29100099999999
  0
LINE
  5
83
100
AcDbEntity
  8
HACHURE
  6
CONTINUOUS
 62
    5
370
   -1
100
AcDbLine
 10
126.814203
 20
67.25194999999999
 11
135.439123
 21
73.291184
  0
LINE
  5
84
100
AcDbEntity
  8
HACHURE
  6
CONTINUOUS
 62
    5
370
   -1
100
AcDbLine
 10
140.791044
 20
73.1622
 11
126.693596
 21
63.291061
  0
LINE
  5
85
100
AcDbEntity
  8
HACHURE
  6
CONTINUOUS
 62
    5
370
   -1
100
AcDbLine
 10
132.228161
 20
63.291653
 11
139.721888
 21
68.53881699999999
  0
LINE
  5
86
100
AcDbEntity
  8
HACHURE
  6
CONTINUOUS
 62
    5
370
   -1
100
AcDbLine
 10
139.450682
 20
64.472478
 11
137.76465
 21
63.291905
  0
ENDBLK
  5
57
330
55
100
AcDbEntity
  8
0
100
AcDbBlockEnd
  0
BLOCK
  5
59
330
58
100
AcDbEntity
  8
0
100
AcDbBlockBegin
  2
DESENS-G2
 70
    0
 10
0
 20
0
  3
DESENS-G2
  1

  0
LINE
  5
87
100
AcDbEntity
  8
HACHURE
  6
CONTINUOUS
 62
    5
370
   -1
100
AcDbLine
 10
98.403209
 20
60.349586
 11
94.212014
 21
64.54078199999999
  0
LINE
  5
88
100
AcDbEntity
  8
HACHURE
  6
CONTINUOUS
 62
    5
370
   -1
100
AcDbLine
 10
89.721987
 20
64.54060699999999
 11
95.971664
 21
58.290929
  0
LINE
  5
89
100
AcDbEntity
  8
HACHURE
  6
CONTINUOUS
 62
    5
370
   -1
100
AcDbLine
 10
91.481292
 20
58.2911
 11
85.23196
 21
64.540432
  0
LINE
  5
8A
100
AcDbEntity
  8
HACHURE
  6
CONTINUOUS
 62
    5
370
   -1
100
AcDbLine
 10
83.403251
 20
61.878939
 11
86.99092
 21
58.29127
  0
ENDBLK
  5
5A
330
58
100
AcDbEntity
  8
0
100
AcDbBlockEnd
  0
BLOCK
  5
5C
330
5B
100
AcDbEntity
  8
0
100
AcDbBlockBegin
  2
DESENS-G3
 70
    0
 10
0
 20
0
  3
DESENS-G3
  1

  0
LINE
  5
8B
100
AcDbEntity
  8
HACHURE
  6
CONTINUOUS
 62
    5
370
   -1
100
AcDbLine
 10
98.405607
 20
78.574641
 11
94.491393
 21
82.488856
  0
LINE
  5
8C
100
AcDbEntity
  8
HACHURE
  6
CONTINUOUS
 62
    5
370
   -1
100
AcDbLine
 10
90.001127
 20
82.488851
 11
98.403876
 21
74.086101
  0
LINE
  5
8D
100
AcDbEntity
  8
HACHURE
  6
CONTINUOUS
 62
    5
370
   -1
100
AcDbLine
 10
95.958782
 20
72.040925
 11
85.51086100000001
 21
82.488846
  0
LINE
  5
8E
100
AcDbEntity
  8
HACHURE
  6
CONTINUOUS
 62
    5
370
   -1
100
AcDbLine
 10
83.40352
 20
80.106606
 11
91.469207
 21
72.04092
  0
LINE
  5
8F
100
AcDbEntity
  8
HACHURE
  6
CONTINUOUS
 62
    5
370
   -1
100
AcDbLine
 10
86.978595
 20
72.04126100000001
 11
83.403516
 21
75.61633999999999
  0
ENDBLK
  5
5D
330
5B
100
AcDbEntity
  8
0
100
AcDbBlockEnd
  0
BLOCK
  5
5F
330
5E
100
AcDbEntity
  8
0
100
AcDbBlockBegin
  2
DESENS-G4
 70
    0
 10
0
 20
0
  3
DESENS-G4
  1

  0
LINE
  5
90
100
AcDbEntity
  8
HACHURE
  6
CONTINUOUS
 62
    5
370
   -1
100
AcDbLine
 10
74.014754
 20
87.486377
 11
73.639555
 21
88.290993
  0
LINE
  5
91
100
AcDbEntity
  8
HACHURE
  6
CONTINUOUS
 62
    5
370
   -1
100
AcDbLine
 10
71.537677
 20
88.291011
 11
73.170473
 21
84.789467
  0
LINE
  5
92
100
AcDbEntity
  8
HACHURE
  6
CONTINUOUS
 62
    5
370
   -1
100
AcDbLine
 10
71.69977799999999
 20
83.435908
 11
70.122254
 21
86.818921
  0
LINE
  5
93
100
AcDbEntity
  8
HACHURE
  6
CONTINUOUS
 62
    5
370
   -1
100
AcDbLine
 10
68.82019200000001
 20
85.10372599999999
 11
71.026516
 21
80.37224999999999
  0
LINE
  5
94
100
AcDbEntity
  8
HACHURE
  6
CONTINUOUS
 62
    5
370
   -1
100
AcDbLine
 10
69.42902100000001
 20
79.290615
 11
67.07097
 21
84.34747
  0
LINE
  5
95
100
AcDbEntity
  8
HACHURE
  6
CONTINUOUS
 62
    5
370
   -1
100
AcDbLine
 10
64.848113
 20
84.605715
 11
67.32646099999999
 21
79.290881
  0
LINE
  5
96
100
AcDbEntity
  8
HACHURE
  6
CONTINUOUS
 62
    5
370
   -1
100
AcDbLine
 10
65.224583
 20
79.290899
 11
61.027821
 21
88.29088299999999
  0
LINE
  5
97
100
AcDbEntity
  8
HACHURE
  6
CONTINUOUS
 62
    5
370
   -1
100
AcDbLine
 10
58.925943
 20
88.29090100000001
 11
63.122705
 21
79.29091699999999
  0
LINE
  5
98
100
AcDbEntity
  8
HACHURE
  6
CONTINUOUS
 62
    5
370
   -1
100
AcDbLine
 10
61.020826
 20
79.290935
 11
58.40354
 21
84.903723
  0
ENDBLK
  5
60
330
5E
100
AcDbEntity
  8
0
100
AcDbBlockEnd
  0
BLOCK
  5
62
330
61
100
AcDbEntity
  8
0
100
AcDbBlockBegin
  2
DESENS-G5
 70
    0
 10
0
 20
0
  3
DESENS-G5
  1

  0
LINE
  5
99
100
AcDbEntity
  8
HACHURE
  6
CONTINUOUS
 62
    5
370
   -1
100
AcDbLine
 10
64.897248
 20
88.290593
 11
63.79625
 21
86.718205
  0
LINE
  5
9A
100
AcDbEntity
  8
HACHURE
  6
CONTINUOUS
 62
    5
370
   -1
100
AcDbLine
 10
64.68303299999999
 20
85.77062100000001
 11
66.447565
 21
88.290633
  0
LINE
  5
9B
100
AcDbEntity
  8
HACHURE
  6
CONTINUOUS
 62
    5
370
   -1
100
AcDbLine
 10
67.998153
 20
88.290721
 11
65.897429
 21
85.290577
  0
LINE
  5
9C
100
AcDbEntity
  8
HACHURE
  6
CONTINUOUS
 62
    5
370
   -1
100
AcDbLine
 10
67.487067
 20
85.346774
 11
69.322288
 21
87.96774000000001
  0
ENDBLK
  5
63
330
61
100
AcDbEntity
  8
0
100
AcDbBlockEnd
  0
BLOCK
  5
65
330
64
100
AcDbEntity
  8
0
100
AcDbBlockBegin
  2
DESENS-G6
 70
    0
 10
0
 20
0
  3
DESENS-G6
  1

  0
LINE
  5
9D
100
AcDbEntity
  8
HACHURE
  6
CONTINUOUS
 62
    5
370
   -1
100
AcDbLine
 10
98.65352
 20
82.489086
 11
98.406803
 21
82.242369
  0
LINE
  5
9E
100
AcDbEntity
  8
HACHURE
  6
CONTINUOUS
 62
    5
370
   -1
100
AcDbLine
 10
98.40622
 20
80.44572599999999
 11
100.386067
 21
82.425574
  0
LINE
  5
9F
100
AcDbEntity
  8
HACHURE
  6
CONTINUOUS
 62
    5
370
   -1
100
AcDbLine
 10
100.386077
 20
80.62952300000001
 11
98.405682
 21
78.649129
  0
LINE
  5
A0
100
AcDbEntity
  8
HACHURE
  6
CONTINUOUS
 62
    5
370
   -1
100
AcDbLine
 10
99.852171
 20
78.29955699999999
 11
100.386041
 21
78.833427
  0
ENDBLK
  5
66
330
64
100
AcDbEntity
  8
0
100
AcDbBlockEnd
  0
BLOCK
  5
68
330
67
100
AcDbEntity
  8
0
100
AcDbBlockBegin
  2
DESENS-G7
 70
    0
 10
0
 20
0
  3
DESENS-G7
  1

  0
LINE
  5
A1
100
AcDbEntity
  8
HACHURE
  6
CONTINUOUS
 62
    5
370
   -1
100
AcDbLine
 10
157.582809
 20
63.290771
 11
153.403007
 21
59.110969
  0
LINE
  5
A2
100
AcDbEntity
  8
HACHURE
  6
CONTINUOUS
 62
    5
370
   -1
100
AcDbLine
 10
157.072505
 20
58.290615
 11
162.072661
 21
63.290771
  0
LINE
  5
A3
100
AcDbEntity
  8
HACHURE
  6
CONTINUOUS
 62
    5
370
   -1
100
AcDbLine
 10
166.563204
 20
63.290771
 11
161.563047
 21
58.290615
  0
LINE
  5
A4
100
AcDbEntity
  8
HACHURE
  6
CONTINUOUS
 62
    5
370
   -1
100
AcDbLine
 10
166.052899
 20
58.290615
 11
168.403131
 21
60.640847
  0
ENDBLK
  5
69
330
67
100
AcDbEntity
  8
0
100
AcDbBlockEnd
  0
BLOCK
  5
6B
330
6A
100
AcDbEntity
  8
0
100
AcDbBlockBegin
  2
DESENS-G8
 70
    0
 10
0
 20
0
  3
DESENS-G8
  1

  0
LINE
  5
A5
100
AcDbEntity
  8
HACHURE
  6
CONTINUOUS
 62
    5
370
   -1
100
AcDbLine
 10
155.132571
 20
83.290792
 11
153.403474
 21
81.561695
  0
LINE
  5
A6
100
AcDbEntity
  8
HACHURE
  6
CONTINUOUS
 62
    5
370
   -1
100
AcDbLine
 10
153.403567
 20
77.07174999999999
 11
159.622516
 21
83.290699
  0
LINE
  5
A7
100
AcDbEntity
  8
HACHURE
  6
CONTINUOUS
 62
    5
370
   -1
100
AcDbLine
 10
164.112461
 20
83.290605
 11
154.097647
 21
73.275791
  0
LINE
  5
A8
100
AcDbEntity
  8
HACHURE
  6
CONTINUOUS
 62
    5
370
   -1
100
AcDbLine
 10
158.587592
 20
73.27569800000001
 11
168.402842
 21
83.090948
  0
LINE
  5
A9
100
AcDbEntity
  8
HACHURE
  6
CONTINUOUS
 62
    5
370
   -1
100
AcDbLine
 10
168.402935
 20
78.600312
 11
163.078228
 21
73.275604
  0
LINE
  5
AA
100
AcDbEntity
  8
HACHURE
  6
CONTINUOUS
 62
    5
370
   -1
100
AcDbLine
 10
167.568173
 20
73.27551099999999
 11
168.402683
 21
74.110021
  0
ENDBLK
  5
6C
330
6A
100
AcDbEntity
  8
0
100
AcDbBlockEnd
  0
BLOCK
  5
6E
330
6D
100
AcDbEntity
  8
0
100
AcDbBlockBegin
  2
DESENS-G9
 70
    0
 10
0
 20
0
  3
DESENS-G9
  1

  0
LINE
  5
AB
100
AcDbEntity
  8
HACHURE
  6
CONTINUOUS
 62
    5
370
   -1
100
AcDbLine
 10
69.403341
 20
188.330142
 11
67.051827
 21
191.688452
  0
LINE
  5
AC
100
AcDbEntity
  8
HACHURE
  6
CONTINUOUS
 62
    5
370
   -1
100
AcDbLine
 10
64.875918
 20
191.474773
 11
68.21001800000001
 21
186.713185
  0
LINE
  5
AD
100
AcDbEntity
  8
HACHURE
  6
CONTINUOUS
 62
    5
370
   -1
100
AcDbLine
 10
69.38545999999999
 20
181.713279
 11
68.176114
 21
183.440404
  0
LINE
  5
AE
100
AcDbEntity
  8
HACHURE
  6
CONTINUOUS
 62
    5
370
   -1
100
AcDbLine
 10
67.90334799999999
 20
183.829955
 11
63.403163
 21
190.256885
  0
LINE
  5
AF
100
AcDbEntity
  8
HACHURE
  6
CONTINUOUS
 62
    5
370
   -1
100
AcDbLine
 10
63.403109
 20
186.935761
 11
63.558901
 21
186.713268
  0
LINE
  5
B0
100
AcDbEntity
  8
HACHURE
  6
CONTINUOUS
 62
    5
370
   -1
100
AcDbLine
 10
64.90325799999999
 20
184.793327
 11
67.05990199999999
 21
181.71332
  0
LINE
  5
B1
100
AcDbEntity
  8
HACHURE
  6
CONTINUOUS
 62
    5
370
   -1
100
AcDbLine
 10
64.734026
 20
181.713418
 11
63.980031
 21
182.790235
  0
ENDBLK
  5
6F
330
6D
100
AcDbEntity
  8
0
100
AcDbBlockEnd
  0
BLOCK
  5
71
330
70
100
AcDbEntity
  8
0
100
AcDbBlockBegin
  2
DESENS-G10
 70
    0
 10
0
 20
0
  3
DESENS-G10
  1

  0
LINE
  5
B2
100
AcDbEntity
  8
HACHURE
  6
CONTINUOUS
 62
    5
370
   -1
100
AcDbLine
 10
68.231955
 20
186.713187
 11
67.903171
 21
186.559873
  0
LINE
  5
B3
100
AcDbEntity
  8
HACHURE
  6
CONTINUOUS
 62
    5
370
   -1
100
AcDbLine
 10
67.903212
 20
185.158641
 11
70.920368
 21
186.565564
  0
LINE
  5
B4
100
AcDbEntity
  8
HACHURE
  6
CONTINUOUS
 62
    5
370
   -1
100
AcDbLine
 10
71.772786
 20
185.561662
 11
67.903306
 21
183.757294
  0
LINE
  5
B5
100
AcDbEntity
  8
HACHURE
  6
CONTINUOUS
 62
    5
370
   -1
100
AcDbLine
 10
68.82884799999999
 20
182.78763
 11
71.77282700000001
 21
184.16043
  0
LINE
  5
B6
100
AcDbEntity
  8
HACHURE
  6
CONTINUOUS
 62
    5
370
   -1
100
AcDbLine
 10
71.77275299999999
 20
182.759144
 11
69.784414
 21
181.831966
  0
ENDBLK
  5
72
330
70
100
AcDbEntity
  8
0
100
AcDbBlockEnd
  0
BLOCK
  5
74
330
73
100
AcDbEntity
  8
0
100
AcDbBlockBegin
  2
DESENS-G11
 70
    0
 10
0
 20
0
  3
DESENS-G11
  1

  0
LINE
  5
B7
100
AcDbEntity
  8
HACHURE
  6
CONTINUOUS
 62
    5
370
   -1
100
AcDbLine
 10
63.929001
 20
186.713216
 11
60.772787
 21
185.241449
  0
LINE
  5
B8
100
AcDbEntity
  8
HACHURE
  6
CONTINUOUS
 62
    5
370
   -1
100
AcDbLine
 10
60.772826
 20
183.840251
 11
64.903164
 21
185.766259
  0
LINE
  5
B9
100
AcDbEntity
  8
HACHURE
  6
CONTINUOUS
 62
    5
370
   -1
100
AcDbLine
 10
64.903138
 20
184.364883
 11
60.95985
 21
182.526098
  0
LINE
  5
BA
100
AcDbEntity
  8
HACHURE
  6
CONTINUOUS
 62
    5
370
   -1
100
AcDbLine
 10
62.221352
 20
181.713129
 11
63.498899
 21
182.308859
  0
ENDBLK
  5
75
330
73
100
AcDbEntity
  8
0
100
AcDbBlockEnd
  0
ENDSEC
  0
SECTION
  2
ENTITIES
  0
LINE
  5
BB
100
AcDbEntity
  8
FORT
  6
CONTINUOUS
 62
    7
370
   -1
100
AcDbLine
 10
10
 20
287
 11
410
 21
287
  0
LINE
  5
BC
100
AcDbEntity
  8
FORT
  6
CONTINUOUS
 62
    7
370
   -1
100
AcDbLine
 10
220
 20
50
 11
410
 21
50
  0
LINE
  5
BD
100
AcDbEntity
  8
FORT
  6
CONTINUOUS
 62
    7
370
   -1
100
AcDbLine
 10
10
 20
10
 11
10
 21
287
  0
LINE
  5
BE
100
AcDbEntity
  8
FORT
  6
CONTINUOUS
 62
    7
370
   -1
100
AcDbLine
 10
118.403242
 20
65.290693
 11
83.40324200000001
 21
65.290693
  0
LINE
  5
BF
100
AcDbEntity
  8
FORT
  6
CONTINUOUS
 62
    7
370
   -1
100
AcDbLine
 10
138.403242
 20
58.290693
 11
98.40324200000001
 21
58.290693
  0
LINE
  5
C0
100
AcDbEntity
  8
FORT
  6
CONTINUOUS
 62
    7
370
   -1
100
AcDbLine
 10
171.903242
 20
63.290693
 11
103.403242
 21
63.290693
  0
LINE
  5
C1
100
AcDbEntity
  8
FORT
  6
CONTINUOUS
 62
    7
370
   -1
100
AcDbLine
 10
138.403242
 20
118.290693
 11
83.40324200000001
 21
118.290693
  0
LINE
  5
C2
100
AcDbEntity
  8
FORT
  6
CONTINUOUS
 62
    7
370
   -1
100
AcDbLine
 10
171.903242
 20
83.290693
 11
83.40324200000001
 21
83.290693
  0
LINE
  5
C3
100
AcDbEntity
  8
FORT
  6
CONTINUOUS
 62
    7
370
   -1
100
AcDbLine
 10
118.403242
 20
71.290693
 11
83.40324200000001
 21
71.290693
  0
LINE
  5
C4
100
AcDbEntity
  8
FORT
  6
CONTINUOUS
 62
    7
370
   -1
100
AcDbLine
 10
148.403242
 20
93.290693
 11
103.403242
 21
93.290693
  0
LINE
  5
C5
100
AcDbEntity
  8
FORT
  6
CONTINUOUS
 62
    7
370
   -1
100
AcDbLine
 10
148.403242
 20
103.290693
 11
103.403242
 21
103.290693
  0
LINE
  5
C6
100
AcDbEntity
  8
FORT
  6
CONTINUOUS
 62
    7
370
   -1
100
AcDbLine
 10
171.903242
 20
73.290693
 11
103.403242
 21
73.290693
  0
LINE
  5
C7
100
AcDbEntity
  8
FORT
  6
CONTINUOUS
 62
    7
370
   -1
100
AcDbLine
 10
148.403242
 20
113.290693
 11
103.403242
 21
113.290693
  0
LINE
  5
C8
100
AcDbEntity
  8
FORT
  6
CONTINUOUS
 62
    7
370
   -1
100
AcDbLine
 10
83.40324200000001
 20
58.290693
 11
83.40324200000001
 21
118.290693
  0
LINE
  5
C9
100
AcDbEntity
  8
FORT
  6
CONTINUOUS
 62
    7
370
   -1
100
AcDbLine
 10
79.40324200000001
 20
73.290693
 11
79.40324200000001
 21
69.290693
  0
LINE
  5
CA
100
AcDbEntity
  8
FORT
  6
CONTINUOUS
 62
    7
370
   -1
100
AcDbLine
 10
98.403322
 20
71.290693
 11
98.407175
 21
83.290693
  0
LINE
  5
CB
100
AcDbEntity
  8
FORT
  6
CONTINUOUS
 62
    7
370
   -1
100
AcDbLine
 10
93.40324200000001
 20
71.290693
 11
93.40324200000001
 21
65.290693
  0
LINE
  5
CC
100
AcDbEntity
  8
FORT
  6
CONTINUOUS
 62
    7
370
   -1
100
AcDbLine
 10
98.40324200000001
 20
58.290693
 11
83.40324200000001
 21
58.290693
  0
LINE
  5
CD
100
AcDbEntity
  8
FORT
  6
CONTINUOUS
 62
    7
370
   -1
100
AcDbLine
 10
83.40324200000001
 20
64.54069200000001
 11
98.40324200000001
 21
64.540612
  0
MTEXT
  5
CE
100
AcDbEntity
  8
TEXTE
  6
CONTINUOUS
 62
    7
370
   -1
100
AcDbMText
 10
62.903242
 20
40.29069299999968
 30
0
 40
5
 41
2.222222222222532
 71
    9
 72
    5
  1
5
  7
iso9
210
0
220
0
230
1
 50
0
 73
    1
 44
0.96
  0
LINE
  5
CF
100
AcDbEntity
  8
FORT
  6
CONTINUOUS
 62
    7
370
   -1
100
AcDbLine
 10
81.40324200000001
 20
67.290693
 11
79.40324200000001
 21
67.290693
  0
LINE
  5
D0
100
AcDbEntity
  8
FORT
  6
CONTINUOUS
 62
    7
370
   -1
100
AcDbLine
 10
79.40324200000001
 20
69.290693
 11
81.40324200000001
 21
69.290693
  0
LINE
  5
D1
100
AcDbEntity
  8
FORT
  6
CONTINUOUS
 62
    7
370
   -1
100
AcDbLine
 10
81.40324200000001
 20
69.290693
 11
81.40324200000001
 21
67.290693
  0
LINE
  5
D2
100
AcDbEntity
  8
FORT
  6
CONTINUOUS
 62
    7
370
   -1
100
AcDbLine
 10
79.40324200000001
 20
67.290693
 11
79.40324200000001
 21
63.290693
  0
LINE
  5
D3
100
AcDbEntity
  8
FORT
  6
CONTINUOUS
 62
    7
370
   -1
100
AcDbLine
 10
79.40324200000001
 20
63.290693
 11
83.40324200000001
 21
63.290693
  0
LINE
  5
D4
100
AcDbEntity
  8
FORT
  6
CONTINUOUS
 62
    7
370
   -1
100
AcDbLine
 10
98.40324200000001
 20
58.290693
 11
98.40324200000001
 21
65.290693
  0
LINE
  5
D5
100
AcDbEntity
  8
FORT
  6
CONTINUOUS
 62
    7
370
   -1
100
AcDbLine
 10
100.403242
 20
60.290693
 11
103.403242
 21
63.290693
  0
LINE
  5
D6
100
AcDbEntity
  8
FORT
  6
CONTINUOUS
 62
    7
370
   -1
100
AcDbLine
 10
100.403242
 20
60.290693
 11
98.406538
 21
60.290693
  0
MTEXT
  5
D7
100
AcDbEntity
  8
TEXTE
  6
CONTINUOUS
 62
    7
370
   -1
100
AcDbMText
 10
111.903242
 20
40.290693
 30
0
 40
5
 41
2.222222222222222
 71
    9
 72
    5
  1
8
  7
iso9
210
0
220
0
230
1
 50
0
 73
    1
 44
0.96
  0
LINE
  5
D8
100
AcDbEntity
  8
FORT
  6
CONTINUOUS
 62
    7
370
   -1
100
AcDbLine
 10
88.40324200000001
 20
118.040693
 11
88.40324200000001
 21
88.290693
  0
LINE
  5
D9
100
AcDbEntity
  8
FORT
  6
CONTINUOUS
 62
    7
370
   -1
100
AcDbLine
 10
103.403242
 20
118.040693
 11
103.403242
 21
88.290693
  0
LINE
  5
DA
100
AcDbEntity
  8
FORT
  6
CONTINUOUS
 62
    7
370
   -1
100
AcDbLine
 10
79.40324200000001
 20
109.290693
 11
79.40324200000001
 21
113.290693
  0
LINE
  5
DB
100
AcDbEntity
  8
FORT
  6
CONTINUOUS
 62
    7
370
   -1
100
AcDbLine
 10
81.40324200000001
 20
107.290693
 11
81.40324200000001
 21
109.290693
  0
LINE
  5
DC
100
AcDbEntity
  8
FORT
  6
CONTINUOUS
 62
    7
370
   -1
100
AcDbLine
 10
83.40324200000001
 20
72.040694
 11
98.40356300000001
 21
72.040775
  0
LINE
  5
DD
100
AcDbEntity
  8
FORT
  6
CONTINUOUS
 62
    7
370
   -1
100
AcDbLine
 10
83.40324200000001
 20
82.48907699999999
 11
100.386088
 21
82.48907699999999
  0
LINE
  5
DE
100
AcDbEntity
  8
FORT
  6
CONTINUOUS
 62
    7
370
   -1
100
AcDbLine
 10
79.40324200000001
 20
103.290693
 11
79.40324200000001
 21
107.290693
  0
LINE
  5
DF
100
AcDbEntity
  8
FORT
  6
CONTINUOUS
 62
    7
370
   -1
100
AcDbLine
 10
79.40324200000001
 20
73.290693
 11
83.40324200000001
 21
73.290693
  0
LINE
  5
E0
100
AcDbEntity
  8
FORT
  6
CONTINUOUS
 62
    7
370
   -1
100
AcDbLine
 10
83.40324200000001
 20
79.290693
 11
59.903242
 21
79.290693
  0
LINE
  5
E1
100
AcDbEntity
  8
FORT
  6
CONTINUOUS
 62
    7
370
   -1
100
AcDbLine
 10
83.15324200000001
 20
97.290693
 11
59.903242
 21
97.290693
  0
ARC
  5
E2
100
AcDbEntity
  8
FORT
  6
CONTINUOUS
 62
    7
370
   -1
100
AcDbCircle
 10
66.40324200000001
 20
88.290693
 40
5.5
100
AcDbArc
 50
0
 51
180
  0
ARC
  5
E3
100
AcDbEntity
  8
FORT
  6
CONTINUOUS
 62
    7
370
   -1
100
AcDbCircle
 10
66.40324200000001
 20
88.290693
 40
4.5
100
AcDbArc
 50
0
 51
180
  0
ARC
  5
E4
100
AcDbEntity
  8
FORT
  6
CONTINUOUS
 62
    7
370
   -1
100
AcDbCircle
 10
66.40324200000001
 20
88.290693
 40
4
100
AcDbArc
 50
180
 51
0
  0
LINE
  5
E5
100
AcDbEntity
  8
FORT
  6
CONTINUOUS
 62
    7
370
   -1
100
AcDbLine
 10
59.903242
 20
97.290693
 11
59.903242
 21
88.290693
  0
LINE
  5
E6
100
AcDbEntity
  8
FORT
  6
CONTINUOUS
 62
    7
370
   -1
100
AcDbLine
 10
58.403242
 20
95.790693
 11
58.403242
 21
88.290693
  0
LINE
  5
E7
100
AcDbEntity
  8
FORT
  6
CONTINUOUS
 62
    7
370
   -1
100
AcDbLine
 10
59.903242
 20
97.290693
 11
59.903242
 21
88.290693
  0
LINE
  5
E8
100
AcDbEntity
  8
FORT
  6
CONTINUOUS
 62
    7
370
   -1
100
AcDbLine
 10
59.903242
 20
79.290693
 11
58.403242
 21
80.790693
  0
LINE
  5
E9
100
AcDbEntity
  8
FORT
  6
CONTINUOUS
 62
    7
370
   -1
100
AcDbLine
 10
58.403242
 20
80.790693
 11
58.403242
 21
88.290693
  0
LINE
  5
EA
100
AcDbEntity
  8
FORT
  6
CONTINUOUS
 62
    7
370
   -1
100
AcDbLine
 10
59.903242
 20
97.290693
 11
58.403242
 21
95.790693
  0
ARC
  5
EB
100
AcDbEntity
  8
FORT
  6
CONTINUOUS
 62
    7
370
   -1
100
AcDbCircle
 10
66.40324200000001
 20
88.290693
 40
3
100
AcDbArc
 50
180
 51
0
  0
CIRCLE
  5
EC
100
AcDbEntity
  8
FORT
  6
CONTINUOUS
 62
    7
370
   -1
100
AcDbCircle
 10
75.877775
 20
84.182034
 40
0.3
  0
LINE
  5
ED
100
AcDbEntity
  8
FORT
  6
CONTINUOUS
 62
    7
370
   -1
100
AcDbLine
 10
79.40324200000001
 20
103.290693
 11
83.40324200000001
 21
103.290693
  0
LINE
  5
EE
100
AcDbEntity
  8
FORT
  6
CONTINUOUS
 62
    7
370
   -1
100
AcDbLine
 10
79.40324200000001
 20
107.290693
 11
81.40324200000001
 21
107.290693
  0
LINE
  5
EF
100
AcDbEntity
  8
FORT
  6
CONTINUOUS
 62
    7
370
   -1
100
AcDbLine
 10
100.403242
 20
76.290693
 11
103.403242
 21
73.290693
  0
LINE
  5
F0
100
AcDbEntity
  8
FORT
  6
CONTINUOUS
 62
    7
370
   -1
100
AcDbLine
 10
103.403242
 20
88.290693
 11
103.403242
 21
86.790693
  0
ARC
  5
F1
100
AcDbEntity
  8
FORT
  6
CONTINUOUS
 62
    7
370
   -1
100
AcDbCircle
 10
102.403242
 20
86.790693
 40
1
100
AcDbArc
 50
180
 51
0
  0
CIRCLE
  5
F2
100
AcDbEntity
  8
FORT
  6
CONTINUOUS
 62
    7
370
   -1
100
AcDbCircle
 10
102.236009
 20
86.856058
 40
0.3
  0
LINE
  5
F3
100
AcDbEntity
  8
FORT
  6
CONTINUOUS
 62
    7
370
   -1
100
AcDbLine
 10
101.403242
 20
88.290693
 11
101.403242
 21
86.790693
  0
LINE
  5
F4
100
AcDbEntity
  8
FORT
  6
CONTINUOUS
 62
    7
370
   -1
100
AcDbLine
 10
100.403242
 20
76.290693
 11
98.406538
 21
76.290693
  0
LINE
  5
F5
100
AcDbEntity
  8
FORT
  6
CONTINUOUS
 62
    7
370
   -1
100
AcDbLine
 10
100.386088
 20
78.299519
 11
98.40557
 21
78.299519
  0
LINE
  5
F6
100
AcDbEntity
  8
FORT
  6
CONTINUOUS
 62
    7
370
   -1
100
AcDbLine
 10
100.386088
 20
78.299519
 11
100.386088
 21
83.290693
  0
CIRCLE
  5
F7
100
AcDbEntity
  8
FORT
  6
CONTINUOUS
 62
    7
370
   -1
100
AcDbCircle
 10
99.561986
 20
79.597994
 40
0.3
  0
LINE
  5
F8
100
AcDbEntity
  8
FORT
  6
CONTINUOUS
 62
    7
370
   -1
100
AcDbLine
 10
81.40324200000001
 20
109.290693
 11
79.40324200000001
 21
109.290693
  0
LINE
  5
F9
100
AcDbEntity
  8
FORT
  6
CONTINUOUS
 62
    7
370
   -1
100
AcDbLine
 10
105.403242
 20
83.290693
 11
105.403242
 21
93.290693
  0
LINE
  5
FA
100
AcDbEntity
  8
FORT
  6
CONTINUOUS
 62
    7
370
   -1
100
AcDbLine
 10
79.40324200000001
 20
113.290693
 11
83.40324200000001
 21
113.290693
  0
LINE
  5
FB
100
AcDbEntity
  8
FORT
  6
CONTINUOUS
 62
    7
370
   -1
100
AcDbLine
 10
171.903242
 20
73.290693
 11
171.903242
 21
63.290693
  0
LINE
  5
FC
100
AcDbEntity
  8
FORT
  6
CONTINUOUS
 62
    7
370
   -1
100
AcDbLine
 10
173.403242
 20
71.790693
 11
171.903242
 21
73.290693
  0
LINE
  5
FD
100
AcDbEntity
  8
FORT
  6
CONTINUOUS
 62
    7
370
   -1
100
AcDbLine
 10
122.691814
 20
71.290693
 11
122.691814
 21
65.290693
  0
LINE
  5
FE
100
AcDbEntity
  8
FORT
  6
CONTINUOUS
 62
    7
370
   -1
100
AcDbLine
 10
118.403242
 20
71.290693
 11
118.403242
 21
65.290693
  0
LINE
  5
FF
100
AcDbEntity
  8
FORT
  6
CONTINUOUS
 62
    7
370
   -1
100
AcDbLine
 10
173.403242
 20
71.790693
 11
173.403242
 21
64.790693
  0
LINE
  5
100
100
AcDbEntity
  8
FORT
  6
CONTINUOUS
 62
    7
370
   -1
100
AcDbLine
 10
118.403242
 20
71.290693
 11
119.403242
 21
70.290693
  0
LINE
  5
101
100
AcDbEntity
  8
FORT
  6
CONTINUOUS
 62
    7
370
   -1
100
AcDbLine
 10
119.403242
 20
70.290693
 11
119.403242
 21
66.290693
  0
LINE
  5
102
100
AcDbEntity
  8
FORT
  6
CONTINUOUS
 62
    7
370
   -1
100
AcDbLine
 10
126.334051
 20
70.290693
 11
126.334051
 21
66.290693
  0
LINE
  5
103
100
AcDbEntity
  8
FORT
  6
CONTINUOUS
 62
    7
370
   -1
100
AcDbLine
 10
126.334051
 20
70.290693
 11
127.334051
 21
68.290693
  0
LINE
  5
104
100
AcDbEntity
  8
FORT
  6
CONTINUOUS
 62
    7
370
   -1
100
AcDbLine
 10
126.334051
 20
66.290693
 11
119.403242
 21
66.290693
  0
LINE
  5
105
100
AcDbEntity
  8
FORT
  6
CONTINUOUS
 62
    7
370
   -1
100
AcDbLine
 10
119.403242
 20
66.290693
 11
118.403242
 21
65.290693
  0
LINE
  5
106
100
AcDbEntity
  8
FORT
  6
CONTINUOUS
 62
    7
370
   -1
100
AcDbLine
 10
127.334051
 20
68.290693
 11
126.334051
 21
66.290693
  0
LINE
  5
107
100
AcDbEntity
  8
FORT
  6
CONTINUOUS
 62
    7
370
   -1
100
AcDbLine
 10
168.403242
 20
58.290693
 11
153.403242
 21
58.290693
  0
LINE
  5
108
100
AcDbEntity
  8
FORT
  6
CONTINUOUS
 62
    7
370
   -1
100
AcDbLine
 10
143.403242
 20
63.290693
 11
138.403242
 21
58.290693
  0
LINE
  5
109
100
AcDbEntity
  8
FORT
  6
CONTINUOUS
 62
    7
370
   -1
100
AcDbLine
 10
153.403242
 20
58.290693
 11
153.403242
 21
63.290693
  0
MTEXT
  5
10A
100
AcDbEntity
  8
TEXTE
  6
CONTINUOUS
 62
    7
370
   -1
100
AcDbMText
 10
137.903242
 20
40.290693
 30
0
 40
5
 41
2.222222222222532
 71
    9
 72
    5
  1
9
  7
iso9
210
0
220
0
230
1
 50
0
 73
    1
 44
0.96
  0
LINE
  5
10B
100
AcDbEntity
  8
FORT
  6
CONTINUOUS
 62
    7
370
   -1
100
AcDbLine
 10
143.153242
 20
63.290693
 11
143.153242
 21
63.290693
  0
LINE
  5
10C
100
AcDbEntity
  8
FORT
  6
CONTINUOUS
 62
    7
370
   -1
100
AcDbLine
 10
143.653242
 20
63.290693
 11
143.653242
 21
63.290693
  0
LINE
  5
10D
100
AcDbEntity
  8
FORT
  6
CONTINUOUS
 62
    7
370
   -1
100
AcDbLine
 10
143.153242
 20
63.290693
 11
143.653242
 21
63.290693
  0
LINE
  5
10E
100
AcDbEntity
  8
FORT
  6
CONTINUOUS
 62
    7
370
   -1
100
AcDbLine
 10
143.153242
 20
63.290693
 11
143.653242
 21
63.290693
  0
LINE
  5
10F
100
AcDbEntity
  8
FORT
  6
CONTINUOUS
 62
    7
370
   -1
100
AcDbLine
 10
168.403242
 20
63.240912
 11
168.403242
 21
58.290693
  0
LINE
  5
110
100
AcDbEntity
  8
FORT
  6
CONTINUOUS
 62
    7
370
   -1
100
AcDbLine
 10
171.903242
 20
63.290693
 11
173.403242
 21
64.790693
  0
CIRCLE
  5
111
100
AcDbEntity
  8
FORT
  6
CONTINUOUS
 62
    7
370
   -1
100
AcDbCircle
 10
169.862396
 20
65.79336600000001
 40
0.3
  0
LINE
  5
112
100
AcDbEntity
  8
FORT
  6
CONTINUOUS
 62
    7
370
   -1
100
AcDbLine
 10
119.403242
 20
70.290693
 11
126.334051
 21
70.290693
  0
MTEXT
  5
113
100
AcDbEntity
  8
TEXTE
  6
CONTINUOUS
 62
    7
370
   -1
100
AcDbMText
 10
188.903242
 20
40.290693
 30
0
 40
5
 41
2.777777777777778
 71
    9
 72
    5
  1
4
  7
iso9
210
0
220
0
230
1
 50
0
 73
    1
 44
0.96
  0
LINE
  5
114
100
AcDbEntity
  8
FORT
  6
CONTINUOUS
 62
    7
370
   -1
100
AcDbLine
 10
148.403242
 20
88.290693
 11
148.403242
 21
118.290693
  0
LINE
  5
115
100
AcDbEntity
  8
FORT
  6
CONTINUOUS
 62
    7
370
   -1
100
AcDbLine
 10
163.403242
 20
118.290693
 11
163.403242
 21
88.290693
  0
LINE
  5
116
100
AcDbEntity
  8
FORT
  6
CONTINUOUS
 62
    7
370
   -1
100
AcDbLine
 10
168.403242
 20
88.290693
 11
168.403242
 21
118.290693
  0
LINE
  5
117
100
AcDbEntity
  8
FORT
  6
CONTINUOUS
 62
    7
370
   -1
100
AcDbLine
 10
171.903242
 20
113.290693
 11
171.903242
 21
103.290693
  0
LINE
  5
118
100
AcDbEntity
  8
FORT
  6
CONTINUOUS
 62
    7
370
   -1
100
AcDbLine
 10
173.403242
 20
111.790693
 11
173.403242
 21
104.790693
  0
LINE
  5
119
100
AcDbEntity
  8
FORT
  6
CONTINUOUS
 62
    7
370
   -1
100
AcDbLine
 10
143.403242
 20
73.290693
 11
143.403242
 21
83.290693
  0
LINE
  5
11A
100
AcDbEntity
  8
FORT
  6
CONTINUOUS
 62
    7
370
   -1
100
AcDbLine
 10
153.403242
 20
73.290693
 11
153.403242
 21
83.290693
  0
LINE
  5
11B
100
AcDbEntity
  8
FORT
  6
CONTINUOUS
 62
    7
370
   -1
100
AcDbLine
 10
168.403242
 20
73.290693
 11
168.403242
 21
83.290693
  0
LINE
  5
11C
100
AcDbEntity
  8
FORT
  6
CONTINUOUS
 62
    7
370
   -1
100
AcDbLine
 10
143.403242
 20
93.290693
 11
143.403242
 21
103.290693
  0
LINE
  5
11D
100
AcDbEntity
  8
FORT
  6
CONTINUOUS
 62
    7
370
   -1
100
AcDbLine
 10
171.903242
 20
93.290693
 11
171.903242
 21
83.290693
  0
LINE
  5
11E
100
AcDbEntity
  8
FORT
  6
CONTINUOUS
 62
    7
370
   -1
100
AcDbLine
 10
173.403242
 20
91.790693
 11
173.403242
 21
84.790693
  0
LINE
  5
11F
100
AcDbEntity
  8
FORT
  6
CONTINUOUS
 62
    7
370
   -1
100
AcDbLine
 10
171.903242
 20
83.290693
 11
173.403242
 21
84.790693
  0
LINE
  5
120
100
AcDbEntity
  8
FORT
  6
CONTINUOUS
 62
    7
370
   -1
100
AcDbLine
 10
171.903242
 20
93.290693
 11
168.653242
 21
93.290693
  0
LINE
  5
121
100
AcDbEntity
  8
FORT
  6
CONTINUOUS
 62
    7
370
   -1
100
AcDbLine
 10
173.403242
 20
91.790693
 11
171.903242
 21
93.290693
  0
LINE
  5
122
100
AcDbEntity
  8
FORT
  6
CONTINUOUS
 62
    7
370
   -1
100
AcDbLine
 10
171.903242
 20
103.290693
 11
173.403242
 21
104.790693
  0
LINE
  5
123
100
AcDbEntity
  8
FORT
  6
CONTINUOUS
 62
    7
370
   -1
100
AcDbLine
 10
171.903242
 20
103.290693
 11
168.653242
 21
103.290693
  0
MTEXT
  5
124
100
AcDbEntity
  8
TEXTE
  6
CONTINUOUS
 62
    7
370
   -1
100
AcDbMText
 10
130.41384
 20
130.177227
 30
0
 40
5
 41
12.22222222222222
 71
    9
 72
    5
  1
A-A
  7
iso9
210
0
220
0
230
1
 50
0
 73
    1
 44
0.96
  0
LINE
  5
125
100
AcDbEntity
  8
FORT
  6
CONTINUOUS
 62
    7
370
   -1
100
AcDbLine
 10
173.403242
 20
111.790693
 11
171.903242
 21
113.290693
  0
LINE
  5
126
100
AcDbEntity
  8
FORT
  6
CONTINUOUS
 62
    7
370
   -1
100
AcDbLine
 10
168.153242
 20
118.290693
 11
148.403242
 21
118.290693
  0
LINE
  5
127
100
AcDbEntity
  8
FORT
  6
CONTINUOUS
 62
    7
370
   -1
100
AcDbLine
 10
138.403242
 20
118.290693
 11
143.403242
 21
113.290693
  0
LINE
  5
128
100
AcDbEntity
  8
FORT
  6
CONTINUOUS
 62
    7
370
   -1
100
AcDbLine
 10
143.403242
 20
113.290693
 11
143.403242
 21
113.290693
  0
LINE
  5
129
100
AcDbEntity
  8
FORT
  6
CONTINUOUS
 62
    7
370
   -1
100
AcDbLine
 10
171.903242
 20
113.290693
 11
168.653242
 21
113.290693
  0
LINE
  5
12A
100
AcDbEntity
  8
FORT
  6
CONTINUOUS
 62
    7
370
   -1
100
AcDbLine
 10
83.40324200000001
 20
177.666616
 11
143.403242
 21
177.666616
  0
LINE
  5
12B
100
AcDbEntity
  8
FORT
  6
CONTINUOUS
 62
    7
370
   -1
100
AcDbLine
 10
143.403242
 20
192.666616
 11
95.40324200000001
 21
192.666616
  0
LINE
  5
12C
100
AcDbEntity
  8
FORT
  6
CONTINUOUS
 62
    7
370
   -1
100
AcDbLine
 10
103.403242
 20
232.666616
 11
153.368624
 21
232.666616
  0
LINE
  5
12D
100
AcDbEntity
  8
FORT
  6
CONTINUOUS
 62
    7
370
   -1
100
AcDbLine
 10
153.368624
 20
222.666616
 11
103.403242
 21
222.666616
  0
LINE
  5
12E
100
AcDbEntity
  8
FORT
  6
CONTINUOUS
 62
    7
370
   -1
100
AcDbLine
 10
98.40324200000001
 20
242.666616
 11
98.40324200000001
 21
192.666616
  0
LINE
  5
12F
100
AcDbEntity
  8
FORT
  6
CONTINUOUS
 62
    7
370
   -1
100
AcDbLine
 10
83.40324200000001
 20
177.666616
 11
83.40324200000001
 21
252.666616
  0
LINE
  5
130
100
AcDbEntity
  8
FORT
  6
CONTINUOUS
 62
    7
370
   -1
100
AcDbLine
 10
100.403242
 20
237.666616
 11
100.403242
 21
217.666616
  0
LINE
  5
131
100
AcDbEntity
  8
FORT
  6
CONTINUOUS
 62
    7
370
   -1
100
AcDbLine
 10
58.403242
 20
220.166616
 11
58.403242
 21
235.166616
  0
LINE
  5
132
100
AcDbEntity
  8
FORT
  6
CONTINUOUS
 62
    7
370
   -1
100
AcDbLine
 10
59.903242
 20
218.666616
 11
59.903242
 21
236.666616
  0
LINE
  5
133
100
AcDbEntity
  8
FORT
  6
CONTINUOUS
 62
    7
370
   -1
100
AcDbLine
 10
78.90324200000001
 20
222.666616
 11
78.90324200000001
 21
232.666616
  0
LINE
  5
134
100
AcDbEntity
  8
FORT
  6
CONTINUOUS
 62
    7
370
   -1
100
AcDbLine
 10
103.403242
 20
222.666616
 11
103.403242
 21
232.666616
  0
MTEXT
  5
135
100
AcDbEntity
  8
TEXTE
  6
CONTINUOUS
 62
    7
370
   -1
100
AcDbMText
 10
37.903242
 20
159.666616
 30
0
 40
5
 41
2.222222222222532
 71
    9
 72
    5
  1
6
  7
iso9
210
0
220
0
230
1
 50
0
 73
    1
 44
0.96
  0
LINE
  5
136
100
AcDbEntity
  8
FORT
  6
CONTINUOUS
 62
    7
370
   -1
100
AcDbLine
 10
69.40324200000001
 20
186.713186
 11
69.40324200000001
 21
218.666616
  0
LINE
  5
137
100
AcDbEntity
  8
FORT
  6
CONTINUOUS
 62
    7
370
   -1
100
AcDbLine
 10
63.403242
 20
186.713186
 11
63.403242
 21
218.666616
  0
LINE
  5
138
100
AcDbEntity
  8
FORT
  6
CONTINUOUS
 62
    7
370
   -1
100
AcDbLine
 10
95.40324200000001
 20
192.666616
 11
95.40324200000001
 21
177.666616
  0
LINE
  5
139
100
AcDbEntity
  8
FORT
  6
CONTINUOUS
 62
    7
370
   -1
100
AcDbLine
 10
78.90324200000001
 20
180.166616
 11
78.90324200000001
 21
190.166616
  0
CIRCLE
  5
13A
100
AcDbEntity
  8
FORT
  6
CONTINUOUS
 62
    7
370
   -1
100
AcDbCircle
 10
91.29543200000001
 20
181.165767
 40
0.3
  0
MTEXT
  5
13B
100
AcDbEntity
  8
TEXTE
  6
CONTINUOUS
 62
    7
370
   -1
100
AcDbMText
 10
61.903242
 20
159.666616
 30
0
 40
5
 41
2.222222222222222
 71
    9
 72
    5
  1
7
  7
iso9
210
0
220
0
230
1
 50
0
 73
    1
 44
0.96
  0
MTEXT
  5
13C
100
AcDbEntity
  8
TEXTE
  6
CONTINUOUS
 62
    7
370
   -1
100
AcDbMText
 10
88.60333799999999
 20
159.666616
 30
0
 40
5
 41
5
 71
    9
 72
    5
  1
10
  7
iso9
210
0
220
0
230
1
 50
0
 73
    1
 44
0.96
  0
LINE
  5
13D
100
AcDbEntity
  8
FORT
  6
CONTINUOUS
 62
    7
370
   -1
100
AcDbLine
 10
83.40324200000001
 20
180.166616
 11
78.90324200000001
 21
180.166616
  0
LINE
  5
13E
100
AcDbEntity
  8
FORT
  6
CONTINUOUS
 62
    7
370
   -1
100
AcDbLine
 10
70.77281000000001
 20
181.713186
 11
61.77281
 21
181.713186
  0
LINE
  5
13F
100
AcDbEntity
  8
FORT
  6
CONTINUOUS
 62
    7
370
   -1
100
AcDbLine
 10
67.90324200000001
 20
186.713186
 11
70.77281000000001
 21
186.713186
  0
LINE
  5
140
100
AcDbEntity
  8
FORT
  6
CONTINUOUS
 62
    7
370
   -1
100
AcDbLine
 10
61.77281
 20
181.713186
 11
60.77281
 21
182.713186
  0
LINE
  5
141
100
AcDbEntity
  8
FORT
  6
CONTINUOUS
 62
    7
370
   -1
100
AcDbLine
 10
60.77281
 20
185.713186
 11
61.77281
 21
186.713186
  0
LINE
  5
142
100
AcDbEntity
  8
FORT
  6
CONTINUOUS
 62
    7
370
   -1
100
AcDbLine
 10
60.77281
 20
182.713186
 11
60.77281
 21
185.713186
  0
LINE
  5
143
100
AcDbEntity
  8
FORT
  6
CONTINUOUS
 62
    7
370
   -1
100
AcDbLine
 10
64.90324200000001
 20
186.713186
 11
64.90324200000001
 21
183.713186
  0
LINE
  5
144
100
AcDbEntity
  8
FORT
  6
CONTINUOUS
 62
    7
370
   -1
100
AcDbLine
 10
67.90324200000001
 20
183.713186
 11
67.90324200000001
 21
186.713186
  0
LINE
  5
145
100
AcDbEntity
  8
FORT
  6
CONTINUOUS
 62
    7
370
   -1
100
AcDbLine
 10
67.90324200000001
 20
183.713186
 11
69.90324200000001
 21
181.713186
  0
LINE
  5
146
100
AcDbEntity
  8
FORT
  6
CONTINUOUS
 62
    7
370
   -1
100
AcDbLine
 10
64.90324200000001
 20
183.713186
 11
62.903242
 21
181.713186
  0
LINE
  5
147
100
AcDbEntity
  8
FORT
  6
CONTINUOUS
 62
    7
370
   -1
100
AcDbLine
 10
61.77281
 20
186.713186
 11
64.90324200000001
 21
186.713186
  0
LINE
  5
148
100
AcDbEntity
  8
FORT
  6
CONTINUOUS
 62
    7
370
   -1
100
AcDbLine
 10
71.77281000000001
 20
182.713186
 11
71.77281000000001
 21
185.713186
  0
LINE
  5
149
100
AcDbEntity
  8
FORT
  6
CONTINUOUS
 62
    7
370
   -1
100
AcDbLine
 10
70.77281000000001
 20
181.713186
 11
71.77281000000001
 21
182.713186
  0
CIRCLE
  5
14A
100
AcDbEntity
  8
FORT
  6
CONTINUOUS
 62
    7
370
   -1
100
AcDbCircle
 10
82.152801
 20
182.564469
 40
0.3
  0
CIRCLE
  5
14B
100
AcDbEntity
  8
FORT
  6
CONTINUOUS
 62
    7
370
   -1
100
AcDbCircle
 10
70.647841
 20
183.616555
 40
0.3
  0
LINE
  5
14C
100
AcDbEntity
  8
FORT
  6
CONTINUOUS
 62
    7
370
   -1
100
AcDbLine
 10
71.77281000000001
 20
185.713186
 11
70.77281000000001
 21
186.713186
  0
MTEXT
  5
14D
100
AcDbEntity
  8
TEXTE
  6
CONTINUOUS
 62
    7
370
   -1
100
AcDbMText
 10
111.903242
 20
159.666616
 30
0
 40
5
 41
1.111111111111111
 71
    9
 72
    5
  1
1
  7
iso9
210
0
220
0
230
1
 50
0
 73
    1
 44
0.96
  0
CIRCLE
  5
14E
100
AcDbEntity
  8
FORT
  6
CONTINUOUS
 62
    7
370
   -1
100
AcDbCircle
 10
64.80620999999999
 20
204.951913
 40
0.3
  0
LINE
  5
14F
100
AcDbEntity
  8
FORT
  6
CONTINUOUS
 62
    7
370
   -1
100
AcDbLine
 10
83.40324200000001
 20
190.166616
 11
78.90324200000001
 21
190.166616
  0
LINE
  5
150
100
AcDbEntity
  8
FORT
  6
CONTINUOUS
 62
    7
370
   -1
100
AcDbLine
 10
98.406538
 20
217.666616
 11
100.403242
 21
217.666616
  0
LINE
  5
151
100
AcDbEntity
  8
FORT
  6
CONTINUOUS
 62
    7
370
   -1
100
AcDbLine
 10
83.40324200000001
 20
218.666616
 11
59.903242
 21
218.666616
  0
LINE
  5
152
100
AcDbEntity
  8
FORT
  6
CONTINUOUS
 62
    7
370
   -1
100
AcDbLine
 10
59.903242
 20
218.666616
 11
58.403242
 21
220.166616
  0
LINE
  5
153
100
AcDbEntity
  8
FORT
  6
CONTINUOUS
 62
    7
370
   -1
100
AcDbLine
 10
83.40324200000001
 20
222.666616
 11
78.90324200000001
 21
222.666616
  0
LINE
  5
154
100
AcDbEntity
  8
FORT
  6
CONTINUOUS
 62
    7
370
   -1
100
AcDbLine
 10
100.403242
 20
219.666616
 11
103.403242
 21
222.666616
  0
LINE
  5
155
100
AcDbEntity
  8
FORT
  6
CONTINUOUS
 62
    7
370
   -1
100
AcDbLine
 10
100.403242
 20
219.666616
 11
98.406538
 21
219.666616
  0
MTEXT
  5
156
100
AcDbEntity
  8
TEXTE
  6
CONTINUOUS
 62
    7
370
   -1
100
AcDbMText
 10
27.96157
 20
225.424949
 30
0
 40
5
 41
3.333333333333333
 71
    7
 72
    5
  1
A
  7
iso9
210
0
220
0
230
1
 50
0
 73
    1
 44
0.96
  0
LINE
  5
157
100
AcDbEntity
  8
FORT
  6
CONTINUOUS
 62
    7
370
   -1
100
AcDbLine
 10
46.874404
 20
227.666616
 11
51.874404
 21
227.666616
  0
LINE
  5
158
100
AcDbEntity
  8
FORT
  6
CONTINUOUS
 62
    7
370
   -1
100
AcDbLine
 10
37.541071
 20
237.085227
 11
37.541071
 21
227.666616
  0
LINE
  5
159
100
AcDbEntity
  8
FORT
  6
CONTINUOUS
 62
    7
370
   -1
100
AcDbLine
 10
37.541071
 20
227.666616
 11
36.607738
 21
230.466616
  0
LINE
  5
15A
100
AcDbEntity
  8
FORT
  6
CONTINUOUS
 62
    7
370
   -1
100
AcDbLine
 10
37.541071
 20
227.666616
 11
38.474404
 21
230.466616
  0
LINE
  5
15B
100
AcDbEntity
  8
FORT
  6
CONTINUOUS
 62
    7
370
   -1
100
AcDbLine
 10
32.874404
 20
227.666616
 11
42.874404
 21
227.666616
  0
LINE
  5
15C
100
AcDbEntity
  8
FORT
  6
CONTINUOUS
 62
    7
370
   -1
100
AcDbLine
 10
43.874404
 20
227.666616
 11
45.874404
 21
227.666616
  0
LINE
  5
15D
100
AcDbEntity
  8
FORT
  6
CONTINUOUS
 62
    7
370
   -1
100
AcDbLine
 10
83.40324200000001
 20
252.666616
 11
88.40324200000001
 21
257.666616
  0
LINE
  5
15E
100
AcDbEntity
  8
FORT
  6
CONTINUOUS
 62
    7
370
   -1
100
AcDbLine
 10
103.403242
 20
257.666616
 11
103.403242
 21
242.666616
  0
LINE
  5
15F
100
AcDbEntity
  8
FORT
  6
CONTINUOUS
 62
    7
370
   -1
100
AcDbLine
 10
83.15324200000001
 20
236.666616
 11
59.903242
 21
236.666616
  0
LINE
  5
160
100
AcDbEntity
  8
FORT
  6
CONTINUOUS
 62
    7
370
   -1
100
AcDbLine
 10
71.77281000000001
 20
240.666616
 11
60.77281
 21
240.666616
  0
LINE
  5
161
100
AcDbEntity
  8
FORT
  6
CONTINUOUS
 62
    7
370
   -1
100
AcDbLine
 10
71.77281000000001
 20
237.666616
 11
60.77281
 21
237.666616
  0
LINE
  5
162
100
AcDbEntity
  8
FORT
  6
CONTINUOUS
 62
    7
370
   -1
100
AcDbLine
 10
70.77281000000001
 20
241.713186
 11
61.77281
 21
241.713186
  0
LINE
  5
163
100
AcDbEntity
  8
FORT
  6
CONTINUOUS
 62
    7
370
   -1
100
AcDbLine
 10
61.77281
 20
236.713186
 11
60.77281
 21
237.713186
  0
LINE
  5
164
100
AcDbEntity
  8
FORT
  6
CONTINUOUS
 62
    7
370
   -1
100
AcDbLine
 10
61.77281
 20
241.713186
 11
60.77281
 21
240.713186
  0
LINE
  5
165
100
AcDbEntity
  8
FORT
  6
CONTINUOUS
 62
    7
370
   -1
100
AcDbLine
 10
59.903242
 20
236.666616
 11
58.403242
 21
235.166616
  0
LINE
  5
166
100
AcDbEntity
  8
FORT
  6
CONTINUOUS
 62
    7
370
   -1
100
AcDbLine
 10
60.77281
 20
237.713186
 11
60.77281
 21
240.713186
  0
LINE
  5
167
100
AcDbEntity
  8
FORT
  6
CONTINUOUS
 62
    7
370
   -1
100
AcDbLine
 10
83.40324200000001
 20
232.666616
 11
78.90324200000001
 21
232.666616
  0
LINE
  5
168
100
AcDbEntity
  8
FORT
  6
CONTINUOUS
 62
    7
370
   -1
100
AcDbLine
 10
71.77281000000001
 20
237.713186
 11
71.77281000000001
 21
240.713186
  0
LINE
  5
169
100
AcDbEntity
  8
FORT
  6
CONTINUOUS
 62
    7
370
   -1
100
AcDbLine
 10
71.77281000000001
 20
240.713186
 11
70.77281000000001
 21
241.713186
  0
LINE
  5
16A
100
AcDbEntity
  8
FORT
  6
CONTINUOUS
 62
    7
370
   -1
100
AcDbLine
 10
70.77281000000001
 20
236.713186
 11
71.77281000000001
 21
237.713186
  0
LINE
  5
16B
100
AcDbEntity
  8
FORT
  6
CONTINUOUS
 62
    7
370
   -1
100
AcDbLine
 10
103.403242
 20
242.666616
 11
98.40324200000001
 21
242.666616
  0
LINE
  5
16C
100
AcDbEntity
  8
FORT
  6
CONTINUOUS
 62
    7
370
   -1
100
AcDbLine
 10
100.403242
 20
235.666616
 11
103.403242
 21
232.666616
  0
LINE
  5
16D
100
AcDbEntity
  8
FORT
  6
CONTINUOUS
 62
    7
370
   -1
100
AcDbLine
 10
100.403242
 20
235.666616
 11
98.406538
 21
235.666616
  0
LINE
  5
16E
100
AcDbEntity
  8
FORT
  6
CONTINUOUS
 62
    7
370
   -1
100
AcDbLine
 10
98.406538
 20
237.666616
 11
100.403242
 21
237.666616
  0
LINE
  5
16F
100
AcDbEntity
  8
FORT
  6
CONTINUOUS
 62
    7
370
   -1
100
AcDbLine
 10
88.40324200000001
 20
257.666616
 11
103.403242
 21
257.666616
  0
LINE
  5
170
100
AcDbEntity
  8
FORT
  6
CONTINUOUS
 62
    7
370
   -1
100
AcDbLine
 10
153.403242
 20
242.666616
 11
153.403242
 21
217.666616
  0
LINE
  5
171
100
AcDbEntity
  8
FORT
  6
CONTINUOUS
 62
    7
370
   -1
100
AcDbLine
 10
168.403242
 20
217.666616
 11
168.403242
 21
252.666616
  0
LINE
  5
172
100
AcDbEntity
  8
FORT
  6
CONTINUOUS
 62
    7
370
   -1
100
AcDbLine
 10
171.903242
 20
222.666616
 11
171.903242
 21
232.666616
  0
LINE
  5
173
100
AcDbEntity
  8
FORT
  6
CONTINUOUS
 62
    7
370
   -1
100
AcDbLine
 10
173.403242
 20
224.166616
 11
173.403242
 21
231.166616
  0
LINE
  5
174
100
AcDbEntity
  8
FORT
  6
CONTINUOUS
 62
    7
370
   -1
100
AcDbLine
 10
143.403242
 20
177.666616
 11
143.403242
 21
192.666616
  0
LINE
  5
175
100
AcDbEntity
  8
FORT
  6
CONTINUOUS
 62
    7
370
   -1
100
AcDbLine
 10
138.403242
 20
192.666616
 11
138.403242
 21
177.666616
  0
MTEXT
  5
176
100
AcDbEntity
  8
TEXTE
  6
CONTINUOUS
 62
    7
370
   -1
100
AcDbMText
 10
137.903242
 20
159.6666159999997
 30
0
 40
5
 41
2.222222222222532
 71
    9
 72
    5
  1
3
  7
iso9
210
0
220
0
230
1
 50
0
 73
    1
 44
0.96
  0
CIRCLE
  5
177
100
AcDbEntity
  8
FORT
  6
CONTINUOUS
 62
    7
370
   -1
100
AcDbCircle
 10
120.568777
 20
180.770181
 40
0.3
  0
LINE
  5
178
100
AcDbEntity
  8
FORT
  6
CONTINUOUS
 62
    7
370
   -1
100
AcDbLine
 10
153.403242
 20
217.666616
 11
168.403242
 21
217.666616
  0
LINE
  5
179
100
AcDbEntity
  8
FORT
  6
CONTINUOUS
 62
    7
370
   -1
100
AcDbLine
 10
153.368624
 20
222.666616
 11
168.653242
 21
222.666616
  0
LINE
  5
17A
100
AcDbEntity
  8
FORT
  6
CONTINUOUS
 62
    7
370
   -1
100
AcDbLine
 10
168.403242
 20
222.666616
 11
153.403242
 21
222.666616
  0
CIRCLE
  5
17B
100
AcDbEntity
  8
FORT
  6
CONTINUOUS
 62
    7
370
   -1
100
AcDbCircle
 10
162.105279
 20
220.724341
 40
0.3
  0
LINE
  5
17C
100
AcDbEntity
  8
FORT
  6
CONTINUOUS
 62
    7
370
   -1
100
AcDbLine
 10
173.403242
 20
224.166616
 11
171.903242
 21
222.666616
  0
LINE
  5
17D
100
AcDbEntity
  8
FORT
  6
CONTINUOUS
 62
    7
370
   -1
100
AcDbLine
 10
171.903242
 20
222.666616
 11
168.653242
 21
222.666616
  0
MTEXT
  5
17E
100
AcDbEntity
  8
TEXTE
  6
CONTINUOUS
 62
    7
370
   -1
100
AcDbMText
 10
187.903242
 20
159.666616
 30
0
 40
5
 41
2.222222222222222
 71
    9
 72
    5
  1
2
  7
iso9
210
0
220
0
230
1
 50
0
 73
    1
 44
0.96
  0
LINE
  5
17F
100
AcDbEntity
  8
FORT
  6
CONTINUOUS
 62
    7
370
   -1
100
AcDbLine
 10
183.708806
 20
227.666616
 11
178.708806
 21
227.666616
  0
LINE
  5
180
100
AcDbEntity
  8
FORT
  6
CONTINUOUS
 62
    7
370
   -1
100
AcDbLine
 10
168.403242
 20
252.666616
 11
163.403242
 21
257.666616
  0
LINE
  5
181
100
AcDbEntity
  8
FORT
  6
CONTINUOUS
 62
    7
370
   -1
100
AcDbLine
 10
148.403242
 20
257.666616
 11
148.403242
 21
242.666616
  0
LINE
  5
182
100
AcDbEntity
  8
FORT
  6
CONTINUOUS
 62
    7
370
   -1
100
AcDbLine
 10
148.403242
 20
242.666616
 11
153.403242
 21
242.666616
  0
LINE
  5
183
100
AcDbEntity
  8
FORT
  6
CONTINUOUS
 62
    7
370
   -1
100
AcDbLine
 10
171.903242
 20
232.666616
 11
168.653242
 21
232.666616
  0
LINE
  5
184
100
AcDbEntity
  8
FORT
  6
CONTINUOUS
 62
    7
370
   -1
100
AcDbLine
 10
171.903242
 20
232.666616
 11
173.403242
 21
231.166616
  0
LINE
  5
185
100
AcDbEntity
  8
FORT
  6
CONTINUOUS
 62
    7
370
   -1
100
AcDbLine
 10
163.403242
 20
257.666616
 11
148.403242
 21
257.666616
  0
MTEXT
  5
186
100
AcDbEntity
  8
TEXTE
  6
CONTINUOUS
 62
    7
370
   -1
100
AcDbMText
 10
202.62164
 20
225.424949
 30
0
 40
5
 41
3.333333333333333
 71
    9
 72
    5
  1
A
  7
iso9
210
0
220
0
230
1
 50
0
 73
    1
 44
0.96
  0
LINE
  5
187
100
AcDbEntity
  8
FORT
  6
CONTINUOUS
 62
    7
370
   -1
100
AcDbLine
 10
193.042139
 20
237.085227
 11
193.042139
 21
227.666616
  0
LINE
  5
188
100
AcDbEntity
  8
FORT
  6
CONTINUOUS
 62
    7
370
   -1
100
AcDbLine
 10
193.042139
 20
227.666616
 11
193.975472
 21
230.466616
  0
LINE
  5
189
100
AcDbEntity
  8
FORT
  6
CONTINUOUS
 62
    7
370
   -1
100
AcDbLine
 10
193.042139
 20
227.666616
 11
192.108806
 21
230.466616
  0
LINE
  5
18A
100
AcDbEntity
  8
FORT
  6
CONTINUOUS
 62
    7
370
   -1
100
AcDbLine
 10
197.708806
 20
227.666616
 11
187.708806
 21
227.666616
  0
LINE
  5
18B
100
AcDbEntity
  8
FORT
  6
CONTINUOUS
 62
    7
370
   -1
100
AcDbLine
 10
186.708806
 20
227.666616
 11
184.708806
 21
227.666616
  0
CIRCLE
  5
18C
100
AcDbEntity
  8
FORT
  6
CONTINUOUS
 62
    7
370
   -1
100
AcDbCircle
 10
306.638875
 20
227.666616
 40
9
  0
CIRCLE
  5
18D
100
AcDbEntity
  8
FORT
  6
CONTINUOUS
 62
    7
370
   -1
100
AcDbCircle
 10
306.638875
 20
227.666616
 40
7.5
  0
LINE
  5
18E
100
AcDbEntity
  8
FORT
  6
CONTINUOUS
 62
    7
370
   -1
100
AcDbLine
 10
276.638875
 20
177.666616
 11
276.638875
 21
257.416616
  0
CIRCLE
  5
18F
100
AcDbEntity
  8
FORT
  6
CONTINUOUS
 62
    7
370
   -1
100
AcDbCircle
 10
286.638875
 20
227.666616
 40
5
  0
LINE
  5
190
100
AcDbEntity
  8
FORT
  6
CONTINUOUS
 62
    7
370
   -1
100
AcDbLine
 10
287.638875
 20
232.666616
 11
287.638875
 21
222.666616
  0
LINE
  5
191
100
AcDbEntity
  8
FORT
  6
CONTINUOUS
 62
    7
370
   -1
100
AcDbLine
 10
285.638875
 20
232.666616
 11
285.638875
 21
222.666616
  0
LINE
  5
192
100
AcDbEntity
  8
FORT
  6
CONTINUOUS
 62
    7
370
   -1
100
AcDbLine
 10
336.638875
 20
177.666616
 11
336.638875
 21
257.416616
  0
CIRCLE
  5
193
100
AcDbEntity
  8
FORT
  6
CONTINUOUS
 62
    7
370
   -1
100
AcDbCircle
 10
326.638875
 20
227.666616
 40
5
  0
LINE
  5
194
100
AcDbEntity
  8
FORT
  6
CONTINUOUS
 62
    7
370
   -1
100
AcDbLine
 10
325.638875
 20
232.666616
 11
325.638875
 21
222.666616
  0
LINE
  5
195
100
AcDbEntity
  8
FORT
  6
CONTINUOUS
 62
    7
370
   -1
100
AcDbLine
 10
327.638875
 20
232.666616
 11
327.638875
 21
222.666616
  0
LINE
  5
196
100
AcDbEntity
  8
FORT
  6
CONTINUOUS
 62
    7
370
   -1
100
AcDbLine
 10
276.638875
 20
177.666616
 11
336.638875
 21
177.666616
  0
LINE
  5
197
100
AcDbEntity
  8
FORT
  6
CONTINUOUS
 62
    7
370
   -1
100
AcDbLine
 10
301.138875
 20
182.670045
 11
312.138875
 21
182.670045
  0
LINE
  5
198
100
AcDbEntity
  8
FORT
  6
CONTINUOUS
 62
    7
370
   -1
100
AcDbLine
 10
302.185445
 20
181.670045
 11
311.092304
 21
181.670045
  0
LINE
  5
199
100
AcDbEntity
  8
FORT
  6
CONTINUOUS
 62
    7
370
   -1
100
AcDbLine
 10
301.138875
 20
185.670045
 11
312.138875
 21
185.670045
  0
LINE
  5
19A
100
AcDbEntity
  8
FORT
  6
CONTINUOUS
 62
    7
370
   -1
100
AcDbLine
 10
311.138875
 20
186.716616
 11
306.638875
 21
186.716616
  0
LINE
  5
19B
100
AcDbEntity
  8
FORT
  6
CONTINUOUS
 62
    7
370
   -1
100
AcDbLine
 10
303.638875
 20
186.716616
 11
303.638875
 21
219.212394
  0
CIRCLE
  5
19C
100
AcDbEntity
  8
FORT
  6
CONTINUOUS
 62
    7
370
   -1
100
AcDbCircle
 10
286.638875
 20
185.166616
 40
5
  0
LINE
  5
19D
100
AcDbEntity
  8
FORT
  6
CONTINUOUS
 62
    7
370
   -1
100
AcDbLine
 10
287.638875
 20
190.166616
 11
287.638875
 21
180.166616
  0
LINE
  5
19E
100
AcDbEntity
  8
FORT
  6
CONTINUOUS
 62
    7
370
   -1
100
AcDbLine
 10
285.638875
 20
190.166616
 11
285.638875
 21
180.166616
  0
LINE
  5
19F
100
AcDbEntity
  8
FORT
  6
CONTINUOUS
 62
    7
370
   -1
100
AcDbLine
 10
302.138875
 20
186.716616
 11
306.638875
 21
186.716616
  0
LINE
  5
1A0
100
AcDbEntity
  8
FORT
  6
CONTINUOUS
 62
    7
370
   -1
100
AcDbLine
 10
301.138875
 20
182.716616
 11
301.138875
 21
185.716616
  0
LINE
  5
1A1
100
AcDbEntity
  8
FORT
  6
CONTINUOUS
 62
    7
370
   -1
100
AcDbLine
 10
301.138875
 20
182.716616
 11
302.138875
 21
181.716616
  0
LINE
  5
1A2
100
AcDbEntity
  8
FORT
  6
CONTINUOUS
 62
    7
370
   -1
100
AcDbLine
 10
301.138875
 20
185.716616
 11
302.138875
 21
186.716616
  0
LINE
  5
1A3
100
AcDbEntity
  8
FORT
  6
CONTINUOUS
 62
    7
370
   -1
100
AcDbLine
 10
309.638875
 20
186.716616
 11
309.638875
 21
219.212394
  0
CIRCLE
  5
1A4
100
AcDbEntity
  8
FORT
  6
CONTINUOUS
 62
    7
370
   -1
100
AcDbCircle
 10
326.638875
 20
185.166616
 40
5
  0
LINE
  5
1A5
100
AcDbEntity
  8
FORT
  6
CONTINUOUS
 62
    7
370
   -1
100
AcDbLine
 10
325.638875
 20
190.166616
 11
325.638875
 21
180.166616
  0
LINE
  5
1A6
100
AcDbEntity
  8
FORT
  6
CONTINUOUS
 62
    7
370
   -1
100
AcDbLine
 10
327.638875
 20
190.166616
 11
327.638875
 21
180.166616
  0
LINE
  5
1A7
100
AcDbEntity
  8
FORT
  6
CONTINUOUS
 62
    7
370
   -1
100
AcDbLine
 10
312.138875
 20
182.716616
 11
312.138875
 21
185.716616
  0
LINE
  5
1A8
100
AcDbEntity
  8
FORT
  6
CONTINUOUS
 62
    7
370
   -1
100
AcDbLine
 10
312.138875
 20
182.716616
 11
311.138875
 21
181.716616
  0
LINE
  5
1A9
100
AcDbEntity
  8
FORT
  6
CONTINUOUS
 62
    7
370
   -1
100
AcDbLine
 10
312.138875
 20
185.716616
 11
311.138875
 21
186.716616
  0
LINE
  5
1AA
100
AcDbEntity
  8
FORT
  6
CONTINUOUS
 62
    7
370
   -1
100
AcDbLine
 10
276.638875
 20
252.666616
 11
336.638875
 21
252.666616
  0
LINE
  5
1AB
100
AcDbEntity
  8
FORT
  6
CONTINUOUS
 62
    7
370
   -1
100
AcDbLine
 10
276.638875
 20
257.666616
 11
336.638875
 21
257.666616
  0
LINE
  5
1AC
100
AcDbEntity
  8
FORT
  6
CONTINUOUS
 62
    7
370
   -1
100
AcDbLine
 10
302.269306
 20
241.713186
 11
311.008443
 21
241.713186
  0
LINE
  5
1AD
100
AcDbEntity
  8
FORT
  6
CONTINUOUS
 62
    7
370
   -1
100
AcDbLine
 10
301.269306
 20
240.666616
 11
312.008443
 21
240.666616
  0
LINE
  5
1AE
100
AcDbEntity
  8
FORT
  6
CONTINUOUS
 62
    7
370
   -1
100
AcDbLine
 10
301.269306
 20
237.666616
 11
312.008443
 21
237.666616
  0
LINE
  5
1AF
100
AcDbEntity
  8
FORT
  6
CONTINUOUS
 62
    7
370
   -1
100
AcDbLine
 10
302.315877
 20
236.666616
 11
310.961872
 21
236.666616
  0
LINE
  5
1B0
100
AcDbEntity
  8
FORT
  6
CONTINUOUS
 62
    7
370
   -1
100
AcDbLine
 10
301.269306
 20
237.713186
 11
301.269306
 21
240.713186
  0
LINE
  5
1B1
100
AcDbEntity
  8
FORT
  6
CONTINUOUS
 62
    7
370
   -1
100
AcDbLine
 10
301.269306
 20
240.713186
 11
302.269306
 21
241.713186
  0
LINE
  5
1B2
100
AcDbEntity
  8
FORT
  6
CONTINUOUS
 62
    7
370
   -1
100
AcDbLine
 10
301.269306
 20
237.713186
 11
302.269306
 21
236.713186
  0
LINE
  5
1B3
100
AcDbEntity
  8
FORT
  6
CONTINUOUS
 62
    7
370
   -1
100
AcDbLine
 10
303.638875
 20
236.666616
 11
303.638875
 21
236.151897
  0
LINE
  5
1B4
100
AcDbEntity
  8
FORT
  6
CONTINUOUS
 62
    7
370
   -1
100
AcDbLine
 10
309.638875
 20
236.666616
 11
309.638875
 21
236.151897
  0
LINE
  5
1B5
100
AcDbEntity
  8
FORT
  6
CONTINUOUS
 62
    7
370
   -1
100
AcDbLine
 10
312.008443
 20
237.713186
 11
312.008443
 21
240.713186
  0
LINE
  5
1B6
100
AcDbEntity
  8
FORT
  6
CONTINUOUS
 62
    7
370
   -1
100
AcDbLine
 10
312.008443
 20
240.713186
 11
311.008443
 21
241.713186
  0
LINE
  5
1B7
100
AcDbEntity
  8
FORT
  6
CONTINUOUS
 62
    7
370
   -1
100
AcDbLine
 10
312.008443
 20
237.713186
 11
311.008443
 21
236.713186
  0
MTEXT
  5
1B8
100
AcDbEntity
  8
TEXTE
  6
CONTINUOUS
 62
    7
370
   -1
100
AcDbMText
 10
222
 20
43
 30
0
 40
3.5
 41
8.944444444444445
 71
    7
 72
    5
  1
REP.
  7
iso9
210
0
220
0
230
1
 50
0
 73
    1
 44
0.96
  0
MTEXT
  5
1B9
100
AcDbEntity
  8
TEXTE
  6
CONTINUOUS
 62
    7
370
   -1
100
AcDbMText
 10
239
 20
43
 30
0
 40
3.5
 41
6.222222222222222
 71
    7
 72
    5
  1
NB.
  7
iso9
210
0
220
0
230
1
 50
0
 73
    1
 44
0.96
  0
MTEXT
  5
1BA
100
AcDbEntity
  8
TEXTE
  6
CONTINUOUS
 62
    7
370
   -1
100
AcDbMText
 10
267.419394
 20
43.09999999999958
 30
0
 40
3.5
 41
29.16666592465936
 71
    7
 72
    5
  1
DESIGNATION
  7
iso9
210
0
220
0
230
1
 50
0
 73
    1
 44
0.96
  0
MTEXT
  5
1BB
100
AcDbEntity
  8
TEXTE
  6
CONTINUOUS
 62
    7
370
   -1
100
AcDbMText
 10
328
 20
43
 30
0
 40
3.5
 41
18.66666666666667
 71
    7
 72
    5
  1
MATIERE
  7
iso9
210
0
220
0
230
1
 50
0
 73
    1
 44
0.96
  0
MTEXT
  5
1BC
100
AcDbEntity
  8
TEXTE
  6
CONTINUOUS
 62
    7
370
   -1
100
AcDbMText
 10
377
 20
42.99999999999957
 30
0
 40
3.5
 41
9.33333259132581
 71
    7
 72
    5
  1
OBS.
  7
iso9
210
0
220
0
230
1
 50
0
 73
    1
 44
0.96
  0
MTEXT
  5
1BD
100
AcDbEntity
  8
TEXTE
  6
CONTINUOUS
 62
    7
370
   -1
100
AcDbMText
 10
226
 20
52
 30
0
 40
3.5
 41
0.7777777777777778
 71
    7
 72
    5
  1
1
  7
iso9
210
0
220
0
230
1
 50
0
 73
    1
 44
0.96
  0
MTEXT
  5
1BE
100
AcDbEntity
  8
TEXTE
  6
CONTINUOUS
 62
    7
370
   -1
100
AcDbMText
 10
226
 20
61
 30
0
 40
3.5
 41
1.555555555555556
 71
    7
 72
    5
  1
2
  7
iso9
210
0
220
0
230
1
 50
0
 73
    1
 44
0.96
  0
MTEXT
  5
1BF
100
AcDbEntity
  8
TEXTE
  6
CONTINUOUS
 62
    7
370
   -1
100
AcDbMText
 10
226
 20
69.99999999999979
 30
0
 40
3.5
 41
1.555555555555773
 71
    7
 72
    5
  1
3
  7
iso9
210
0
220
0
230
1
 50
0
 73
    1
 44
0.96
  0
MTEXT
  5
1C0
100
AcDbEntity
  8
TEXTE
  6
CONTINUOUS
 62
    7
370
   -1
100
AcDbMText
 10
226
 20
79
 30
0
 40
3.5
 41
1.944444444444444
 71
    7
 72
    5
  1
4
  7
iso9
210
0
220
0
230
1
 50
0
 73
    1
 44
0.96
  0
MTEXT
  5
1C1
100
AcDbEntity
  8
TEXTE
  6
CONTINUOUS
 62
    7
370
   -1
100
AcDbMText
 10
226
 20
87.99999999999979
 30
0
 40
3.5
 41
1.555555555555773
 71
    7
 72
    5
  1
5
  7
iso9
210
0
220
0
230
1
 50
0
 73
    1
 44
0.96
  0
MTEXT
  5
1C2
100
AcDbEntity
  8
TEXTE
  6
CONTINUOUS
 62
    7
370
   -1
100
AcDbMText
 10
226
 20
97
 30
0
 40
3.5
 41
1.555555555555773
 71
    7
 72
    5
  1
6
  7
iso9
210
0
220
0
230
1
 50
0
 73
    1
 44
0.96
  0
MTEXT
  5
1C3
100
AcDbEntity
  8
TEXTE
  6
CONTINUOUS
 62
    7
370
   -1
100
AcDbMText
 10
226
 20
106
 30
0
 40
3.5
 41
1.555555555555556
 71
    7
 72
    5
  1
7
  7
iso9
210
0
220
0
230
1
 50
0
 73
    1
 44
0.96
  0
MTEXT
  5
1C4
100
AcDbEntity
  8
TEXTE
  6
CONTINUOUS
 62
    7
370
   -1
100
AcDbMText
 10
226
 20
115
 30
0
 40
3.5
 41
1.555555555555556
 71
    7
 72
    5
  1
8
  7
iso9
210
0
220
0
230
1
 50
0
 73
    1
 44
0.96
  0
MTEXT
  5
1C5
100
AcDbEntity
  8
TEXTE
  6
CONTINUOUS
 62
    7
370
   -1
100
AcDbMText
 10
226
 20
124
 30
0
 40
3.5
 41
1.555555555555773
 71
    7
 72
    5
  1
9
  7
iso9
210
0
220
0
230
1
 50
0
 73
    1
 44
0.96
  0
MTEXT
  5
1C6
100
AcDbEntity
  8
TEXTE
  6
CONTINUOUS
 62
    7
370
   -1
100
AcDbMText
 10
224
 20
133
 30
0
 40
3.5
 41
3.5
 71
    7
 72
    5
  1
10
  7
iso9
210
0
220
0
230
1
 50
0
 73
    1
 44
0.96
  0
MTEXT
  5
1C7
100
AcDbEntity
  8
TEXTE
  6
CONTINUOUS
 62
    7
370
   -1
100
AcDbMText
 10
241
 20
52
 30
0
 40
3.5
 41
0.7777777777777778
 71
    7
 72
    5
  1
1
  7
iso9
210
0
220
0
230
1
 50
0
 73
    1
 44
0.96
  0
MTEXT
  5
1C8
100
AcDbEntity
  8
TEXTE
  6
CONTINUOUS
 62
    7
370
   -1
100
AcDbMText
 10
241
 20
61
 30
0
 40
3.5
 41
0.7777777777777778
 71
    7
 72
    5
  1
1
  7
iso9
210
0
220
0
230
1
 50
0
 73
    1
 44
0.96
  0
MTEXT
  5
1C9
100
AcDbEntity
  8
TEXTE
  6
CONTINUOUS
 62
    7
370
   -1
100
AcDbMText
 10
241
 20
70
 30
0
 40
3.5
 41
0.7777777777777778
 71
    7
 72
    5
  1
1
  7
iso9
210
0
220
0
230
1
 50
0
 73
    1
 44
0.96
  0
MTEXT
  5
1CA
100
AcDbEntity
  8
TEXTE
  6
CONTINUOUS
 62
    7
370
   -1
100
AcDbMText
 10
241
 20
79
 30
0
 40
3.5
 41
1.555555555555556
 71
    7
 72
    5
  1
2
  7
iso9
210
0
220
0
230
1
 50
0
 73
    1
 44
0.96
  0
MTEXT
  5
1CB
100
AcDbEntity
  8
TEXTE
  6
CONTINUOUS
 62
    7
370
   -1
100
AcDbMText
 10
241
 20
88
 30
0
 40
3.5
 41
0.7777777777777778
 71
    7
 72
    5
  1
1
  7
iso9
210
0
220
0
230
1
 50
0
 73
    1
 44
0.96
  0
MTEXT
  5
1CC
100
AcDbEntity
  8
TEXTE
  6
CONTINUOUS
 62
    7
370
   -1
100
AcDbMText
 10
241
 20
97
 30
0
 40
3.5
 41
0.7777777777777778
 71
    7
 72
    5
  1
1
  7
iso9
210
0
220
0
230
1
 50
0
 73
    1
 44
0.96
  0
MTEXT
  5
1CD
100
AcDbEntity
  8
TEXTE
  6
CONTINUOUS
 62
    7
370
   -1
100
AcDbMText
 10
241
 20
106
 30
0
 40
3.5
 41
1.555555555555556
 71
    7
 72
    5
  1
2
  7
iso9
210
0
220
0
230
1
 50
0
 73
    1
 44
0.96
  0
MTEXT
  5
1CE
100
AcDbEntity
  8
TEXTE
  6
CONTINUOUS
 62
    7
370
   -1
100
AcDbMText
 10
241
 20
115
 30
0
 40
3.5
 41
0.7777777777777778
 71
    7
 72
    5
  1
1
  7
iso9
210
0
220
0
230
1
 50
0
 73
    1
 44
0.96
  0
MTEXT
  5
1CF
100
AcDbEntity
  8
TEXTE
  6
CONTINUOUS
 62
    7
370
   -1
100
AcDbMText
 10
241
 20
124
 30
0
 40
3.5
 41
0.7777777777777778
 71
    7
 72
    5
  1
1
  7
iso9
210
0
220
0
230
1
 50
0
 73
    1
 44
0.96
  0
MTEXT
  5
1D0
100
AcDbEntity
  8
TEXTE
  6
CONTINUOUS
 62
    7
370
   -1
100
AcDbMText
 10
241
 20
133
 30
0
 40
3.5
 41
1.944444444444444
 71
    7
 72
    5
  1
4
  7
iso9
210
0
220
0
230
1
 50
0
 73
    1
 44
0.96
  0
MTEXT
  5
1D1
100
AcDbEntity
  8
TEXTE
  6
CONTINUOUS
 62
    7
370
   -1
100
AcDbMText
 10
255
 20
51.99999989901696
 30
0
 40
3.5
 41
21.68055735556075
 71
    7
 72
    5
  1
Mors fixe
  7
iso9
210
0
220
0
230
1
 50
0
 73
    1
 44
0.96
  0
MTEXT
  5
1D2
100
AcDbEntity
  8
TEXTE
  6
CONTINUOUS
 62
    7
370
   -1
100
AcDbMText
 10
255
 20
60.99999989901696
 30
0
 40
3.5
 41
27.12500180000551
 71
    7
 72
    5
  1
Mors mobile
  7
iso9
210
0
220
0
230
1
 50
0
 73
    1
 44
0.96
  0
MTEXT
  5
1D3
100
AcDbEntity
  8
TEXTE
  6
CONTINUOUS
 62
    7
370
   -1
100
AcDbMText
 10
255
 20
69.99999999999957
 30
0
 40
3.5
 41
11.27777703577026
 71
    7
 72
    5
  1
Socle
  7
iso9
210
0
220
0
230
1
 50
0
 73
    1
 44
0.96
  0
MTEXT
  5
1D4
100
AcDbEntity
  8
TEXTE
  6
CONTINUOUS
 62
    7
370
   -1
100
AcDbMText
 10
255
 20
78.99999999999979
 30
0
 40
3.5
 41
11.277777777778
 71
    7
 72
    5
  1
Guide
  7
iso9
210
0
220
0
230
1
 50
0
 73
    1
 44
0.96
  0
MTEXT
  5
1D5
100
AcDbEntity
  8
TEXTE
  6
CONTINUOUS
 62
    7
370
   -1
100
AcDbMText
 10
255
 20
96.99999999999984
 30
0
 40
3.5
 41
13.22222222222222
 71
    7
 72
    5
  1
Levier
  7
iso9
210
0
220
0
230
1
 50
0
 73
    1
 44
0.96
  0
MTEXT
  5
1D6
100
AcDbEntity
  8
TEXTE
  6
CONTINUOUS
 62
    7
370
   -1
100
AcDbMText
 10
255
 20
105.9999999999998
 30
0
 40
3.5
 41
12.44444444444445
 71
    7
 72
    5
  1
Butée
  7
iso
210
0
220
0
230
1
 50
0
 73
    1
 44
0.96
  0
MTEXT
  5
1D7
100
AcDbEntity
  8
TEXTE
  6
CONTINUOUS
 62
    7
370
   -1
100
AcDbMText
 10
255.279679
 20
87.86528489901696
 30
0
 40
3.5
 41
23.62500180000535
 71
    7
 72
    5
  1
Vis d'étau
  7
iso
210
0
220
0
230
1
 50
0
 73
    1
 44
0.96
  0
MTEXT
  5
1D8
100
AcDbEntity
  8
TEXTE
  6
CONTINUOUS
 62
    7
370
   -1
100
AcDbMText
 10
255
 20
132.2222222222222
 30
0
 40
3.5
 41
46.2777788357761
 71
    7
 72
    5
  1
Vis C S, M6-35, 8.8
  7
iso9
210
0
220
0
230
1
 50
0
 73
    1
 44
0.96
  0
MTEXT
  5
1D9
100
AcDbEntity
  8
TEXTE
  6
CONTINUOUS
 62
    7
370
   -1
100
AcDbMText
 10
325
 20
51.99999999999957
 30
0
 40
3.5
 41
12.73611036910402
 71
    7
 72
    5
  1
S 235
  7
iso9
210
0
220
0
230
1
 50
0
 73
    1
 44
0.96
  0
MTEXT
  5
1DA
100
AcDbEntity
  8
TEXTE
  6
CONTINUOUS
 62
    7
370
   -1
100
AcDbMText
 10
325
 20
60.99999999999957
 30
0
 40
3.5
 41
12.73611036910402
 71
    7
 72
    5
  1
S 235
  7
iso9
210
0
220
0
230
1
 50
0
 73
    1
 44
0.96
  0
MTEXT
  5
1DB
100
AcDbEntity
  8
TEXTE
  6
CONTINUOUS
 62
    7
370
   -1
100
AcDbMText
 10
325
 20
69.99999999999957
 30
0
 40
3.5
 41
12.73611036910402
 71
    7
 72
    5
  1
S 235
  7
iso9
210
0
220
0
230
1
 50
0
 73
    1
 44
0.96
  0
MTEXT
  5
1DC
100
AcDbEntity
  8
TEXTE
  6
CONTINUOUS
 62
    7
370
   -1
100
AcDbMText
 10
325
 20
78.99999999999957
 30
0
 40
3.55
 41
12.91805480294837
 71
    7
 72
    5
  1
S 235
  7
iso9
210
0
220
0
230
1
 50
0
 73
    1
 44
0.96
  0
MTEXT
  5
1DD
100
AcDbEntity
  8
TEXTE
  6
CONTINUOUS
 62
    7
370
   -1
100
AcDbMText
 10
325
 20
87.99999999999957
 30
0
 40
3.5
 41
12.73611036910402
 71
    7
 72
    5
  1
S 235
  7
iso9
210
0
220
0
230
1
 50
0
 73
    1
 44
0.96
  0
MTEXT
  5
1DE
100
AcDbEntity
  8
TEXTE
  6
CONTINUOUS
 62
    7
370
   -1
100
AcDbMText
 10
325
 20
96.99999999999957
 30
0
 40
3.5
 41
12.73611036910402
 71
    7
 72
    5
  1
S 235
  7
iso9
210
0
220
0
230
1
 50
0
 73
    1
 44
0.96
  0
MTEXT
  5
1DF
100
AcDbEntity
  8
TEXTE
  6
CONTINUOUS
 62
    7
370
   -1
100
AcDbMText
 10
325
 20
105.9999999999996
 30
0
 40
3.5
 41
12.73611036910402
 71
    7
 72
    5
  1
S 235
  7
iso9
210
0
220
0
230
1
 50
0
 73
    1
 44
0.96
  0
MTEXT
  5
1E0
100
AcDbEntity
  8
TEXTE
  6
CONTINUOUS
 62
    7
370
   -1
100
AcDbMText
 10
363
 20
51.99999999999984
 30
0
 40
3.5
 41
10.88888888888905
 71
    7
 72
    5
  1
Bruni
  7
iso9
210
0
220
0
230
1
 50
0
 73
    1
 44
0.96
  0
MTEXT
  5
1E1
100
AcDbEntity
  8
TEXTE
  6
CONTINUOUS
 62
    7
370
   -1
100
AcDbMText
 10
363
 20
60.99999999999984
 30
0
 40
3.5
 41
10.88888888888905
 71
    7
 72
    5
  1
Bruni
  7
iso9
210
0
220
0
230
1
 50
0
 73
    1
 44
0.96
  0
MTEXT
  5
1E2
100
AcDbEntity
  8
TEXTE
  6
CONTINUOUS
 62
    7
370
   -1
100
AcDbMText
 10
363
 20
69.99999999999984
 30
0
 40
3.5
 41
10.88888888888905
 71
    7
 72
    5
  1
Bruni
  7
iso9
210
0
220
0
230
1
 50
0
 73
    1
 44
0.96
  0
MTEXT
  5
1E3
100
AcDbEntity
  8
TEXTE
  6
CONTINUOUS
 62
    7
370
   -1
100
AcDbMText
 10
363
 20
78.99999999999984
 30
0
 40
3.5
 41
10.88888888888905
 71
    7
 72
    5
  1
Bruni
  7
iso9
210
0
220
0
230
1
 50
0
 73
    1
 44
0.96
  0
MTEXT
  5
1E4
100
AcDbEntity
  8
TEXTE
  6
CONTINUOUS
 62
    7
370
   -1
100
AcDbMText
 10
363
 20
87.99999999999984
 30
0
 40
3.5
 41
10.88888888888905
 71
    7
 72
    5
  1
Bruni
  7
iso9
210
0
220
0
230
1
 50
0
 73
    1
 44
0.96
  0
MTEXT
  5
1E5
100
AcDbEntity
  8
TEXTE
  6
CONTINUOUS
 62
    7
370
   -1
100
AcDbMText
 10
363
 20
96.99999999999984
 30
0
 40
3.5
 41
10.88888888888905
 71
    7
 72
    5
  1
Bruni
  7
iso9
210
0
220
0
230
1
 50
0
 73
    1
 44
0.96
  0
MTEXT
  5
1E6
100
AcDbEntity
  8
TEXTE
  6
CONTINUOUS
 62
    7
370
   -1
100
AcDbMText
 10
363
 20
105.9999999999998
 30
0
 40
3.5
 41
10.88888888888905
 71
    7
 72
    5
  1
Bruni
  7
iso9
210
0
220
0
230
1
 50
0
 73
    1
 44
0.96
  0
LINE
  5
1E7
100
AcDbEntity
  8
FORT
  6
CONTINUOUS
 62
    7
370
   -1
100
AcDbLine
 10
410
 20
40.75
 11
410
 21
287
  0
LINE
  5
1E8
100
AcDbEntity
  8
FORT
  6
CONTINUOUS
 62
    7
370
   -1
100
AcDbLine
 10
10
 20
10
 11
220
 21
10
  0
LINE
  5
1E9
100
AcDbEntity
  8
FORT
  6
CONTINUOUS
 62
    7
370
   70
100
AcDbLine
 10
220
 20
40.75
 11
410
 21
40.75
  0
LINE
  5
1EA
100
AcDbEntity
  8
FORT
  6
ByLayer
 62
  256
370
   70
100
AcDbLine
 10
220
 20
40.75
 11
220
 21
10
  0
LINE
  5
1EB
100
AcDbEntity
  8
FORT
  6
ByLayer
 62
  256
370
   70
100
AcDbLine
 10
410
 20
40.75
 11
410
 21
10
  0
LINE
  5
1EC
100
AcDbEntity
  8
FORT
  6
ByLayer
 62
  256
370
   70
100
AcDbLine
 10
220
 20
10
 11
410
 21
10
  0
LINE
  5
1ED
100
AcDbEntity
  8
AXE
  6
ByLayer
 62
  256
370
   -1
100
AcDbLine
 10
176.751536
 20
68.290693
 11
78.632992
 21
68.290693
  0
LINE
  5
1EE
100
AcDbEntity
  8
AXE
  6
ByLayer
 62
  256
370
   -1
100
AcDbLine
 10
176.751536
 20
108.290693
 11
77.16233800000001
 21
108.290693
  0
LINE
  5
1EF
100
AcDbEntity
  8
AXE
  6
ByLayer
 62
  256
370
   -1
100
AcDbLine
 10
183.403242
 20
88.290693
 11
48.403242
 21
88.290693
  0
LINE
  5
1F0
100
AcDbEntity
  8
AXE
  6
ByLayer
 62
  256
370
   -1
100
AcDbLine
 10
66.40324200000001
 20
103.081553
 11
66.40324200000001
 21
73.290693
  0
LINE
  5
1F1
100
AcDbEntity
  8
AXE
  6
ByLayer
 62
  256
370
   -1
100
AcDbLine
 10
110.403242
 20
77.290693
 11
110.403242
 21
97.290693
  0
LINE
  5
1F2
100
AcDbEntity
  8
AXE
  6
ByLayer
 62
  256
370
   -1
100
AcDbLine
 10
133.403242
 20
61.290693
 11
133.403242
 21
76.290693
  0
LINE
  5
1F3
100
AcDbEntity
  8
AXE
  6
ByLayer
 62
  256
370
   -1
100
AcDbLine
 10
133.403242
 20
115.290693
 11
133.403242
 21
100.290693
  0
LINE
  5
1F4
100
AcDbEntity
  8
AXE
  6
ByLayer
 62
  256
370
   -1
100
AcDbLine
 10
126.332096
 20
185.166616
 11
76.228622
 21
185.166616
  0
LINE
  5
1F5
100
AcDbEntity
  8
AXE
  6
ByLayer
 62
  256
370
   -1
100
AcDbLine
 10
178.708806
 20
227.666616
 11
51.874404
 21
227.666616
  0
LINE
  5
1F6
100
AcDbEntity
  8
AXE
  6
ByLayer
 62
  256
370
   -1
100
AcDbLine
 10
66.40324200000001
 20
177.666616
 11
66.40324200000001
 21
247.666616
  0
LINE
  5
1F7
100
AcDbEntity
  8
AXE
  6
ByLayer
 62
  256
370
   -1
100
AcDbLine
 10
110.403242
 20
170.666616
 11
110.403242
 21
196.666616
  0
LINE
  5
1F8
100
AcDbEntity
  8
AXE
  6
ByLayer
 62
  256
370
   -1
100
AcDbLine
 10
133.403242
 20
171.666616
 11
133.403242
 21
196.666616
  0
LINE
  5
1F9
100
AcDbEntity
  8
AXE
  6
ByLayer
 62
  256
370
   -1
100
AcDbLine
 10
306.638875
 20
248.818436
 11
306.638875
 21
172.666616
  0
LINE
  5
1FA
100
AcDbEntity
  8
AXE
  6
ByLayer
 62
  256
370
   -1
100
AcDbLine
 10
286.638875
 20
238.334363
 11
286.638875
 21
219.63462
  0
LINE
  5
1FB
100
AcDbEntity
  8
AXE
  6
ByLayer
 62
  256
370
   -1
100
AcDbLine
 10
326.638875
 20
238.334363
 11
326.638875
 21
219.63462
  0
LINE
  5
1FC
100
AcDbEntity
  8
AXE
  6
ByLayer
 62
  256
370
   -1
100
AcDbLine
 10
286.638875
 20
196.49765
 11
286.638875
 21
174.628458
  0
LINE
  5
1FD
100
AcDbEntity
  8
AXE
  6
ByLayer
 62
  256
370
   -1
100
AcDbLine
 10
297.317979
 20
185.166616
 11
274.614424
 21
185.166616
  0
LINE
  5
1FE
100
AcDbEntity
  8
AXE
  6
ByLayer
 62
  256
370
   -1
100
AcDbLine
 10
326.638875
 20
196.49765
 11
326.638875
 21
174.628458
  0
LINE
  5
1FF
100
AcDbEntity
  8
AXE
  6
ByLayer
 62
  256
370
   -1
100
AcDbLine
 10
315.95977
 20
185.166616
 11
338.663326
 21
185.166616
  0
LINE
  5
200
100
AcDbEntity
  8
AXE
  6
ByLayer
 62
  256
370
   -1
100
AcDbLine
 10
338.638875
 20
227.666616
 11
273.928957
 21
227.666616
  0
LINE
  5
201
100
AcDbEntity
  8
INTERROMPU
  6
ByLayer
 62
  256
370
   -1
100
AcDbLine
 10
303.638875
 20
219.181334
 11
303.638875
 21
236.151897
  0
LINE
  5
202
100
AcDbEntity
  8
INTERROMPU
  6
ByLayer
 62
  256
370
   -1
100
AcDbLine
 10
309.638875
 20
219.181334
 11
309.638875
 21
236.151897
  0
LINE
  5
203
100
AcDbEntity
  8
INTERROMPU
  6
ByLayer
 62
  256
370
   -1
100
AcDbLine
 10
276.638875
 20
192.666616
 11
336.638875
 21
192.666616
  0
LINE
  5
204
100
AcDbEntity
  8
INTERROMPU
  6
ByLayer
 62
  256
370
   -1
100
AcDbLine
 10
281.638875
 20
217.666616
 11
331.638875
 21
217.666616
  0
LINE
  5
205
100
AcDbEntity
  8
INTERROMPU
  6
ByLayer
 62
  256
370
   -1
100
AcDbLine
 10
276.638875
 20
222.666616
 11
281.638875
 21
217.666616
  0
LINE
  5
206
100
AcDbEntity
  8
INTERROMPU
  6
ByLayer
 62
  256
370
   -1
100
AcDbLine
 10
336.638875
 20
222.666616
 11
331.638875
 21
217.666616
  0
LINE
  5
207
100
AcDbEntity
  8
INTERROMPU
  6
ByLayer
 62
  256
370
   -1
100
AcDbLine
 10
276.638875
 20
242.666616
 11
336.638875
 21
242.666616
  0
LINE
  5
208
100
AcDbEntity
  8
INTERROMPU
  6
ByLayer
 62
  256
370
   -1
100
AcDbLine
 10
69.40324200000001
 20
218.666616
 11
69.40324200000001
 21
236.666616
  0
LINE
  5
209
100
AcDbEntity
  8
INTERROMPU
  6
ByLayer
 62
  256
370
   -1
100
AcDbLine
 10
63.403242
 20
218.666616
 11
63.403242
 21
236.666616
  0
LINE
  5
20A
100
AcDbEntity
  8
INTERROMPU
  6
ByLayer
 62
  256
370
   -1
100
AcDbLine
 10
80.90324200000001
 20
222.666616
 11
80.90324200000001
 21
232.666616
  0
LINE
  5
20B
100
AcDbEntity
  8
INTERROMPU
  6
ByLayer
 62
  256
370
   -1
100
AcDbLine
 10
80.90324200000001
 20
180.166616
 11
80.90324200000001
 21
190.166616
  0
LINE
  5
20C
100
AcDbEntity
  8
INTERROMPU
  6
ByLayer
 62
  256
370
   -1
100
AcDbLine
 10
106.403242
 20
177.666616
 11
106.403242
 21
192.916616
  0
LINE
  5
20D
100
AcDbEntity
  8
INTERROMPU
  6
ByLayer
 62
  256
370
   -1
100
AcDbLine
 10
114.403242
 20
177.666616
 11
114.403242
 21
192.916616
  0
LINE
  5
20E
100
AcDbEntity
  8
INTERROMPU
  6
ByLayer
 62
  256
370
   -1
100
AcDbLine
 10
129.403242
 20
177.666616
 11
129.403242
 21
192.916616
  0
LINE
  5
20F
100
AcDbEntity
  8
INTERROMPU
  6
ByLayer
 62
  256
370
   -1
100
AcDbLine
 10
137.403242
 20
177.666616
 11
137.403242
 21
192.916616
  0
LINE
  5
210
100
AcDbEntity
  8
INTERROMPU
  6
ByLayer
 62
  256
370
   -1
100
AcDbLine
 10
168.653242
 20
232.666616
 11
153.368624
 21
232.666616
  0
LINE
  5
211
100
AcDbEntity
  8
INTERROMPU
  6
ByLayer
 62
  256
370
   -1
100
AcDbLine
 10
98.40324200000001
 20
118.040693
 11
98.40324200000001
 21
83.290693
  0
LINE
  5
212
100
AcDbEntity
  8
INTERROMPU
  6
ByLayer
 62
  256
370
   -1
100
AcDbLine
 10
100.403242
 20
100.290693
 11
100.403242
 21
116.290693
  0
LINE
  5
213
100
AcDbEntity
  8
INTERROMPU
  6
ByLayer
 62
  256
370
   -1
100
AcDbLine
 10
103.403242
 20
93.290693
 11
83.40324200000001
 21
93.290693
  0
LINE
  5
214
100
AcDbEntity
  8
INTERROMPU
  6
ByLayer
 62
  256
370
   -1
100
AcDbLine
 10
83.40324200000001
 20
93.790693
 11
100.403242
 21
93.790693
  0
LINE
  5
215
100
AcDbEntity
  8
INTERROMPU
  6
ByLayer
 62
  256
370
   -1
100
AcDbLine
 10
100.403242
 20
98.290693
 11
100.403242
 21
83.25081400000001
  0
LINE
  5
216
100
AcDbEntity
  8
INTERROMPU
  6
ByLayer
 62
  256
370
   -1
100
AcDbLine
 10
98.40324200000001
 20
100.290693
 11
100.403242
 21
100.290693
  0
LINE
  5
217
100
AcDbEntity
  8
INTERROMPU
  6
ByLayer
 62
  256
370
   -1
100
AcDbLine
 10
100.403242
 20
100.290693
 11
103.403242
 21
103.040693
  0
LINE
  5
218
100
AcDbEntity
  8
INTERROMPU
  6
ByLayer
 62
  256
370
   -1
100
AcDbLine
 10
98.40324200000001
 20
116.290693
 11
100.403242
 21
116.290693
  0
LINE
  5
219
100
AcDbEntity
  8
INTERROMPU
  6
ByLayer
 62
  256
370
   -1
100
AcDbLine
 10
100.403242
 20
116.290693
 11
103.653242
 21
113.040693
  0
CIRCLE
  5
21A
100
AcDbEntity
  8
INTERROMPU
  6
ByLayer
 62
  256
370
   -1
100
AcDbCircle
 10
133.311032
 20
68.290693
 40
4.5
  0
LINE
  5
21B
100
AcDbEntity
  8
INTERROMPU
  6
ByLayer
 62
  256
370
   -1
100
AcDbLine
 10
143.403242
 20
73.320544
 11
143.392527
 21
63.253268
  0
LINE
  5
21C
100
AcDbEntity
  8
INTERROMPU
  6
ByLayer
 62
  256
370
   -1
100
AcDbLine
 10
153.403242
 20
73.275628
 11
153.403242
 21
63.341259
  0
LINE
  5
21D
100
AcDbEntity
  8
INTERROMPU
  6
ByLayer
 62
  256
370
   -1
100
AcDbLine
 10
168.403242
 20
73.325802
 11
168.403242
 21
63.240912
  0
CIRCLE
  5
21E
100
AcDbEntity
  8
INTERROMPU
  6
ByLayer
 62
  256
370
   -1
100
AcDbCircle
 10
133.311032
 20
108.290693
 40
4.5
  0
LINE
  5
21F
100
AcDbEntity
  8
INTERROMPU
  6
ByLayer
 62
  256
370
   -1
100
AcDbLine
 10
153.403242
 20
118.290693
 11
153.403242
 21
83.32464899999999
  0
LINE
  5
220
100
AcDbEntity
  8
INTERROMPU
  6
ByLayer
 62
  256
370
   -1
100
AcDbLine
 10
143.403242
 20
113.290693
 11
143.403242
 21
103.290693
  0
LINE
  5
221
100
AcDbEntity
  8
INTERROMPU
  6
ByLayer
 62
  256
370
   -1
100
AcDbLine
 10
168.653242
 20
103.290693
 11
148.403242
 21
103.290693
  0
LINE
  5
222
100
AcDbEntity
  8
INTERROMPU
  6
ByLayer
 62
  256
370
   -1
100
AcDbLine
 10
143.403242
 20
93.290693
 11
143.403242
 21
83.290693
  0
LINE
  5
223
100
AcDbEntity
  8
INTERROMPU
  6
ByLayer
 62
  256
370
   -1
100
AcDbLine
 10
168.403242
 20
88.290693
 11
168.403242
 21
83.290693
  0
LINE
  5
224
100
AcDbEntity
  8
INTERROMPU
  6
ByLayer
 62
  256
370
   -1
100
AcDbLine
 10
168.653242
 20
113.290693
 11
148.403242
 21
113.290693
  0
CIRCLE
  5
225
100
AcDbEntity
  8
INTERROMPU
  6
ByLayer
 62
  256
370
   -1
100
AcDbCircle
 10
110.403242
 20
88.290693
 40
4.5
  0
LINE
  5
226
100
AcDbEntity
  8
AXE
  6
ByLayer
 62
  256
370
   -1
100
AcDbLine
 10
176.751536
 20
108.290693
 11
77.16233800000001
 21
108.290693
  0
LINE
  5
227
100
AcDbEntity
  8
FORT
  6
ByLayer
 62
  256
370
   -1
100
AcDbLine
 10
224.8814435716548
 20
26.66886899461066
 11
224.8814435716548
 21
23.84044186986447
  0
LINE
  5
228
100
AcDbEntity
  8
FORT
  6
ByLayer
 62
  256
370
   -1
100
AcDbLine
 10
236.8814435716548
 20
28.25465543223757
 11
236.8814435716548
 21
22.25465543223757
  0
LINE
  5
229
100
AcDbEntity
  8
FORT
  6
ByLayer
 62
  256
370
   -1
100
AcDbLine
 10
236.8814435716548
 20
28.25465543223757
 11
224.8814435716548
 21
26.66886899461066
  0
LINE
  5
22A
100
AcDbEntity
  8
FORT
  6
ByLayer
 62
  256
370
   -1
100
AcDbLine
 10
236.8814435716548
 20
22.25465543223757
 11
224.8814435716548
 21
23.84044186986447
  0
CIRCLE
  5
22B
100
AcDbEntity
  8
FORT
  6
ByLayer
 62
  256
370
   -1
100
AcDbCircle
 10
242.878363954068
 20
25.25465543223757
 40
3
  0
CIRCLE
  5
22C
100
AcDbEntity
  8
FORT
  6
ByLayer
 62
  256
370
   -1
100
AcDbCircle
 10
242.878363954068
 20
25.25465543223757
 40
1.414213562373095
  0
LINE
  5
22D
100
AcDbEntity
  8
AXE
  6
ByLayer
 62
  256
370
   -1
100
AcDbLine
 10
242.878363954068
 20
29.25465543223757
 11
242.878363954068
 21
21.25465543223757
  0
LINE
  5
22E
100
AcDbEntity
  8
AXE
  6
ByLayer
 62
  256
370
   -1
100
AcDbLine
 10
222.3024931506586
 20
25.25465543223757
 11
247.9535704471489
 21
25.25465543223757
  0
MTEXT
  5
22F
100
AcDbEntity
  8
TEXTE
  6
CONTINUOUS
 62
    7
370
   50
100
AcDbMText
 10
224.4715999821782
 20
32.31865099999977
 30
0
 40
5
 41
22.08333333333357
 71
    7
 72
    5
  1
Ech. 1:1
  7
iso9
210
0
220
0
230
1
 50
0
 73
    1
 44
0.96
  0
MTEXT
  5
230
100
AcDbEntity
  8
TEXTE
  6
CONTINUOUS
 62
    7
370
   70
100
AcDbMText
 10
231.003787
 20
11.92797699999957
 30
0
 40
7
 41
10.11111111111155
 71
    7
 72
    5
  1
A3
  7
iso9
210
0
220
0
230
1
 50
0
 73
    1
 44
0.96
  0
MTEXT
  5
231
100
AcDbEntity
  8
TEXTE
  6
CONTINUOUS
 62
    7
370
   70
100
AcDbMText
 10
298.3227015841587
 20
27
 30
0
 40
7
 41
45.69444444444444
 71
    7
 72
    5
  1
MINI ETAU
  7
iso9
210
0
220
0
230
1
 50
0
 73
    1
 44
0.96
  0
MTEXT
  5
232
100
AcDbEntity
  8
TEXTE
  6
CONTINUOUS
 62
    7
370
   50
100
AcDbMText
 10
269.8416719405939
 20
12.69470785573851
 30
0
 40
5
 41
119.5833410476435
 71
    7
 72
    5
  1
Dessin d'ensemble et nomenclature
  7
iso9
210
0
220
0
230
1
 50
0
 73
    1
 44
0.96
  0
MTEXT
  5
233
100
AcDbEntity
  8
TEXTE
  6
CONTINUOUS
 62
    7
370
   -1
100
AcDbMText
 10
255
 20
114.9999999999998
 30
0
 40
3.5
 41
18.66666666666683
 71
    7
 72
    5
  1
Rondelle
  7
iso9
210
0
220
0
230
1
 50
0
 73
    1
 44
0.96
  0
MTEXT
  5
234
100
AcDbEntity
  8
TEXTE
  6
CONTINUOUS
 62
    7
370
   -1
100
AcDbMText
 10
255
 20
122.8333333333333
 30
0
 40
3.5
 41
63.194444444445
 71
    7
 72
    5
  1
Goupille cylindrique fendue
  7
iso9
210
0
220
0
230
1
 50
0
 73
    1
 44
0.96
  0
MTEXT
  5
235
100
AcDbEntity
  8
TEXTE
  6
CONTINUOUS
 62
    7
370
   -1
100
AcDbMText
 10
363
 20
124
 30
0
 40
3.5
 41
8.944444444444446
 71
    7
 72
    5
  1
2-18
  7
iso9
210
0
220
0
230
1
 50
0
 73
    1
 44
0.96
  0
LINE
  5
236
100
AcDbEntity
  8
INTERROMPU
  6
ByLayer
 62
  256
370
   -1
100
AcDbLine
 10
168.403242
 20
91.790693
 11
148.403242
 21
91.790693
  0
LINE
  5
237
100
AcDbEntity
  8
INTERROMPU
  6
ByLayer
 62
  256
370
   -1
100
AcDbLine
 10
168.403242
 20
93.290693
 11
148.403242
 21
93.290693
  0
LINE
  5
238
100
AcDbEntity
  8
FIN
  6
ByLayer
 62
  256
370
   -1
100
AcDbLine
 10
220
 20
59
 11
410
 21
59
  0
LINE
  5
239
100
AcDbEntity
  8
FIN
  6
ByLayer
 62
  256
370
   -1
100
AcDbLine
 10
220
 20
68
 11
410
 21
68
  0
LINE
  5
23A
100
AcDbEntity
  8
FIN
  6
ByLayer
 62
  256
370
   -1
100
AcDbLine
 10
220
 20
77
 11
410
 21
77
  0
LINE
  5
23B
100
AcDbEntity
  8
FIN
  6
ByLayer
 62
  256
370
   -1
100
AcDbLine
 10
220
 20
104
 11
410
 21
104
  0
LINE
  5
23C
100
AcDbEntity
  8
FIN
  6
ByLayer
 62
  256
370
   -1
100
AcDbLine
 10
220
 20
95
 11
410
 21
95
  0
LINE
  5
23D
100
AcDbEntity
  8
FIN
  6
ByLayer
 62
  256
370
   -1
100
AcDbLine
 10
220
 20
86
 11
410
 21
86
  0
LINE
  5
23E
100
AcDbEntity
  8
FIN
  6
ByLayer
 62
  256
370
   -1
100
AcDbLine
 10
220
 20
131
 11
410
 21
131
  0
LINE
  5
23F
100
AcDbEntity
  8
FIN
  6
ByLayer
 62
  256
370
   -1
100
AcDbLine
 10
220
 20
122
 11
410
 21
122
  0
LINE
  5
240
100
AcDbEntity
  8
FIN
  6
ByLayer
 62
  256
370
   -1
100
AcDbLine
 10
220
 20
113
 11
410
 21
113
  0
LINE
  5
241
100
AcDbEntity
  8
FIN
  6
ByLayer
 62
  256
370
   -1
100
AcDbLine
 10
130.903242
 20
38.290693
 11
102.236009
 21
86.856058
  0
LINE
  5
242
100
AcDbEntity
  8
FIN
  6
ByLayer
 62
  256
370
   -1
100
AcDbLine
 10
119.403242
 20
66.290693
 11
93.40324200000001
 21
66.290693
  0
LINE
  5
243
100
AcDbEntity
  8
FIN
  6
ByLayer
 62
  256
370
   -1
100
AcDbLine
 10
119.403242
 20
70.290693
 11
93.40324200000001
 21
70.290693
  0
LINE
  5
244
100
AcDbEntity
  8
FIN
  6
ByLayer
 62
  256
370
   -1
100
AcDbLine
 10
148.403242
 20
91.790693
 11
105.403242
 21
91.790693
  0
LINE
  5
245
100
AcDbEntity
  8
FIN
  6
ByLayer
 62
  256
370
   -1
100
AcDbLine
 10
173.40971
 20
84.790693
 11
105.403242
 21
84.790693
  0
LINE
  5
246
100
AcDbEntity
  8
FIN
  6
ByLayer
 62
  256
370
   -1
100
AcDbLine
 10
99.561986
 20
79.597994
 11
105.903242
 21
38.290693
  0
LINE
  5
247
100
AcDbEntity
  8
FIN
  6
ByLayer
 62
  256
370
   -1
100
AcDbLine
 10
75.877775
 20
84.182034
 11
65.90324200000001
 21
38.290693
  0
LWPOLYLINE
  5
248
100
AcDbEntity
  8
FIN
  6
ByLayer
 62
  256
370
   -1
100
AcDbPolyline
 90
    5
 70
    0
 43
0
 10
74.158917
 20
88.290693
 10
73.604264
 20
85.188469
 10
71.156353
 20
82.935328
 10
71.147942
 20
80.59277
 10
70.434816
 20
79.290693
  0
LINE
  5
249
100
AcDbEntity
  8
FIN
  6
ByLayer
 62
  256
370
   -1
100
AcDbLine
 10
98.40324200000001
 20
98.290693
 11
100.403242
 21
98.290693
  0
LWPOLYLINE
  5
24A
100
AcDbEntity
  8
FIN
  6
ByLayer
 62
  256
370
   -1
100
AcDbPolyline
 90
    5
 70
    0
 43
0
 10
140.867919
 20
73.290693
 10
139.351852
 20
70.718042
 10
139.945725
 20
67.235112
 10
139.376454
 20
64.79975899999999
 10
139.720638
 20
63.290693
  0
LINE
  5
24B
100
AcDbEntity
  8
FIN
  6
ByLayer
 62
  256
370
   -1
100
AcDbLine
 10
118.403242
 20
65.290693
 11
122.691814
 21
65.290693
  0
LINE
  5
24C
100
AcDbEntity
  8
FIN
  6
ByLayer
 62
  256
370
   -1
100
AcDbLine
 10
180.903242
 20
38.290693
 11
169.862396
 21
65.79336600000001
  0
LINE
  5
24D
100
AcDbEntity
  8
FIN
  6
ByLayer
 62
  256
370
   -1
100
AcDbLine
 10
118.403242
 20
71.290693
 11
122.691814
 21
71.290693
  0
LINE
  5
24E
100
AcDbEntity
  8
FIN
  6
ByLayer
 62
  256
370
   -1
100
AcDbLine
 10
173.40971
 20
91.790693
 11
168.403242
 21
91.790693
  0
LINE
  5
24F
100
AcDbEntity
  8
FIN
  6
ByLayer
 62
  256
370
   -1
100
AcDbLine
 10
40.903242
 20
157.666616
 11
64.80620999999999
 21
204.951913
  0
LINE
  5
250
100
AcDbEntity
  8
FIN
  6
ByLayer
 62
  256
370
   -1
100
AcDbLine
 10
65.90324200000001
 20
157.666616
 11
70.647841
 21
183.616555
  0
LINE
  5
251
100
AcDbEntity
  8
FIN
  6
ByLayer
 62
  256
370
   -1
100
AcDbLine
 10
82.152801
 20
182.564469
 11
80.60333799999999
 21
157.666616
  0
LINE
  5
252
100
AcDbEntity
  8
FIN
  6
ByLayer
 62
  256
370
   -1
100
AcDbLine
 10
91.29543200000001
 20
181.165767
 11
105.903242
 21
157.666616
  0
LWPOLYLINE
  5
253
100
AcDbEntity
  8
FIN
  6
ByLayer
 62
  256
370
   -1
100
AcDbPolyline
 90
    4
 70
    0
 43
0
 10
63.403242
 20
192.069253
 10
65.404766
 20
191.261562
 10
67.58553000000001
 20
191.826946
 10
69.40324200000001
 20
191.342332
  0
LINE
  5
254
100
AcDbEntity
  8
FIN
  6
ByLayer
 62
  256
370
   -1
100
AcDbLine
 10
180.903242
 20
157.666616
 11
162.105279
 21
220.724341
  0
LINE
  5
255
100
AcDbEntity
  8
FIN
  6
ByLayer
 62
  256
370
   -1
100
AcDbLine
 10
130.903242
 20
157.666616
 11
120.568777
 21
180.770181
  0
LINE
  5
256
100
AcDbEntity
  8
FIN
  6
ByLayer
 62
  256
370
   -1
100
AcDbLine
 10
250
 20
10.5
 11
250
 21
40.5
  0
LINE
  5
257
100
AcDbEntity
  8
FIN
  6
ByLayer
 62
  256
370
   -1
100
AcDbLine
 10
250
 20
41
 11
250
 21
140
  0
LINE
  5
258
100
AcDbEntity
  8
FIN
  6
ByLayer
 62
  256
370
   -1
100
AcDbLine
 10
235
 20
41
 11
235
 21
140
  0
LINE
  5
259
100
AcDbEntity
  8
FIN
  6
ByLayer
 62
  256
370
   -1
100
AcDbLine
 10
360
 20
41
 11
360
 21
140
  0
LINE
  5
25A
100
AcDbEntity
  8
FIN
  6
ByLayer
 62
  256
370
   -1
100
AcDbLine
 10
65.90324200000001
 20
38.290693
 11
55.903242
 21
38.290693
  0
LINE
  5
25B
100
AcDbEntity
  8
FIN
  6
ByLayer
 62
  256
370
   -1
100
AcDbLine
 10
115.903242
 20
38.290693
 11
105.903242
 21
38.290693
  0
LINE
  5
25C
100
AcDbEntity
  8
FIN
  6
ByLayer
 62
  256
370
   -1
100
AcDbLine
 10
190.903242
 20
38.290693
 11
180.903242
 21
38.290693
  0
LINE
  5
25D
100
AcDbEntity
  8
FIN
  6
ByLayer
 62
  256
370
   -1
100
AcDbLine
 10
140.903242
 20
38.290693
 11
130.903242
 21
38.290693
  0
LINE
  5
25E
100
AcDbEntity
  8
FIN
  6
ByLayer
 62
  256
370
   -1
100
AcDbLine
 10
30.903242
 20
157.666616
 11
40.903242
 21
157.666616
  0
LINE
  5
25F
100
AcDbEntity
  8
FIN
  6
ByLayer
 62
  256
370
   -1
100
AcDbLine
 10
80.90324200000001
 20
157.666616
 11
90.90324200000001
 21
157.666616
  0
LINE
  5
260
100
AcDbEntity
  8
FIN
  6
ByLayer
 62
  256
370
   -1
100
AcDbLine
 10
55.903242
 20
157.666616
 11
65.90324200000001
 21
157.666616
  0
LINE
  5
261
100
AcDbEntity
  8
FIN
  6
ByLayer
 62
  256
370
   -1
100
AcDbLine
 10
105.903242
 20
157.666616
 11
115.903242
 21
157.666616
  0
LINE
  5
262
100
AcDbEntity
  8
FIN
  6
ByLayer
 62
  256
370
   -1
100
AcDbLine
 10
180.903242
 20
157.666616
 11
190.903242
 21
157.666616
  0
LINE
  5
263
100
AcDbEntity
  8
FIN
  6
ByLayer
 62
  256
370
   -1
100
AcDbLine
 10
130.903242
 20
157.666616
 11
140.903242
 21
157.666616
  0
LINE
  5
264
100
AcDbEntity
  8
FIN
  6
ByLayer
 62
  256
370
   -1
100
AcDbLine
 10
220
 20
20.5
 11
409.5
 21
20.5
  0
LINE
  5
265
100
AcDbEntity
  8
FIN
  6
ByLayer
 62
  256
370
   -1
100
AcDbLine
 10
220
 20
30.3325658030891
 11
250
 21
30.3325658030891
  0
LINE
  5
266
100
AcDbEntity
  8
FIN
  6
ByLayer
 62
  256
370
   -1
100
AcDbLine
 10
321.7244114404452
 20
41
 11
321.7244114404452
 21
140
  0
LINE
  5
267
100
AcDbEntity
  8
HACHURE
  6
ByLayer
 62
  256
370
   -1
100
AcDbLine
 10
140.867919
 20
73.290693
 11
103.403242
 21
73.290693
  0
LINE
  5
268
100
AcDbEntity
  8
HACHURE
  6
ByLayer
 62
  256
370
   -1
100
AcDbLine
 10
103.403242
 20
73.290693
 11
100.403242
 21
76.290693
  0
LINE
  5
269
100
AcDbEntity
  8
HACHURE
  6
ByLayer
 62
  256
370
   -1
100
AcDbLine
 10
100.403242
 20
76.290693
 11
98.406538
 21
76.290693
  0
LINE
  5
26A
100
AcDbEntity
  8
HACHURE
  6
ByLayer
 62
  256
370
   -1
100
AcDbLine
 10
98.406538
 20
76.290693
 11
98.403322
 21
71.290693
  0
LINE
  5
26B
100
AcDbEntity
  8
HACHURE
  6
ByLayer
 62
  256
370
   -1
100
AcDbLine
 10
98.403322
 20
71.290693
 11
118.403242
 21
71.290693
  0
LINE
  5
26C
100
AcDbEntity
  8
HACHURE
  6
ByLayer
 62
  256
370
   -1
100
AcDbLine
 10
118.403242
 20
71.290693
 11
119.403242
 21
70.290693
  0
LINE
  5
26D
100
AcDbEntity
  8
HACHURE
  6
ByLayer
 62
  256
370
   -1
100
AcDbLine
 10
119.403242
 20
70.290693
 11
126.334051
 21
70.290693
  0
LINE
  5
26E
100
AcDbEntity
  8
HACHURE
  6
ByLayer
 62
  256
370
   -1
100
AcDbLine
 10
126.334051
 20
70.290693
 11
127.334051
 21
68.290693
  0
LINE
  5
26F
100
AcDbEntity
  8
HACHURE
  6
ByLayer
 62
  256
370
   -1
100
AcDbLine
 10
127.334051
 20
68.290693
 11
126.334051
 21
66.290693
  0
LINE
  5
270
100
AcDbEntity
  8
HACHURE
  6
ByLayer
 62
  256
370
   -1
100
AcDbLine
 10
126.334051
 20
66.290693
 11
119.403242
 21
66.290693
  0
LINE
  5
271
100
AcDbEntity
  8
HACHURE
  6
ByLayer
 62
  256
370
   -1
100
AcDbLine
 10
119.403242
 20
66.290693
 11
118.403242
 21
65.290693
  0
LINE
  5
272
100
AcDbEntity
  8
HACHURE
  6
ByLayer
 62
  256
370
   -1
100
AcDbLine
 10
118.403242
 20
65.290693
 11
98.40324200000001
 21
65.290693
  0
LINE
  5
273
100
AcDbEntity
  8
HACHURE
  6
ByLayer
 62
  256
370
   -1
100
AcDbLine
 10
98.40324200000001
 20
65.290693
 11
98.406538
 21
60.290693
  0
LINE
  5
274
100
AcDbEntity
  8
HACHURE
  6
ByLayer
 62
  256
370
   -1
100
AcDbLine
 10
98.406538
 20
60.290693
 11
100.403242
 21
60.290693
  0
LINE
  5
275
100
AcDbEntity
  8
HACHURE
  6
ByLayer
 62
  256
370
   -1
100
AcDbLine
 10
100.403242
 20
60.290693
 11
103.403242
 21
63.290693
  0
LINE
  5
276
100
AcDbEntity
  8
HACHURE
  6
ByLayer
 62
  256
370
   -1
100
AcDbLine
 10
103.403242
 20
63.290693
 11
139.720638
 21
63.290693
  0
LINE
  5
277
100
AcDbEntity
  8
HACHURE
  6
ByLayer
 62
  256
370
   -1
100
AcDbLine
 10
98.40324200000001
 20
64.540612
 11
83.40324200000001
 21
64.54069200000001
  0
LINE
  5
278
100
AcDbEntity
  8
HACHURE
  6
ByLayer
 62
  256
370
   -1
100
AcDbLine
 10
83.40324200000001
 20
64.54069200000001
 11
83.40324200000001
 21
58.290693
  0
LINE
  5
279
100
AcDbEntity
  8
HACHURE
  6
ByLayer
 62
  256
370
   -1
100
AcDbLine
 10
83.40324200000001
 20
58.290693
 11
98.40324200000001
 21
58.290693
  0
LINE
  5
27A
100
AcDbEntity
  8
HACHURE
  6
ByLayer
 62
  256
370
   -1
100
AcDbLine
 10
98.40324200000001
 20
58.290693
 11
98.40324200000001
 21
64.540612
  0
LINE
  5
27B
100
AcDbEntity
  8
HACHURE
  6
ByLayer
 62
  256
370
   -1
100
AcDbLine
 10
98.406918
 20
82.48907699999999
 11
83.40324200000001
 21
82.48907699999999
  0
LINE
  5
27C
100
AcDbEntity
  8
HACHURE
  6
ByLayer
 62
  256
370
   -1
100
AcDbLine
 10
83.40324200000001
 20
82.48907699999999
 11
83.40324200000001
 21
72.040694
  0
LINE
  5
27D
100
AcDbEntity
  8
HACHURE
  6
ByLayer
 62
  256
370
   -1
100
AcDbLine
 10
83.40324200000001
 20
72.040694
 11
98.40356300000001
 21
72.040775
  0
LINE
  5
27E
100
AcDbEntity
  8
HACHURE
  6
ByLayer
 62
  256
370
   -1
100
AcDbLine
 10
98.40356300000001
 20
72.040775
 11
98.406918
 21
82.48907699999999
  0
LINE
  5
27F
100
AcDbEntity
  8
HACHURE
  6
ByLayer
 62
  256
370
   -1
100
AcDbLine
 10
71.156353
 20
82.935328
 11
73.604264
 21
85.188469
  0
LINE
  5
280
100
AcDbEntity
  8
HACHURE
  6
ByLayer
 62
  256
370
   -1
100
AcDbLine
 10
73.604264
 20
85.188469
 11
74.158917
 21
88.290693
  0
LINE
  5
281
100
AcDbEntity
  8
HACHURE
  6
ByLayer
 62
  256
370
   -1
100
AcDbLine
 10
74.158917
 20
88.290693
 11
70.40324200000001
 21
88.290693
  0
ARC
  5
282
100
AcDbEntity
  8
HACHURE
  6
ByLayer
 62
  256
370
   -1
100
AcDbCircle
 10
66.40324200000001
 20
88.290693
 40
4
100
AcDbArc
 50
180
 51
0
  0
LINE
  5
283
100
AcDbEntity
  8
HACHURE
  6
ByLayer
 62
  256
370
   -1
100
AcDbLine
 10
62.40324200000001
 20
88.290693
 11
58.403242
 21
88.290693
  0
LINE
  5
284
100
AcDbEntity
  8
HACHURE
  6
ByLayer
 62
  256
370
   -1
100
AcDbLine
 10
58.403242
 20
88.290693
 11
58.403242
 21
80.790693
  0
LINE
  5
285
100
AcDbEntity
  8
HACHURE
  6
ByLayer
 62
  256
370
   -1
100
AcDbLine
 10
58.403242
 20
80.790693
 11
59.903242
 21
79.290693
  0
LINE
  5
286
100
AcDbEntity
  8
HACHURE
  6
ByLayer
 62
  256
370
   -1
100
AcDbLine
 10
59.903242
 20
79.290693
 11
70.434816
 21
79.290693
  0
LINE
  5
287
100
AcDbEntity
  8
HACHURE
  6
ByLayer
 62
  256
370
   -1
100
AcDbLine
 10
70.434816
 20
79.290693
 11
71.147942
 21
80.59277
  0
LINE
  5
288
100
AcDbEntity
  8
HACHURE
  6
ByLayer
 62
  256
370
   -1
100
AcDbLine
 10
71.147942
 20
80.59277
 11
71.156353
 21
82.935328
  0
LINE
  5
289
100
AcDbEntity
  8
HACHURE
  6
ByLayer
 62
  256
370
   -1
100
AcDbLine
 10
69.40324200000001
 20
88.290693
 11
63.403242
 21
88.290693
  0
LINE
  5
28A
100
AcDbEntity
  8
HACHURE
  6
ByLayer
 62
  256
370
   -1
100
AcDbLine
 10
63.403242
 20
88.290693
 11
63.903242
 21
86.290693
  0
LINE
  5
28B
100
AcDbEntity
  8
HACHURE
  6
ByLayer
 62
  256
370
   -1
100
AcDbLine
 10
63.903242
 20
86.290693
 11
65.40324200000001
 21
85.290693
  0
LINE
  5
28C
100
AcDbEntity
  8
HACHURE
  6
ByLayer
 62
  256
370
   -1
100
AcDbLine
 10
65.40324200000001
 20
85.290693
 11
67.40324200000001
 21
85.290693
  0
LINE
  5
28D
100
AcDbEntity
  8
HACHURE
  6
ByLayer
 62
  256
370
   -1
100
AcDbLine
 10
67.40324200000001
 20
85.290693
 11
68.90324200000001
 21
86.290693
  0
LINE
  5
28E
100
AcDbEntity
  8
HACHURE
  6
ByLayer
 62
  256
370
   -1
100
AcDbLine
 10
68.90324200000001
 20
86.290693
 11
69.40324200000001
 21
88.290693
  0
LINE
  5
28F
100
AcDbEntity
  8
HACHURE
  6
ByLayer
 62
  256
370
   -1
100
AcDbLine
 10
100.386088
 20
82.48907699999999
 11
98.406918
 21
82.48907699999999
  0
LINE
  5
290
100
AcDbEntity
  8
HACHURE
  6
ByLayer
 62
  256
370
   -1
100
AcDbLine
 10
98.406918
 20
82.48907699999999
 11
98.405573
 21
78.299519
  0
LINE
  5
291
100
AcDbEntity
  8
HACHURE
  6
ByLayer
 62
  256
370
   -1
100
AcDbLine
 10
98.405573
 20
78.299519
 11
100.386088
 21
78.299519
  0
LINE
  5
292
100
AcDbEntity
  8
HACHURE
  6
ByLayer
 62
  256
370
   -1
100
AcDbLine
 10
100.386088
 20
78.299519
 11
100.386088
 21
82.48907699999999
  0
LINE
  5
293
100
AcDbEntity
  8
HACHURE
  6
ByLayer
 62
  256
370
   -1
100
AcDbLine
 10
168.403242
 20
58.290693
 11
168.403242
 21
63.290693
  0
LINE
  5
294
100
AcDbEntity
  8
HACHURE
  6
ByLayer
 62
  256
370
   -1
100
AcDbLine
 10
168.403242
 20
63.290693
 11
153.403242
 21
63.290693
  0
LINE
  5
295
100
AcDbEntity
  8
HACHURE
  6
ByLayer
 62
  256
370
   -1
100
AcDbLine
 10
153.403242
 20
63.290693
 11
153.403242
 21
58.290693
  0
LINE
  5
296
100
AcDbEntity
  8
HACHURE
  6
ByLayer
 62
  256
370
   -1
100
AcDbLine
 10
153.403242
 20
58.290693
 11
168.403242
 21
58.290693
  0
LINE
  5
297
100
AcDbEntity
  8
HACHURE
  6
ByLayer
 62
  256
370
   -1
100
AcDbLine
 10
168.403242
 20
73.275628
 11
168.403242
 21
83.290693
  0
LINE
  5
298
100
AcDbEntity
  8
HACHURE
  6
ByLayer
 62
  256
370
   -1
100
AcDbLine
 10
168.403242
 20
83.290693
 11
153.403242
 21
83.290693
  0
LINE
  5
299
100
AcDbEntity
  8
HACHURE
  6
ByLayer
 62
  256
370
   -1
100
AcDbLine
 10
153.403242
 20
83.290693
 11
153.403242
 21
73.275628
  0
LINE
  5
29A
100
AcDbEntity
  8
HACHURE
  6
ByLayer
 62
  256
370
   -1
100
AcDbLine
 10
153.403242
 20
73.275628
 11
168.403242
 21
73.275628
  0
LINE
  5
29B
100
AcDbEntity
  8
HACHURE
  6
ByLayer
 62
  256
370
   -1
100
AcDbLine
 10
69.40324200000001
 20
191.342332
 11
67.58553000000001
 21
191.826946
  0
LINE
  5
29C
100
AcDbEntity
  8
HACHURE
  6
ByLayer
 62
  256
370
   -1
100
AcDbLine
 10
67.58553000000001
 20
191.826946
 11
65.404766
 21
191.261562
  0
LINE
  5
29D
100
AcDbEntity
  8
HACHURE
  6
ByLayer
 62
  256
370
   -1
100
AcDbLine
 10
65.404766
 20
191.261562
 11
63.403242
 21
192.069253
  0
LINE
  5
29E
100
AcDbEntity
  8
HACHURE
  6
ByLayer
 62
  256
370
   -1
100
AcDbLine
 10
63.403242
 20
192.069253
 11
63.403242
 21
186.713186
  0
LINE
  5
29F
100
AcDbEntity
  8
HACHURE
  6
ByLayer
 62
  256
370
   -1
100
AcDbLine
 10
63.403242
 20
186.713186
 11
64.90324200000001
 21
186.713186
  0
LINE
  5
2A0
100
AcDbEntity
  8
HACHURE
  6
ByLayer
 62
  256
370
   -1
100
AcDbLine
 10
64.90324200000001
 20
186.713186
 11
64.90324200000001
 21
183.713186
  0
LINE
  5
2A1
100
AcDbEntity
  8
HACHURE
  6
ByLayer
 62
  256
370
   -1
100
AcDbLine
 10
64.90324200000001
 20
183.713186
 11
62.903242
 21
181.713186
  0
LINE
  5
2A2
100
AcDbEntity
  8
HACHURE
  6
ByLayer
 62
  256
370
   -1
100
AcDbLine
 10
62.903242
 20
181.713186
 11
69.90324200000001
 21
181.713186
  0
LINE
  5
2A3
100
AcDbEntity
  8
HACHURE
  6
ByLayer
 62
  256
370
   -1
100
AcDbLine
 10
69.90324200000001
 20
181.713186
 11
67.90324200000001
 21
183.713186
  0
LINE
  5
2A4
100
AcDbEntity
  8
HACHURE
  6
ByLayer
 62
  256
370
   -1
100
AcDbLine
 10
67.90324200000001
 20
183.713186
 11
67.90324200000001
 21
186.713186
  0
LINE
  5
2A5
100
AcDbEntity
  8
HACHURE
  6
ByLayer
 62
  256
370
   -1
100
AcDbLine
 10
67.90324200000001
 20
186.713186
 11
69.40324200000001
 21
186.713186
  0
LINE
  5
2A6
100
AcDbEntity
  8
HACHURE
  6
ByLayer
 62
  256
370
   -1
100
AcDbLine
 10
69.40324200000001
 20
186.713186
 11
69.40324200000001
 21
191.342332
  0
LINE
  5
2A7
100
AcDbEntity
  8
HACHURE
  6
ByLayer
 62
  256
370
   -1
100
AcDbLine
 10
71.77281000000001
 20
185.713186
 11
70.77281000000001
 21
186.713186
  0
LINE
  5
2A8
100
AcDbEntity
  8
HACHURE
  6
ByLayer
 62
  256
370
   -1
100
AcDbLine
 10
70.77281000000001
 20
186.713186
 11
67.90324200000001
 21
186.713186
  0
LINE
  5
2A9
100
AcDbEntity
  8
HACHURE
  6
ByLayer
 62
  256
370
   -1
100
AcDbLine
 10
67.90324200000001
 20
186.713186
 11
67.90324200000001
 21
183.713186
  0
LINE
  5
2AA
100
AcDbEntity
  8
HACHURE
  6
ByLayer
 62
  256
370
   -1
100
AcDbLine
 10
67.90324200000001
 20
183.713186
 11
69.90324200000001
 21
181.713186
  0
LINE
  5
2AB
100
AcDbEntity
  8
HACHURE
  6
ByLayer
 62
  256
370
   -1
100
AcDbLine
 10
69.90324200000001
 20
181.713186
 11
70.77281000000001
 21
181.713186
  0
LINE
  5
2AC
100
AcDbEntity
  8
HACHURE
  6
ByLayer
 62
  256
370
   -1
100
AcDbLine
 10
70.77281000000001
 20
181.713186
 11
71.77281000000001
 21
182.713186
  0
LINE
  5
2AD
100
AcDbEntity
  8
HACHURE
  6
ByLayer
 62
  256
370
   -1
100
AcDbLine
 10
71.77281000000001
 20
182.713186
 11
71.77281000000001
 21
185.713186
  0
LINE
  5
2AE
100
AcDbEntity
  8
HACHURE
  6
ByLayer
 62
  256
370
   -1
100
AcDbLine
 10
64.90324200000001
 20
186.713186
 11
61.77281
 21
186.713186
  0
LINE
  5
2AF
100
AcDbEntity
  8
HACHURE
  6
ByLayer
 62
  256
370
   -1
100
AcDbLine
 10
61.77281
 20
186.713186
 11
60.77281
 21
185.713186
  0
LINE
  5
2B0
100
AcDbEntity
  8
HACHURE
  6
ByLayer
 62
  256
370
   -1
100
AcDbLine
 10
60.77281
 20
185.713186
 11
60.77281
 21
182.713186
  0
LINE
  5
2B1
100
AcDbEntity
  8
HACHURE
  6
ByLayer
 62
  256
370
   -1
100
AcDbLine
 10
60.77281
 20
182.713186
 11
61.77281
 21
181.713186
  0
LINE
  5
2B2
100
AcDbEntity
  8
HACHURE
  6
ByLayer
 62
  256
370
   -1
100
AcDbLine
 10
61.77281
 20
181.713186
 11
62.903242
 21
181.713186
  0
LINE
  5
2B3
100
AcDbEntity
  8
HACHURE
  6
ByLayer
 62
  256
370
   -1
100
AcDbLine
 10
62.903242
 20
181.713186
 11
64.90324200000001
 21
183.713186
  0
LINE
  5
2B4
100
AcDbEntity
  8
HACHURE
  6
ByLayer
 62
  256
370
   -1
100
AcDbLine
 10
64.90324200000001
 20
183.713186
 11
64.90324200000001
 21
186.713186
  0
LINE
  5
2B5
100
AcDbEntity
  8
HACHURE
  6
ByLayer
 62
    7
370
   -1
100
AcDbLine
 10
98.65352
 20
82.489086
 11
98.406803
 21
82.242369
  0
LINE
  5
2B6
100
AcDbEntity
  8
HACHURE
  6
ByLayer
 62
    7
370
   -1
100
AcDbLine
 10
98.40622
 20
80.44572599999999
 11
100.386067
 21
82.425574
  0
LINE
  5
2B7
100
AcDbEntity
  8
HACHURE
  6
ByLayer
 62
    7
370
   -1
100
AcDbLine
 10
100.386077
 20
80.62952300000001
 11
98.405682
 21
78.649129
  0
LINE
  5
2B8
100
AcDbEntity
  8
HACHURE
  6
ByLayer
 62
    7
370
   -1
100
AcDbLine
 10
99.852171
 20
78.29955699999999
 11
100.386041
 21
78.833427
  0
LINE
  5
2B9
100
AcDbEntity
  8
HACHURE
  6
ByLayer
 62
    7
370
   -1
100
AcDbLine
 10
100.638231
 20
76.055037
 11
98.40415400000001
 21
74.490719
  0
LINE
  5
2BA
100
AcDbEntity
  8
HACHURE
  6
ByLayer
 62
    7
370
   -1
100
AcDbLine
 10
99.36944699999999
 20
71.29018499999999
 11
102.918154
 21
73.77501599999999
  0
LINE
  5
2BB
100
AcDbEntity
  8
HACHURE
  6
ByLayer
 62
    7
370
   -1
100
AcDbLine
 10
107.759735
 20
73.29037599999999
 11
104.904011
 21
71.29077700000001
  0
LINE
  5
2BC
100
AcDbEntity
  8
HACHURE
  6
ByLayer
 62
    7
370
   -1
100
AcDbLine
 10
98.405017
 20
62.863693
 11
101.871064
 21
65.290645
  0
LINE
  5
2BD
100
AcDbEntity
  8
HACHURE
  6
ByLayer
 62
    7
370
   -1
100
AcDbLine
 10
110.439368
 20
71.29023599999999
 11
113.296224
 21
73.290628
  0
LINE
  5
2BE
100
AcDbEntity
  8
HACHURE
  6
ByLayer
 62
    7
370
   -1
100
AcDbLine
 10
118.832713
 20
73.290881
 11
115.975857
 21
71.29048899999999
  0
LINE
  5
2BF
100
AcDbEntity
  8
HACHURE
  6
ByLayer
 62
    7
370
   -1
100
AcDbLine
 10
107.407553
 20
65.290898
 11
104.549565
 21
63.289712
  0
LINE
  5
2C0
100
AcDbEntity
  8
HACHURE
  6
ByLayer
 62
    7
370
   -1
100
AcDbLine
 10
100.723438
 20
60.61063
 11
100.264846
 21
60.289521
  0
LINE
  5
2C1
100
AcDbEntity
  8
HACHURE
  6
ByLayer
 62
    7
370
   -1
100
AcDbLine
 10
110.087186
 20
63.290758
 11
112.94291
 21
65.290357
  0
LINE
  5
2C2
100
AcDbEntity
  8
HACHURE
  6
ByLayer
 62
    7
370
   -1
100
AcDbLine
 10
120.084484
 20
70.290941
 11
124.369203
 21
73.291133
  0
LINE
  5
2C3
100
AcDbEntity
  8
HACHURE
  6
ByLayer
 62
    7
370
   -1
100
AcDbLine
 10
129.902634
 20
73.290932
 11
125.616784
 21
70.289947
  0
LINE
  5
2C4
100
AcDbEntity
  8
HACHURE
  6
ByLayer
 62
    7
370
   -1
100
AcDbLine
 10
119.904204
 20
66.289956
 11
115.620618
 21
63.290557
  0
LINE
  5
2C5
100
AcDbEntity
  8
HACHURE
  6
ByLayer
 62
    7
370
   -1
100
AcDbLine
 10
121.157107
 20
63.290809
 11
125.441825
 21
66.29100099999999
  0
LINE
  5
2C6
100
AcDbEntity
  8
HACHURE
  6
ByLayer
 62
    7
370
   -1
100
AcDbLine
 10
126.814203
 20
67.25194999999999
 11
135.439123
 21
73.291184
  0
LINE
  5
2C7
100
AcDbEntity
  8
HACHURE
  6
ByLayer
 62
    7
370
   -1
100
AcDbLine
 10
140.791044
 20
73.1622
 11
126.693596
 21
63.291061
  0
LINE
  5
2C8
100
AcDbEntity
  8
HACHURE
  6
ByLayer
 62
    7
370
   -1
100
AcDbLine
 10
132.228161
 20
63.291653
 11
139.721888
 21
68.53881699999999
  0
LINE
  5
2C9
100
AcDbEntity
  8
HACHURE
  6
ByLayer
 62
    7
370
   -1
100
AcDbLine
 10
139.450682
 20
64.472478
 11
137.76465
 21
63.291905
  0
LINE
  5
2CA
100
AcDbEntity
  8
HACHURE
  6
ByLayer
 62
    7
370
   -1
100
AcDbLine
 10
98.403209
 20
60.349586
 11
94.212014
 21
64.54078199999999
  0
LINE
  5
2CB
100
AcDbEntity
  8
HACHURE
  6
ByLayer
 62
    7
370
   -1
100
AcDbLine
 10
89.721987
 20
64.54060699999999
 11
95.971664
 21
58.290929
  0
LINE
  5
2CC
100
AcDbEntity
  8
HACHURE
  6
ByLayer
 62
    7
370
   -1
100
AcDbLine
 10
91.481292
 20
58.2911
 11
85.23196
 21
64.540432
  0
LINE
  5
2CD
100
AcDbEntity
  8
HACHURE
  6
ByLayer
 62
    7
370
   -1
100
AcDbLine
 10
83.403251
 20
61.878939
 11
86.99092
 21
58.29127
  0
LINE
  5
2CE
100
AcDbEntity
  8
HACHURE
  6
ByLayer
 62
    7
370
   -1
100
AcDbLine
 10
98.405607
 20
78.574641
 11
94.491393
 21
82.488856
  0
LINE
  5
2CF
100
AcDbEntity
  8
HACHURE
  6
ByLayer
 62
    7
370
   -1
100
AcDbLine
 10
90.001127
 20
82.488851
 11
98.403876
 21
74.086101
  0
LINE
  5
2D0
100
AcDbEntity
  8
HACHURE
  6
ByLayer
 62
    7
370
   -1
100
AcDbLine
 10
95.958782
 20
72.040925
 11
85.51086100000001
 21
82.488846
  0
LINE
  5
2D1
100
AcDbEntity
  8
HACHURE
  6
ByLayer
 62
    7
370
   -1
100
AcDbLine
 10
83.40352
 20
80.106606
 11
91.469207
 21
72.04092
  0
LINE
  5
2D2
100
AcDbEntity
  8
HACHURE
  6
ByLayer
 62
    7
370
   -1
100
AcDbLine
 10
86.978595
 20
72.04126100000001
 11
83.403516
 21
75.61633999999999
  0
LINE
  5
2D3
100
AcDbEntity
  8
HACHURE
  6
ByLayer
 62
    7
370
   -1
100
AcDbLine
 10
74.014754
 20
87.486377
 11
73.639555
 21
88.290993
  0
LINE
  5
2D4
100
AcDbEntity
  8
HACHURE
  6
ByLayer
 62
    7
370
   -1
100
AcDbLine
 10
71.537677
 20
88.291011
 11
73.170473
 21
84.789467
  0
LINE
  5
2D5
100
AcDbEntity
  8
HACHURE
  6
ByLayer
 62
    7
370
   -1
100
AcDbLine
 10
71.69977799999999
 20
83.435908
 11
70.122254
 21
86.818921
  0
LINE
  5
2D6
100
AcDbEntity
  8
HACHURE
  6
ByLayer
 62
    7
370
   -1
100
AcDbLine
 10
68.82019200000001
 20
85.10372599999999
 11
71.026516
 21
80.37224999999999
  0
LINE
  5
2D7
100
AcDbEntity
  8
HACHURE
  6
ByLayer
 62
    7
370
   -1
100
AcDbLine
 10
69.42902100000001
 20
79.290615
 11
67.07097
 21
84.34747
  0
LINE
  5
2D8
100
AcDbEntity
  8
HACHURE
  6
ByLayer
 62
    7
370
   -1
100
AcDbLine
 10
64.848113
 20
84.605715
 11
67.32646099999999
 21
79.290881
  0
LINE
  5
2D9
100
AcDbEntity
  8
HACHURE
  6
ByLayer
 62
    7
370
   -1
100
AcDbLine
 10
65.224583
 20
79.290899
 11
61.027821
 21
88.29088299999999
  0
LINE
  5
2DA
100
AcDbEntity
  8
HACHURE
  6
ByLayer
 62
    7
370
   -1
100
AcDbLine
 10
58.925943
 20
88.29090100000001
 11
63.122705
 21
79.29091699999999
  0
LINE
  5
2DB
100
AcDbEntity
  8
HACHURE
  6
ByLayer
 62
    7
370
   -1
100
AcDbLine
 10
61.020826
 20
79.290935
 11
58.40354
 21
84.903723
  0
LINE
  5
2DC
100
AcDbEntity
  8
HACHURE
  6
ByLayer
 62
    7
370
   -1
100
AcDbLine
 10
64.897248
 20
88.290593
 11
63.79625
 21
86.718205
  0
LINE
  5
2DD
100
AcDbEntity
  8
HACHURE
  6
ByLayer
 62
    7
370
   -1
100
AcDbLine
 10
64.68303299999999
 20
85.77062100000001
 11
66.447565
 21
88.290633
  0
LINE
  5
2DE
100
AcDbEntity
  8
HACHURE
  6
ByLayer
 62
    7
370
   -1
100
AcDbLine
 10
67.998153
 20
88.290721
 11
65.897429
 21
85.290577
  0
LINE
  5
2DF
100
AcDbEntity
  8
HACHURE
  6
ByLayer
 62
    7
370
   -1
100
AcDbLine
 10
67.487067
 20
85.346774
 11
69.322288
 21
87.96774000000001
  0
LINE
  5
2E0
100
AcDbEntity
  8
HACHURE
  6
ByLayer
 62
    7
370
   -1
100
AcDbLine
 10
157.582809
 20
63.290771
 11
153.403007
 21
59.110969
  0
LINE
  5
2E1
100
AcDbEntity
  8
HACHURE
  6
ByLayer
 62
    7
370
   -1
100
AcDbLine
 10
157.072505
 20
58.290615
 11
162.072661
 21
63.290771
  0
LINE
  5
2E2
100
AcDbEntity
  8
HACHURE
  6
ByLayer
 62
    7
370
   -1
100
AcDbLine
 10
166.563204
 20
63.290771
 11
161.563047
 21
58.290615
  0
LINE
  5
2E3
100
AcDbEntity
  8
HACHURE
  6
ByLayer
 62
    7
370
   -1
100
AcDbLine
 10
166.052899
 20
58.290615
 11
168.403131
 21
60.640847
  0
LINE
  5
2E4
100
AcDbEntity
  8
HACHURE
  6
ByLayer
 62
    7
370
   -1
100
AcDbLine
 10
155.132571
 20
83.290792
 11
153.403474
 21
81.561695
  0
LINE
  5
2E5
100
AcDbEntity
  8
HACHURE
  6
ByLayer
 62
    7
370
   -1
100
AcDbLine
 10
153.403567
 20
77.07174999999999
 11
159.622516
 21
83.290699
  0
LINE
  5
2E6
100
AcDbEntity
  8
HACHURE
  6
ByLayer
 62
    7
370
   -1
100
AcDbLine
 10
164.112461
 20
83.290605
 11
154.097647
 21
73.275791
  0
LINE
  5
2E7
100
AcDbEntity
  8
HACHURE
  6
ByLayer
 62
    7
370
   -1
100
AcDbLine
 10
158.587592
 20
73.27569800000001
 11
168.402842
 21
83.090948
  0
LINE
  5
2E8
100
AcDbEntity
  8
HACHURE
  6
ByLayer
 62
    7
370
   -1
100
AcDbLine
 10
168.402935
 20
78.600312
 11
163.078228
 21
73.275604
  0
LINE
  5
2E9
100
AcDbEntity
  8
HACHURE
  6
ByLayer
 62
    7
370
   -1
100
AcDbLine
 10
167.568173
 20
73.27551099999999
 11
168.402683
 21
74.110021
  0
LINE
  5
2EA
100
AcDbEntity
  8
HACHURE
  6
ByLayer
 62
    7
370
   -1
100
AcDbLine
 10
69.403341
 20
188.330142
 11
67.051827
 21
191.688452
  0
LINE
  5
2EB
100
AcDbEntity
  8
HACHURE
  6
ByLayer
 62
    7
370
   -1
100
AcDbLine
 10
64.875918
 20
191.474773
 11
68.21001800000001
 21
186.713185
  0
LINE
  5
2EC
100
AcDbEntity
  8
HACHURE
  6
ByLayer
 62
    7
370
   -1
100
AcDbLine
 10
69.38545999999999
 20
181.713279
 11
68.176114
 21
183.440404
  0
LINE
  5
2ED
100
AcDbEntity
  8
HACHURE
  6
ByLayer
 62
    7
370
   -1
100
AcDbLine
 10
67.90334799999999
 20
183.829955
 11
63.403163
 21
190.256885
  0
LINE
  5
2EE
100
AcDbEntity
  8
HACHURE
  6
ByLayer
 62
    7
370
   -1
100
AcDbLine
 10
63.403109
 20
186.935761
 11
63.558901
 21
186.713268
  0
LINE
  5
2EF
100
AcDbEntity
  8
HACHURE
  6
ByLayer
 62
    7
370
   -1
100
AcDbLine
 10
64.90325799999999
 20
184.793327
 11
67.05990199999999
 21
181.71332
  0
LINE
  5
2F0
100
AcDbEntity
  8
HACHURE
  6
ByLayer
 62
    7
370
   -1
100
AcDbLine
 10
64.734026
 20
181.713418
 11
63.980031
 21
182.790235
  0
LINE
  5
2F1
100
AcDbEntity
  8
HACHURE
  6
ByLayer
 62
    7
370
   -1
100
AcDbLine
 10
68.231955
 20
186.713187
 11
67.903171
 21
186.559873
  0
LINE
  5
2F2
100
AcDbEntity
  8
HACHURE
  6
ByLayer
 62
    7
370
   -1
100
AcDbLine
 10
67.903212
 20
185.158641
 11
70.920368
 21
186.565564
  0
LINE
  5
2F3
100
AcDbEntity
  8
HACHURE
  6
ByLayer
 62
    7
370
   -1
100
AcDbLine
 10
71.772786
 20
185.561662
 11
67.903306
 21
183.757294
  0
LINE
  5
2F4
100
AcDbEntity
  8
HACHURE
  6
ByLayer
 62
    7
370
   -1
100
AcDbLine
 10
68.82884799999999
 20
182.78763
 11
71.77282700000001
 21
184.16043
  0
LINE
  5
2F5
100
AcDbEntity
  8
HACHURE
  6
ByLayer
 62
    7
370
   -1
100
AcDbLine
 10
71.77275299999999
 20
182.759144
 11
69.784414
 21
181.831966
  0
LINE
  5
2F6
100
AcDbEntity
  8
HACHURE
  6
ByLayer
 62
    7
370
   -1
100
AcDbLine
 10
63.929001
 20
186.713216
 11
60.772787
 21
185.241449
  0
LINE
  5
2F7
100
AcDbEntity
  8
HACHURE
  6
ByLayer
 62
    7
370
   -1
100
AcDbLine
 10
60.772826
 20
183.840251
 11
64.903164
 21
185.766259
  0
LINE
  5
2F8
100
AcDbEntity
  8
HACHURE
  6
ByLayer
 62
    7
370
   -1
100
AcDbLine
 10
64.903138
 20
184.364883
 11
60.95985
 21
182.526098
  0
LINE
  5
2F9
100
AcDbEntity
  8
HACHURE
  6
ByLayer
 62
    7
370
   -1
100
AcDbLine
 10
62.221352
 20
181.713129
 11
63.498899
 21
182.308859
  0
LINE
  5
2FA
100
AcDbEntity
  8
FORT
  6
ByLayer
 62
  256
370
   -1
100
AcDbLine
 10
220
 20
40.75
 11
220
 21
140
  0
ENDSEC
  0
SECTION
  2
OBJECTS
  0
DICTIONARY
  5
C
330
0
100
AcDbDictionary
281
    1
  3
ACAD_GROUP
350
D
  0
DICTIONARY
  5
D
330
C
100
AcDbDictionary
281
    1
  0
ENDSEC
  0
EOF
