999
dxflib 2.2.0.0
  0
SECTION
  2
HEADER
  9
$ACADVER
  1
AC1015
  9
$HANDSEED
  5
FFFF
  9
$EXTMAX
 10
420.0
 20
297.0
 30
0.0
  9
$VIEWSIZE
 40
9.0
  9
$DIMALTD
 70
2
  9
$LIMCHECK
 70
0
  9
$SNAPISOPAIR
 70
0
  9
$DIMTXT
 40
5.0
  9
$DIMALTF
 40
25.3999999999999986
  9
$VIEWCTR
 10
6.0
 20
4.5
  9
$PDMODE
 70
0
  9
$CELTYPE
  6
CONTINUOUS
  9
$DIMSHO
 70
1
  9
$DIMTAD
 70
0
  9
$FASTZOOM
 70
1
  9
$AXISUNIT
 10
0.0
 20
0.0
 30
0.0
  9
$DIMTIH
 70
1
  9
$SNAPUNIT
 10
1.0
 20
1.0
 30
0.0
  9
$SKPOLY
 70
0
  9
$REGENMODE
 70
1
  9
$DIMDLE
 40
0.0
  9
$SNAPSTYLE
 70
0
  9
$TEXTSTYLE
  7
STANDARD
  9
$AXISMODE
 70
0
  9
$SKETCHINC
 40
0.1
  9
$SNAPANG
 50
0.0
  9
$VIEWDIR
 10
0.0
 20
0.0
 30
1.0
  9
$DIMDLI
 40
0.38
  9
$TDUSRTIMER
 40
0.0
  9
$ANGBASE
 50
0.0
  9
$DIMASO
 70
1
  9
$SPLFRAME
 70
0
  9
$SNAPMODE
 70
0
  9
$USRTIMER
 70
1
  9
$DIMASZ
 40
0.18
  9
$GRIDUNIT
 10
1.0
 20
1.0
  9
$INSBASE
 10
0.0
 20
0.0
 30
0.0
  9
$SPLINESEGS
 70
10
  9
$CHAMFERA
 40
1.5
  9
$CHAMFERB
 40
1.5
  9
$QTEXTMODE
 70
0
  9
$DRAGMODE
 70
2
  9
$ATTMODE
 70
1
  9
$USERI1
 70
0
  9
$BLIPMODE
 70
1
  9
$USERI2
 70
0
  9
$AUNITS
 70
0
  9
$USERI3
 70
0
  9
$USERI4
 70
0
  9
$USERI5
 70
0
  9
$DIMALT
 70
0
  9
$DIMSTYLE
  2
Standard
  9
$DIMCEN
 40
0.09
  9
$MENU
  1
acad
  9
$TDUPDATE
 40
0.0
  9
$COORDS
 70
2
  9
$DIMTSZ
 40
0.0
  9
$PLIMMAX
 10
420.0
 20
297.0
  9
$DIMADEC
 70
0
  9
$ATTREQ
 70
1
  9
$TRACEWID
 40
0.05
  9
$DIMSE1
 70
0
  9
$PINSBASE
 10
3.7901372768514729
 20
2.6801685029164073
 30
0.0
  9
$DIMSE2
 70
0
  9
$USERR1
 40
0.0
  9
$ATTDIA
 70
0
  9
$USERR2
 40
0.0
  9
$ANGDIR
 70
0
  9
$USERR3
 40
0.0
  9
$USERR4
 40
0.0
  9
$GRIDMODE
 70
0
  9
$USERR5
 40
0.0
  9
$DIMLIM
 70
0
  9
$DIMAUNIT
 70
0
  9
$PLINEWID
 40
0.0
  9
$DIMLUNIT
 70
2
  9
$FILLETRAD
 40
1.0
  9
$AUPREC
 70
0
  9
$CECOLOR
 62
5
  9
$TDCREATE
 40
0.0
  9
$SNAPBASE
 10
0.0
 20
0.0
 30
0.0
  9
$DIMEXE
 40
0.18
  9
$LIMMIN
 10
-13.751322
 20
-4.592784
  9
$THICKNESS
 40
0.0
  9
$PDSIZE
 40
0.0
  9
$CLAYER
  8
HACHURE
  9
$ELEVATION
 40
0.0
  9
$DIMEXO
 40
0.0625
  9
$ORTHOMODE
 70
1
  9
$INSUNITS
 70
4
  9
$LIMMAX
 10
476.5491240000000062
 20
301.5927839999999946
  9
$DIMTM
 40
0.0
  9
$DIMRND
 40
0.0
  9
$LUNITS
 70
2
  9
$DIMTP
 40
0.0
  9
$TEXTSIZE
 40
0.2
  9
$DIMGAP
 40
0.625
  9
$OSMODE
 70
0
  9
$DIMLFAC
 40
1.0
  9
$LTSCALE
 40
0.3
  9
$FILLMODE
 70
1
  9
$DIMTOH
 70
1
  9
$DIMSCALE
 40
1.0
  9
$PLIMMIN
 10
0.0
 20
0.0
  9
$DIMTOL
 70
0
  9
$EXTMIN
 10
0.0
 20
0.0
 30
0.0
  9
$DIMZIN
 70
0
  9
$TDINDWG
 40
0.0
  9
$LUPREC
 70
4
  9
$PSVPSCALE
 40
0.9819517272530882
  0
ENDSEC
  0
SECTION
  2
TABLES
  0
TABLE
  2
VPORT
  5
8
100
AcDbSymbolTable
 70
1
  0
VPORT
  5
30
100
AcDbSymbolTableRecord
100
AcDbViewportTableRecord
  2
*Active
 70
0
 10
0.0
 20
0.0
 11
1.0
 21
1.0
 12
286.3055555555554861
 22
148.5
 13
0.0
 23
0.0
 14
10.0
 24
10.0
 15
10.0
 25
10.0
 16
0.0
 26
0.0
 36
1.0
 17
0.0
 27
0.0
 37
0.0
 40
297.0
 41
1.92798353909465
 42
50.0
 43
0.0
 44
0.0
 50
0.0
 51
0.0
 71
0
 72
100
 73
1
 74
3
 75
1
 76
1
 77
0
 78
0
281
0
 65
1
110
0.0
120
0.0
130
0.0
111
1.0
121
0.0
131
0.0
112
0.0
122
1.0
132
0.0
 79
0
146
0.0
  0
ENDTAB
  0
TABLE
  2
LTYPE
  5
5
100
AcDbSymbolTable
 70
21
  0
LTYPE
  5
14
100
AcDbSymbolTableRecord
100
AcDbLinetypeTableRecord
  2
ByBlock
 70
0
  3

 72
65
 73
0
 40
0.0
  0
LTYPE
  5
15
100
AcDbSymbolTableRecord
100
AcDbLinetypeTableRecord
  2
ByLayer
 70
0
  3

 72
65
 73
0
 40
0.0
  0
LTYPE
  5
16
100
AcDbSymbolTableRecord
100
AcDbLinetypeTableRecord
  2
CONTINUOUS
 70
0
  3
Solid line
 72
65
 73
0
 40
0.0
  0
LTYPE
  5
31
100
AcDbSymbolTableRecord
100
AcDbLinetypeTableRecord
  2
DOT
 70
0
  3
Dot . . . . . . . . . . . . . . . . . . . . . .
 72
65
 73
2
 40
6.3499999999999996
 49
0.0
 74
0
 49
-6.3499999999999996
 74
0
  0
LTYPE
  5
32
100
AcDbSymbolTableRecord
100
AcDbLinetypeTableRecord
  2
DOT2
 70
0
  3
Dot (.5x) .....................................
 72
65
 73
2
 40
3.1749999999999998
 49
0.0
 74
0
 49
-3.1749999999999998
 74
0
  0
LTYPE
  5
33
100
AcDbSymbolTableRecord
100
AcDbLinetypeTableRecord
  2
DOTX2
 70
0
  3
Dot (2x) .  .  .  .  .  .  .  .  .  .  .  .  .
 72
65
 73
2
 40
12.6999999999999993
 49
0.0
 74
0
 49
-12.6999999999999993
 74
0
  0
LTYPE
  5
34
100
AcDbSymbolTableRecord
100
AcDbLinetypeTableRecord
  2
DASHED
 70
0
  3
Dashed __ __ __ __ __ __ __ __ __ __ __ __ __ _
 72
65
 73
2
 40
19.0500000000000007
 49
12.6999999999999993
 74
0
 49
-6.3499999999999996
 74
0
  0
LTYPE
  5
35
100
AcDbSymbolTableRecord
100
AcDbLinetypeTableRecord
  2
DASHED2
 70
0
  3
Dashed (.5x) _ _ _ _ _ _ _ _ _ _ _ _ _ _ _ _ _
 72
65
 73
2
 40
9.5250000000000004
 49
6.3499999999999996
 74
0
 49
-3.1749999999999998
 74
0
  0
LTYPE
  5
36
100
AcDbSymbolTableRecord
100
AcDbLinetypeTableRecord
  2
DASHEDX2
 70
0
  3
Dashed (2x) ____  ____  ____  ____  ____  ___
 72
65
 73
2
 40
38.1000000000000014
 49
25.3999999999999986
 74
0
 49
-12.6999999999999993
 74
0
  0
LTYPE
  5
37
100
AcDbSymbolTableRecord
100
AcDbLinetypeTableRecord
  2
DASHDOT
 70
0
  3
Dash dot __ . __ . __ . __ . __ . __ . __ . __
 72
65
 73
4
 40
25.3999999999999986
 49
12.6999999999999993
 74
0
 49
-6.3499999999999996
 74
0
 49
0.0
 74
0
 49
-6.3499999999999996
 74
0
  0
LTYPE
  5
38
100
AcDbSymbolTableRecord
100
AcDbLinetypeTableRecord
  2
DASHDOT2
 70
0
  3
Dash dot (.5x) _._._._._._._._._._._._._._._.
 72
65
 73
4
 40
12.6999999999999993
 49
6.3499999999999996
 74
0
 49
-3.1749999999999998
 74
0
 49
0.0
 74
0
 49
-3.1749999999999998
 74
0
  0
LTYPE
  5
39
100
AcDbSymbolTableRecord
100
AcDbLinetypeTableRecord
  2
DASHDOTX2
 70
0
  3
Dash dot (2x) ____  .  ____  .  ____  .  ___
 72
65
 73
4
 40
50.7999999999999972
 49
25.3999999999999986
 74
0
 49
-12.6999999999999993
 74
0
 49
0.0
 74
0
 49
-12.6999999999999993
 74
0
  0
LTYPE
  5
3A
100
AcDbSymbolTableRecord
100
AcDbLinetypeTableRecord
  2
DIVIDE
 70
0
  3
Divide ____ . . ____ . . ____ . . ____ . . ____
 72
65
 73
6
 40
31.75
 49
12.6999999999999993
 74
0
 49
-6.3499999999999996
 74
0
 49
0.0
 74
0
 49
-6.3499999999999996
 74
0
 49
0.0
 74
0
 49
-6.3499999999999996
 74
0
  0
LTYPE
  5
3B
100
AcDbSymbolTableRecord
100
AcDbLinetypeTableRecord
  2
DIVIDE2
 70
0
  3
Divide (.5x) __..__..__..__..__..__..__..__.._
 72
65
 73
6
 40
15.875
 49
6.3499999999999996
 74
0
 49
-3.1749999999999998
 74
0
 49
0.0
 74
0
 49
-3.1749999999999998
 74
0
 49
0.0
 74
0
 49
-3.1749999999999998
 74
0
  0
LTYPE
  5
3C
100
AcDbSymbolTableRecord
100
AcDbLinetypeTableRecord
  2
DIVIDEX2
 70
0
  3
Divide (2x) ________  .  .  ________  .  .  _
 72
65
 73
6
 40
63.5
 49
25.3999999999999986
 74
0
 49
-12.6999999999999993
 74
0
 49
0.0
 74
0
 49
-12.6999999999999993
 74
0
 49
0.0
 74
0
 49
-12.6999999999999993
 74
0
  0
LTYPE
  5
3D
100
AcDbSymbolTableRecord
100
AcDbLinetypeTableRecord
  2
CENTER
 70
0
  3
Center ____ _ ____ _ ____ _ ____ _ ____ _ ____
 72
65
 73
4
 40
50.7999999999999972
 49
31.75
 74
0
 49
-6.3499999999999996
 74
0
 49
6.3499999999999996
 74
0
 49
-6.3499999999999996
 74
0
  0
LTYPE
  5
3E
100
AcDbSymbolTableRecord
100
AcDbLinetypeTableRecord
  2
CENTER2
 70
0
  3
Center (.5x) ___ _ ___ _ ___ _ ___ _ ___ _ ___
 72
65
 73
4
 40
28.5749999999999993
 49
19.0500000000000007
 74
0
 49
-3.1749999999999998
 74
0
 49
3.1749999999999998
 74
0
 49
-3.1749999999999998
 74
0
  0
LTYPE
  5
3F
100
AcDbSymbolTableRecord
100
AcDbLinetypeTableRecord
  2
CENTERX2
 70
0
  3
Center (2x) ________  __  ________  __  _____
 72
65
 73
4
 40
101.5999999999999943
 49
63.5
 74
0
 49
-12.6999999999999993
 74
0
 49
12.6999999999999993
 74
0
 49
-12.6999999999999993
 74
0
  0
LTYPE
  5
40
100
AcDbSymbolTableRecord
100
AcDbLinetypeTableRecord
  2
BORDER
 70
0
  3
Border __ __ . __ __ . __ __ . __ __ . __ __ .
 72
65
 73
6
 40
44.4500000000000028
 49
12.6999999999999993
 74
0
 49
-6.3499999999999996
 74
0
 49
12.6999999999999993
 74
0
 49
-6.3499999999999996
 74
0
 49
0.0
 74
0
 49
-6.3499999999999996
 74
0
  0
LTYPE
  5
41
100
AcDbSymbolTableRecord
100
AcDbLinetypeTableRecord
  2
BORDER2
 70
0
  3
Border (.5x) __.__.__.__.__.__.__.__.__.__.__.
 72
65
 73
6
 40
22.2250000000000014
 49
6.3499999999999996
 74
0
 49
-3.1749999999999998
 74
0
 49
6.3499999999999996
 74
0
 49
-3.1749999999999998
 74
0
 49
0.0
 74
0
 49
-3.1749999999999998
 74
0
  0
LTYPE
  5
42
100
AcDbSymbolTableRecord
100
AcDbLinetypeTableRecord
  2
BORDERX2
 70
0
  3
Border (2x) ____  ____  .  ____  ____  .  ___
 72
65
 73
6
 40
88.9000000000000057
 49
25.3999999999999986
 74
0
 49
-12.6999999999999993
 74
0
 49
25.3999999999999986
 74
0
 49
-12.6999999999999993
 74
0
 49
0.0
 74
0
 49
-12.6999999999999993
 74
0
  0
ENDTAB
  0
TABLE
  2
LAYER
  5
2
100
AcDbSymbolTable
 70
8
  0
LAYER
  5
10
100
AcDbSymbolTableRecord
100
AcDbLayerTableRecord
  2
0
 70
0
 62
7
  6
CONTINUOUS
290
1
390
F
  0
LAYER
  5
43
100
AcDbSymbolTableRecord
100
AcDbLayerTableRecord
  2
FORT
 70
0
 62
7
  6
CONTINUOUS
290
1
370
50
390
F
  0
LAYER
  5
44
100
AcDbSymbolTableRecord
100
AcDbLayerTableRecord
  2
FIN
 70
0
 62
5
  6
CONTINUOUS
290
1
370
20
390
F
  0
LAYER
  5
45
100
AcDbSymbolTableRecord
100
AcDbLayerTableRecord
  2
HACHURE
 70
0
 62
5
  6
CONTINUOUS
290
1
370
20
390
F
  0
LAYER
  5
46
100
AcDbSymbolTableRecord
100
AcDbLayerTableRecord
  2
TEXTE
 70
0
 62
7
  6
CONTINUOUS
290
1
370
50
390
F
  0
LAYER
  5
47
100
AcDbSymbolTableRecord
100
AcDbLayerTableRecord
  2
RENFORCE
 70
0
 62
7
  6
CONTINUOUS
290
1
370
70
390
F
  0
LAYER
  5
48
100
AcDbSymbolTableRecord
100
AcDbLayerTableRecord
  2
AXE
 70
0
 62
3
  6
CENTER
290
1
370
20
390
F
  0
LAYER
  5
49
100
AcDbSymbolTableRecord
100
AcDbLayerTableRecord
  2
INTERROMPU
 70
0
 62
5
  6
DASHED2
290
1
370
25
390
F
  0
ENDTAB
  0
TABLE
  2
STYLE
  5
3
100
AcDbSymbolTable
 70
1
  0
STYLE
  5
11
100
AcDbSymbolTableRecord
100
AcDbTextStyleTableRecord
  2
Standard
 70
0
 40
0.0
 41
0.75
 50
0.0
 71
0
 42
2.5
  3
txt
  4

  0
ENDTAB
  0
TABLE
  2
VIEW
  5
6
100
AcDbSymbolTable
 70
0
  0
ENDTAB
  0
TABLE
  2
UCS
  5
7
100
AcDbSymbolTable
 70
0
  0
ENDTAB
  0
TABLE
  2
APPID
  5
9
100
AcDbSymbolTable
 70
1
  0
APPID
  5
12
100
AcDbSymbolTableRecord
100
AcDbRegAppTableRecord
  2
ACAD
 70
0
  0
ENDTAB
  0
TABLE
  2
DIMSTYLE
  5
A
100
AcDbSymbolTable
 70
1
100
AcDbDimStyleTable
 71
0
  0
DIMSTYLE
105
27
100
AcDbSymbolTableRecord
100
AcDbDimStyleTableRecord
  2
Standard
 41
0.18
 42
0.0625
 43
3.75
 44
0.18
 70
0
 73
0
 74
0
 77
1
 78
8
140
5.0
141
2.5
143
0.03937007874016
147
0.625
171
3
172
1
271
2
272
2
274
3
278
44
283
0
284
8
340
11
  0
ENDTAB
  0
TABLE
  2
BLOCK_RECORD
  5
1
100
AcDbSymbolTable
 70
1
  0
BLOCK_RECORD
  5
1F
100
AcDbSymbolTableRecord
100
AcDbBlockTableRecord
  2
*Model_Space
340
22
  0
BLOCK_RECORD
  5
1B
100
AcDbSymbolTableRecord
100
AcDbBlockTableRecord
  2
*Paper_Space
340
1E
  0
BLOCK_RECORD
  5
23
100
AcDbSymbolTableRecord
100
AcDbBlockTableRecord
  2
*Paper_Space0
340
26
  0
BLOCK_RECORD
  5
4A
100
AcDbSymbolTableRecord
100
AcDbBlockTableRecord
  2
DESENS-G1
340
0
  0
BLOCK_RECORD
  5
4B
100
AcDbSymbolTableRecord
100
AcDbBlockTableRecord
  2
DESENS-G2
340
0
  0
BLOCK_RECORD
  5
4C
100
AcDbSymbolTableRecord
100
AcDbBlockTableRecord
  2
DESENS-G3
340
0
  0
BLOCK_RECORD
  5
4D
100
AcDbSymbolTableRecord
100
AcDbBlockTableRecord
  2
DESENS-G4
340
0
  0
BLOCK_RECORD
  5
4E
100
AcDbSymbolTableRecord
100
AcDbBlockTableRecord
  2
DESENS-G5
340
0
  0
BLOCK_RECORD
  5
4F
100
AcDbSymbolTableRecord
100
AcDbBlockTableRecord
  2
DESENS-G6
340
0
  0
BLOCK_RECORD
  5
50
100
AcDbSymbolTableRecord
100
AcDbBlockTableRecord
  2
DESENS-G7
340
0
  0
BLOCK_RECORD
  5
51
100
AcDbSymbolTableRecord
100
AcDbBlockTableRecord
  2
DESENS-G8
340
0
  0
BLOCK_RECORD
  5
52
100
AcDbSymbolTableRecord
100
AcDbBlockTableRecord
  2
DESENS-G9
340
0
  0
BLOCK_RECORD
  5
53
100
AcDbSymbolTableRecord
100
AcDbBlockTableRecord
  2
DESENS-G10
340
0
  0
BLOCK_RECORD
  5
54
100
AcDbSymbolTableRecord
100
AcDbBlockTableRecord
  2
DESENS-G11
340
0
  0
BLOCK_RECORD
  5
55
100
AcDbSymbolTableRecord
100
AcDbBlockTableRecord
  2
DESENS-G12
340
0
  0
BLOCK_RECORD
  5
56
100
AcDbSymbolTableRecord
100
AcDbBlockTableRecord
  2
DESENS-G13
340
0
  0
BLOCK_RECORD
  5
57
100
AcDbSymbolTableRecord
100
AcDbBlockTableRecord
  2
DESENS-G14
340
0
  0
BLOCK_RECORD
  5
58
100
AcDbSymbolTableRecord
100
AcDbBlockTableRecord
  2
DESENS-G15
340
0
  0
BLOCK_RECORD
  5
59
100
AcDbSymbolTableRecord
100
AcDbBlockTableRecord
  2
DESENS-G16
340
0
  0
BLOCK_RECORD
  5
5A
100
AcDbSymbolTableRecord
100
AcDbBlockTableRecord
  2
DESENS-G17
340
0
  0
BLOCK_RECORD
  5
5B
100
AcDbSymbolTableRecord
100
AcDbBlockTableRecord
  2
DESENS-G18
340
0
  0
BLOCK_RECORD
  5
5C
100
AcDbSymbolTableRecord
100
AcDbBlockTableRecord
  2
DESENS-G19
340
0
  0
BLOCK_RECORD
  5
5D
100
AcDbSymbolTableRecord
100
AcDbBlockTableRecord
  2
DESENS-G20
340
0
  0
BLOCK_RECORD
  5
5E
100
AcDbSymbolTableRecord
100
AcDbBlockTableRecord
  2
DESENS-G21
340
0
  0
BLOCK_RECORD
  5
5F
100
AcDbSymbolTableRecord
100
AcDbBlockTableRecord
  2
DESENS-G22
340
0
  0
BLOCK_RECORD
  5
60
100
AcDbSymbolTableRecord
100
AcDbBlockTableRecord
  2
DESENS-G23
340
0
  0
BLOCK_RECORD
  5
61
100
AcDbSymbolTableRecord
100
AcDbBlockTableRecord
  2
DESENS-G24
340
0
  0
BLOCK_RECORD
  5
62
100
AcDbSymbolTableRecord
100
AcDbBlockTableRecord
  2
DESENS-G25
340
0
  0
BLOCK_RECORD
  5
63
100
AcDbSymbolTableRecord
100
AcDbBlockTableRecord
  2
DESENS-G26
340
0
  0
BLOCK_RECORD
  5
64
100
AcDbSymbolTableRecord
100
AcDbBlockTableRecord
  2
DESENS-G27
340
0
  0
BLOCK_RECORD
  5
65
100
AcDbSymbolTableRecord
100
AcDbBlockTableRecord
  2
DESENS-G28
340
0
  0
BLOCK_RECORD
  5
66
100
AcDbSymbolTableRecord
100
AcDbBlockTableRecord
  2
DESENS-G29
340
0
  0
BLOCK_RECORD
  5
67
100
AcDbSymbolTableRecord
100
AcDbBlockTableRecord
  2
DESENS-G30
340
0
  0
BLOCK_RECORD
  5
68
100
AcDbSymbolTableRecord
100
AcDbBlockTableRecord
  2
DESENS-G31
340
0
  0
BLOCK_RECORD
  5
69
100
AcDbSymbolTableRecord
100
AcDbBlockTableRecord
  2
DESENS-G32
340
0
  0
BLOCK_RECORD
  5
6A
100
AcDbSymbolTableRecord
100
AcDbBlockTableRecord
  2
DESENS-G33
340
0
  0
BLOCK_RECORD
  5
6B
100
AcDbSymbolTableRecord
100
AcDbBlockTableRecord
  2
DESENS-G34
340
0
  0
BLOCK_RECORD
  5
6C
100
AcDbSymbolTableRecord
100
AcDbBlockTableRecord
  2
DESENS-G35
340
0
  0
BLOCK_RECORD
  5
6D
100
AcDbSymbolTableRecord
100
AcDbBlockTableRecord
  2
DESENS-G36
340
0
  0
BLOCK_RECORD
  5
6E
100
AcDbSymbolTableRecord
100
AcDbBlockTableRecord
  2
DESENS-G37
340
0
  0
BLOCK_RECORD
  5
6F
100
AcDbSymbolTableRecord
100
AcDbBlockTableRecord
  2
DESENS-G38
340
0
  0
BLOCK_RECORD
  5
70
100
AcDbSymbolTableRecord
100
AcDbBlockTableRecord
  2
DESENS-G39
340
0
  0
BLOCK_RECORD
  5
71
100
AcDbSymbolTableRecord
100
AcDbBlockTableRecord
  2
DESENS-G40
340
0
  0
BLOCK_RECORD
  5
72
100
AcDbSymbolTableRecord
100
AcDbBlockTableRecord
  2
DESENS-G41
340
0
  0
BLOCK_RECORD
  5
73
100
AcDbSymbolTableRecord
100
AcDbBlockTableRecord
  2
DESENS-G42
340
0
  0
BLOCK_RECORD
  5
74
100
AcDbSymbolTableRecord
100
AcDbBlockTableRecord
  2
DESENS-G43
340
0
  0
ENDTAB
  0
ENDSEC
  0
SECTION
  2
BLOCKS
  0
BLOCK
  5
20
100
AcDbEntity
  8
0
100
AcDbBlockBegin
  2
*Model_Space
 70
0
 10
0.0
 20
0.0
 30
0.0
  3
*Model_Space
  1

  0
ENDBLK
  5
21
100
AcDbEntity
  8
0
100
AcDbBlockEnd
  0
BLOCK
  5
1C
100
AcDbEntity
 67
1
  8
0
100
AcDbBlockBegin
  2
*Paper_Space
 70
0
 10
0.0
 20
0.0
 30
0.0
  3
*Paper_Space
  1

  0
ENDBLK
  5
1D
100
AcDbEntity
 67
1
  8
0
100
AcDbBlockEnd
  0
BLOCK
  5
24
100
AcDbEntity
  8
0
100
AcDbBlockBegin
  2
*Paper_Space0
 70
0
 10
0.0
 20
0.0
 30
0.0
  3
*Paper_Space0
  1

  0
ENDBLK
  5
25
100
AcDbEntity
  8
0
100
AcDbBlockEnd
  0
BLOCK
  5
75
100
AcDbEntity
  8
0
100
AcDbBlockBegin
  2
DESENS-G1
 70
0
 10
0.0
 20
0.0
 30
0.0
  3
DESENS-G1
  1

  0
LINE
  5
76
100
AcDbEntity
100
AcDbLine
  8
HACHURE
 62
5
370
-1
  6
CONTINUOUS
 10
235.5335599999999943
 20
201.8751520000000141
 30
0.0
 11
227.5878859999999975
 21
196.3115319999999997
 31
0.0
  0
LINE
  5
77
100
AcDbEntity
100
AcDbLine
  8
HACHURE
 62
5
370
-1
  6
CONTINUOUS
 10
232.0062800000000038
 20
190.1029320000000098
 30
0.0
 11
240.2026830000000075
 21
195.8421160000000043
 31
0.0
  0
LINE
  5
78
100
AcDbEntity
100
AcDbLine
  8
HACHURE
 62
5
370
-1
  6
CONTINUOUS
 10
244.7880269999999996
 20
189.7504160000000013
 30
0.0
 11
236.5916239999999959
 21
184.0112320000000068
 31
0.0
  0
LINE
  5
79
100
AcDbEntity
100
AcDbLine
  8
HACHURE
 62
5
370
-1
  6
CONTINUOUS
 10
241.1775790000000086
 20
177.9199600000000032
 30
0.0
 11
246.9302879999999902
 21
181.9480509999999924
 31
0.0
  0
LINE
  5
7A
100
AcDbEntity
100
AcDbLine
  8
HACHURE
 62
5
370
-1
  6
CONTINUOUS
 10
247.0599330000000009
 20
182.0388299999999902
 30
0.0
 11
249.3733699999999942
 21
183.6587150000000008
 31
0.0
  0
LINE
  5
7B
100
AcDbEntity
100
AcDbLine
  8
HACHURE
 62
5
370
-1
  6
CONTINUOUS
 10
237.1450340000000097
 20
199.9030250000000137
 30
0.0
 11
228.9486300000000085
 21
194.1638419999999883
 31
0.0
  0
LINE
  5
7C
100
AcDbEntity
100
AcDbLine
  8
HACHURE
 62
5
370
-1
  6
CONTINUOUS
 10
233.5345849999999928
 20
188.0725700000000131
 30
0.0
 11
241.7309879999999964
 21
193.8117530000000102
 31
0.0
  0
LINE
  5
7D
100
AcDbEntity
100
AcDbLine
  8
HACHURE
 62
5
370
-1
  6
CONTINUOUS
 10
246.3163319999999885
 20
187.7200530000000072
 30
0.0
 11
238.1199290000000133
 21
181.9808690000000126
 31
0.0
  0
LINE
  5
7E
100
AcDbEntity
100
AcDbLine
  8
HACHURE
 62
5
370
-1
  6
CONTINUOUS
 10
243.8665770000000066
 20
176.7023240000000044
 30
0.0
 11
245.8491730000000075
 21
178.0905529999999999
 31
0.0
  0
ENDBLK
  5
7F
100
AcDbEntity
  8
0
100
AcDbBlockEnd
  0
BLOCK
  5
80
100
AcDbEntity
  8
0
100
AcDbBlockBegin
  2
DESENS-G2
 70
0
 10
0.0
 20
0.0
 30
0.0
  3
DESENS-G2
  1

  0
LINE
  5
81
100
AcDbEntity
100
AcDbLine
  8
HACHURE
 62
5
370
-1
  6
CONTINUOUS
 10
282.6172520000000077
 20
238.8681479999999908
 30
0.0
 11
273.0178070000000048
 21
232.1465450000000033
 31
0.0
  0
LINE
  5
82
100
AcDbEntity
100
AcDbLine
  8
HACHURE
 62
5
370
-1
  6
CONTINUOUS
 10
187.162856000000005
 20
172.0302609999999959
 30
0.0
 11
183.0476119999999867
 21
169.1487360000000137
 31
0.0
  0
LINE
  5
83
100
AcDbEntity
100
AcDbLine
  8
HACHURE
 62
5
370
-1
  6
CONTINUOUS
 10
183.0518659999999898
 20
159.8493489999999895
 30
0.0
 11
193.0448330000000112
 21
166.8464999999999918
 31
0.0
  0
LINE
  5
84
100
AcDbEntity
100
AcDbLine
  8
HACHURE
 62
5
370
-1
  6
CONTINUOUS
 10
271.0460749999999734
 20
221.4635570000000087
 30
0.0
 11
296.248279000000025
 21
239.1103300000000047
 31
0.0
  0
LINE
  5
85
100
AcDbEntity
100
AcDbLine
  8
HACHURE
 62
5
370
-1
  6
CONTINUOUS
 10
302.5948809999999867
 20
243.554269000000005
 30
0.0
 11
309.0545149999999808
 21
248.077352999999988
 31
0.0
  0
LINE
  5
86
100
AcDbEntity
100
AcDbLine
  8
HACHURE
 62
5
370
-1
  6
CONTINUOUS
 10
322.3841209999999933
 20
248.108477999999991
 30
0.0
 11
313.8187209999999823
 21
242.110919999999993
 31
0.0
  0
LINE
  5
87
100
AcDbEntity
100
AcDbLine
  8
HACHURE
 62
5
370
-1
  6
CONTINUOUS
 10
309.0755149999999958
 20
238.7896910000000048
 30
0.0
 11
295.2519800000000032
 21
229.1103479999999877
 31
0.0
  0
LINE
  5
88
100
AcDbEntity
100
AcDbLine
  8
HACHURE
 62
5
370
-1
  6
CONTINUOUS
 10
281.0474820000000022
 20
219.1642520000000047
 30
0.0
 11
271.0461419999999748
 21
212.1612379999999973
 31
0.0
  0
LINE
  5
89
100
AcDbEntity
100
AcDbLine
  8
HACHURE
 62
5
370
-1
  6
CONTINUOUS
 10
195.3725459999999998
 20
159.1740159999999946
 30
0.0
 11
178.7483009999999979
 21
147.5335939999999937
 31
0.0
  0
LINE
  5
8A
100
AcDbEntity
100
AcDbLine
  8
HACHURE
 62
5
370
-1
  6
CONTINUOUS
 10
192.0276700000000005
 20
147.5295419999999922
 30
0.0
 11
208.4467809999999872
 21
159.0263270000000091
 31
0.0
  0
LINE
  5
8B
100
AcDbEntity
100
AcDbLine
  8
HACHURE
 62
5
370
-1
  6
CONTINUOUS
 10
271.0462099999999737
 20
202.858918999999986
 30
0.0
 11
281.0475500000000011
 21
209.8619329999999934
 31
0.0
  0
LINE
  5
8C
100
AcDbEntity
100
AcDbLine
  8
HACHURE
 62
5
370
-1
  6
CONTINUOUS
 10
308.5355349999999817
 20
229.1092280000000017
 30
0.0
 11
319.9602560000000153
 21
237.108902999999998
 31
0.0
  0
LINE
  5
8D
100
AcDbEntity
100
AcDbLine
  8
HACHURE
 62
5
370
-1
  6
CONTINUOUS
 10
327.8181519999999978
 20
242.6110610000000065
 30
0.0
 11
335.0480870000000095
 21
247.6735160000000064
 31
0.0
  0
LINE
  5
8E
100
AcDbEntity
100
AcDbLine
  8
HACHURE
 62
5
370
-1
  6
CONTINUOUS
 10
332.5363070000000221
 20
236.6123829999999941
 30
0.0
 11
321.819090000000017
 21
229.1081069999999897
 31
0.0
  0
LINE
  5
8F
100
AcDbEntity
100
AcDbLine
  8
HACHURE
 62
5
370
-1
  6
CONTINUOUS
 10
281.0476170000000025
 20
200.5596140000000105
 30
0.0
 11
271.046276999999975
 21
193.5566000000000031
 31
0.0
  0
LINE
  5
90
100
AcDbEntity
100
AcDbLine
  8
HACHURE
 62
5
370
-1
  6
CONTINUOUS
 10
221.7345219999999983
 20
159.0281380000000127
 30
0.0
 11
207.4504819999999938
 21
149.0263449999999921
 31
0.0
  0
LINE
  5
91
100
AcDbEntity
100
AcDbLine
  8
HACHURE
 62
5
370
-1
  6
CONTINUOUS
 10
220.7340370000000007
 20
149.0252240000000086
 30
0.0
 11
235.0180770000000052
 21
159.0270170000000007
 31
0.0
  0
LINE
  5
92
100
AcDbEntity
100
AcDbLine
  8
HACHURE
 62
5
370
-1
  6
CONTINUOUS
 10
271.0463449999999739
 20
184.2542819999999892
 30
0.0
 11
281.0476850000000013
 21
191.2572949999999992
 31
0.0
  0
LINE
  5
93
100
AcDbEntity
100
AcDbLine
  8
HACHURE
 62
5
370
-1
  6
CONTINUOUS
 10
281.0519390000000044
 20
181.9579080000000033
 30
0.0
 11
271.050598999999977
 21
174.9548939999999959
 31
0.0
  0
LINE
  5
94
100
AcDbEntity
100
AcDbLine
  8
HACHURE
 62
5
370
-1
  6
CONTINUOUS
 10
248.3058179999999879
 20
159.0288280000000043
 30
0.0
 11
234.0217780000000118
 21
149.0270350000000121
 31
0.0
  0
LINE
  5
95
100
AcDbEntity
100
AcDbLine
  8
HACHURE
 62
5
370
-1
  6
CONTINUOUS
 10
247.3053329999999903
 20
149.0259140000000002
 30
0.0
 11
264.0174930000000018
 21
160.727893999999992
 31
0.0
  0
LINE
  5
96
100
AcDbEntity
100
AcDbLine
  8
HACHURE
 62
5
370
-1
  6
CONTINUOUS
 10
264.0928480000000036
 20
160.7806590000000142
 30
0.0
 11
281.0520060000000058
 21
172.655588999999992
 31
0.0
  0
LINE
  5
97
100
AcDbEntity
100
AcDbLine
  8
HACHURE
 62
5
370
-1
  6
CONTINUOUS
 10
284.0495450000000233
 20
165.4521220000000028
 30
0.0
 11
278.0922800000000166
 21
161.2807999999999993
 31
0.0
  0
LINE
  5
98
100
AcDbEntity
100
AcDbLine
  8
HACHURE
 62
5
370
-1
  6
CONTINUOUS
 10
271.6619499999999903
 20
156.7782349999999951
 30
0.0
 11
260.5888879999999972
 21
149.0247940000000142
 31
0.0
  0
LINE
  5
99
100
AcDbEntity
100
AcDbLine
  8
HACHURE
 62
5
370
-1
  6
CONTINUOUS
 10
276.7359500000000025
 20
151.0287219999999877
 30
0.0
 11
284.0496130000000221
 21
156.1498029999999915
 31
0.0
  0
LINE
  5
9A
100
AcDbEntity
100
AcDbLine
  8
HACHURE
 62
5
370
-1
  6
CONTINUOUS
 10
287.3897850000000176
 20
239.109123000000011
 30
0.0
 11
271.3600099999999884
 21
227.8849539999999934
 31
0.0
  0
LINE
  5
9B
100
AcDbEntity
100
AcDbLine
  8
HACHURE
 62
5
370
-1
  6
CONTINUOUS
 10
191.144157000000007
 20
171.7172089999999969
 30
0.0
 11
183.0476350000000139
 21
166.04796300000001
 31
0.0
  0
LINE
  5
9C
100
AcDbEntity
100
AcDbLine
  8
HACHURE
 62
5
370
-1
  6
CONTINUOUS
 10
183.0518889999999885
 20
156.7485760000000141
 30
0.0
 11
193.0490419999999858
 21
163.748658000000006
 31
0.0
  0
LINE
  5
9D
100
AcDbEntity
100
AcDbLine
  8
HACHURE
 62
5
370
-1
  6
CONTINUOUS
 10
271.0460969999999747
 20
218.3627840000000049
 30
0.0
 11
281.0683690000000183
 21
225.3804539999999861
 31
0.0
  0
LINE
  5
9E
100
AcDbEntity
100
AcDbLine
  8
HACHURE
 62
5
370
-1
  6
CONTINUOUS
 10
286.3934859999999958
 20
229.1091409999999939
 30
0.0
 11
313.5298129999999901
 21
248.1102019999999868
 31
0.0
  0
LINE
  5
9F
100
AcDbEntity
100
AcDbLine
  8
HACHURE
 62
5
370
-1
  6
CONTINUOUS
 10
326.8133680000000254
 20
248.1090810000000033
 30
0.0
 11
318.2479680000000144
 21
242.1115230000000054
 31
0.0
  0
LINE
  5
A0
100
AcDbEntity
100
AcDbLine
  8
HACHURE
 62
5
370
-1
  6
CONTINUOUS
 10
311.1059480000000121
 20
237.1106269999999938
 30
0.0
 11
299.6812269999999785
 21
229.1109519999999975
 31
0.0
  0
LINE
  5
A1
100
AcDbEntity
100
AcDbLine
  8
HACHURE
 62
5
370
-1
  6
CONTINUOUS
 10
281.047505000000001
 20
216.063479000000001
 30
0.0
 11
271.0461649999999736
 21
209.0604649999999936
 31
0.0
  0
LINE
  5
A2
100
AcDbEntity
100
AcDbLine
  8
HACHURE
 62
5
370
-1
  6
CONTINUOUS
 10
199.5924730000000125
 20
159.0280510000000049
 30
0.0
 11
183.1733619999999974
 21
147.531265999999988
 31
0.0
  0
LINE
  5
A3
100
AcDbEntity
100
AcDbLine
  8
HACHURE
 62
5
370
-1
  6
CONTINUOUS
 10
196.4569170000000042
 20
147.530146000000002
 30
0.0
 11
212.8760279999999909
 21
159.0269309999999905
 31
0.0
  0
LINE
  5
A4
100
AcDbEntity
100
AcDbLine
  8
HACHURE
 62
5
370
-1
  6
CONTINUOUS
 10
271.046231999999975
 20
199.7581460000000106
 30
0.0
 11
281.0475720000000024
 21
206.7611599999999896
 31
0.0
  0
LINE
  5
A5
100
AcDbEntity
100
AcDbLine
  8
HACHURE
 62
5
370
-1
  6
CONTINUOUS
 10
312.9647820000000138
 20
229.109831000000014
 30
0.0
 11
323.6778120000000172
 21
236.6111760000000004
 31
0.0
  0
LINE
  5
A6
100
AcDbEntity
100
AcDbLine
  8
HACHURE
 62
5
370
-1
  6
CONTINUOUS
 10
332.2473989999999731
 20
242.6116649999999879
 30
0.0
 11
335.0481090000000108
 21
244.5727430000000027
 31
0.0
  0
LINE
  5
A7
100
AcDbEntity
100
AcDbLine
  8
HACHURE
 62
5
370
-1
  6
CONTINUOUS
 10
335.0481770000000097
 20
235.2704239999999913
 30
0.0
 11
327.6800910000000044
 21
230.1112349999999935
 31
0.0
  0
LINE
  5
A8
100
AcDbEntity
100
AcDbLine
  8
HACHURE
 62
5
370
-1
  6
CONTINUOUS
 10
281.0476400000000012
 20
197.4588410000000067
 30
0.0
 11
271.0462999999999738
 21
190.4558269999999993
 31
0.0
  0
LINE
  5
A9
100
AcDbEntity
100
AcDbLine
  8
HACHURE
 62
5
370
-1
  6
CONTINUOUS
 10
226.1637690000000021
 20
159.0287409999999966
 30
0.0
 11
211.8797289999999975
 21
149.0269490000000019
 31
0.0
  0
LINE
  5
AA
100
AcDbEntity
100
AcDbLine
  8
HACHURE
 62
5
370
-1
  6
CONTINUOUS
 10
225.1632840000000044
 20
149.02582799999999
 30
0.0
 11
239.4473240000000089
 21
159.0276200000000131
 31
0.0
  0
LINE
  5
AB
100
AcDbEntity
100
AcDbLine
  8
HACHURE
 62
5
370
-1
  6
CONTINUOUS
 10
271.0463669999999752
 20
181.1535090000000139
 30
0.0
 11
281.0477070000000026
 21
188.1565219999999954
 31
0.0
  0
LINE
  5
AC
100
AcDbEntity
100
AcDbLine
  8
HACHURE
 62
5
370
-1
  6
CONTINUOUS
 10
281.0519610000000057
 20
178.8571349999999995
 30
0.0
 11
271.0506209999999783
 21
171.8541209999999921
 31
0.0
  0
LINE
  5
AD
100
AcDbEntity
100
AcDbLine
  8
HACHURE
 62
5
370
-1
  6
CONTINUOUS
 10
262.5605760000000259
 20
165.9093279999999879
 30
0.0
 11
258.5918570000000045
 21
163.1304010000000062
 31
0.0
  0
LINE
  5
AE
100
AcDbEntity
100
AcDbLine
  8
HACHURE
 62
5
370
-1
  6
CONTINUOUS
 10
252.7308789999999874
 20
159.0264999999999986
 30
0.0
 11
238.4468390000000113
 21
149.0247070000000065
 31
0.0
  0
LINE
  5
AF
100
AcDbEntity
100
AcDbLine
  8
HACHURE
 62
5
370
-1
  6
CONTINUOUS
 10
251.734579999999994
 20
149.02651800000001
 30
0.0
 11
263.6909749999999804
 21
157.3984759999999881
 31
0.0
  0
LINE
  5
B0
100
AcDbEntity
100
AcDbLine
  8
HACHURE
 62
5
370
-1
  6
CONTINUOUS
 10
268.5179089999999746
 20
160.7783310000000085
 30
0.0
 11
281.0813329999999723
 21
169.5753349999999955
 31
0.0
  0
LINE
  5
B1
100
AcDbEntity
100
AcDbLine
  8
HACHURE
 62
5
370
-1
  6
CONTINUOUS
 10
284.049568000000022
 20
162.351348999999999
 30
0.0
 11
282.5173409999999876
 21
161.2784719999999936
 31
0.0
  0
LINE
  5
B2
100
AcDbEntity
100
AcDbLine
  8
HACHURE
 62
5
370
-1
  6
CONTINUOUS
 10
275.3753199999999879
 20
156.2775760000000105
 30
0.0
 11
265.0181349999999725
 21
149.0253969999999981
 31
0.0
  0
LINE
  5
B3
100
AcDbEntity
100
AcDbLine
  8
HACHURE
 62
5
370
-1
  6
CONTINUOUS
 10
281.1651969999999778
 20
151.029325
 30
0.0
 11
284.0454490000000192
 21
153.0460989999999981
 31
0.0
  0
ENDBLK
  5
B4
100
AcDbEntity
  8
0
100
AcDbBlockEnd
  0
BLOCK
  5
B5
100
AcDbEntity
  8
0
100
AcDbBlockBegin
  2
DESENS-G3
 70
0
 10
0.0
 20
0.0
 30
0.0
  3
DESENS-G3
  1

  0
LINE
  5
B6
100
AcDbEntity
100
AcDbLine
  8
HACHURE
 62
5
370
-1
  6
CONTINUOUS
 10
189.8068759999999884
 20
112.5291730000000001
 30
0.0
 11
182.6648559999999861
 21
107.5282760000000053
 31
0.0
  0
LINE
  5
B7
100
AcDbEntity
100
AcDbLine
  8
HACHURE
 62
5
370
-1
  6
CONTINUOUS
 10
183.0460410000000024
 20
98.4924919999999986
 30
0.0
 11
201.5583579999999984
 21
111.4549559999999957
 31
0.0
  0
LINE
  5
B8
100
AcDbEntity
100
AcDbLine
  8
HACHURE
 62
5
370
-1
  6
CONTINUOUS
 10
214.2392230000000097
 20
111.0314999999999941
 30
0.0
 11
199.950997000000001
 21
101.0267759999999981
 31
0.0
  0
LINE
  5
B9
100
AcDbEntity
100
AcDbLine
  8
HACHURE
 62
5
370
-1
  6
CONTINUOUS
 10
193.0517890000000136
 20
96.1958979999999997
 30
0.0
 11
183.0462620000000129
 21
89.1899530000000027
 31
0.0
  0
LINE
  5
BA
100
AcDbEntity
100
AcDbLine
  8
HACHURE
 62
5
370
-1
  6
CONTINUOUS
 10
213.2388919999999928
 20
101.0283670000000029
 30
0.0
 11
227.5229319999999973
 21
111.0301599999999951
 31
0.0
  0
LINE
  5
BB
100
AcDbEntity
100
AcDbLine
  8
HACHURE
 62
5
370
-1
  6
CONTINUOUS
 10
240.8066410000000133
 20
111.0288199999999961
 30
0.0
 11
226.5226000000000113
 21
101.0270270000000039
 31
0.0
  0
LINE
  5
BC
100
AcDbEntity
100
AcDbLine
  8
HACHURE
 62
5
370
-1
  6
CONTINUOUS
 10
239.8104960000000005
 20
101.0286179999999945
 30
0.0
 11
254.0945360000000051
 21
111.0304110000000009
 31
0.0
  0
LINE
  5
BD
100
AcDbEntity
100
AcDbLine
  8
HACHURE
 62
5
370
-1
  6
CONTINUOUS
 10
267.3782439999999951
 20
111.0290710000000018
 30
0.0
 11
253.0983909999999923
 21
101.0302089999999993
 31
0.0
  0
LINE
  5
BE
100
AcDbEntity
100
AcDbLine
  8
HACHURE
 62
5
370
-1
  6
CONTINUOUS
 10
259.2484519999999861
 20
96.0338359999999938
 30
0.0
 11
264.0000299999999811
 21
99.3609270000000038
 31
0.0
  0
LINE
  5
BF
100
AcDbEntity
100
AcDbLine
  8
HACHURE
 62
5
370
-1
  6
CONTINUOUS
 10
269.5930779999999913
 20
103.2772209999999973
 30
0.0
 11
277.8026330000000144
 21
109.025613000000007
 31
0.0
  0
LINE
  5
C0
100
AcDbEntity
100
AcDbLine
  8
HACHURE
 62
5
370
-1
  6
CONTINUOUS
 10
284.0460509999999772
 20
104.1008470000000017
 30
0.0
 11
283.5813590000000204
 21
103.7754659999999944
 31
0.0
  0
LINE
  5
C1
100
AcDbEntity
100
AcDbLine
  8
HACHURE
 62
5
370
-1
  6
CONTINUOUS
 10
276.4435250000000224
 20
98.7775010000000009
 30
0.0
 11
269.1884719999999902
 21
93.6974589999999949
 31
0.0
  0
LINE
  5
C2
100
AcDbEntity
100
AcDbLine
  8
HACHURE
 62
5
370
-1
  6
CONTINUOUS
 10
271.440983000000017
 20
85.9719910000000027
 30
0.0
 11
284.0462719999999877
 21
94.7983090000000033
 31
0.0
  0
LINE
  5
C3
100
AcDbEntity
100
AcDbLine
  8
HACHURE
 62
5
370
-1
  6
CONTINUOUS
 10
283.8204269999999951
 20
85.3374770000000069
 30
0.0
 11
275.1754839999999831
 21
79.2842239999999947
 31
0.0
  0
LINE
  5
C4
100
AcDbEntity
100
AcDbLine
  8
HACHURE
 62
5
370
-1
  6
CONTINUOUS
 10
282.8075360000000273
 20
75.3255510000000044
 30
0.0
 11
296.7859680000000253
 21
85.1133540000000011
 31
0.0
  0
LINE
  5
C5
100
AcDbEntity
100
AcDbLine
  8
HACHURE
 62
5
370
-1
  6
CONTINUOUS
 10
310.0738630000000171
 20
85.1149450000000058
 30
0.0
 11
295.7940090000000168
 21
75.1160840000000007
 31
0.0
  0
LINE
  5
C6
100
AcDbEntity
100
AcDbLine
  8
HACHURE
 62
5
370
-1
  6
CONTINUOUS
 10
302.6264560000000188
 20
70.5975219999999979
 30
0.0
 11
308.7553639999999859
 21
74.8890289999999936
 31
0.0
  0
LINE
  5
C7
100
AcDbEntity
100
AcDbLine
  8
HACHURE
 62
5
370
-1
  6
CONTINUOUS
 10
311.9328510000000279
 20
77.1139299999999963
 30
0.0
 11
323.3617580000000089
 21
85.1165359999999964
 31
0.0
  0
LINE
  5
C8
100
AcDbEntity
100
AcDbLine
  8
HACHURE
 62
5
370
-1
  6
CONTINUOUS
 10
335.0462570000000255
 20
83.9954170000000033
 30
0.0
 11
325.9366229999999973
 21
77.6167829999999981
 31
0.0
  0
LINE
  5
C9
100
AcDbEntity
100
AcDbLine
  8
HACHURE
 62
5
370
-1
  6
CONTINUOUS
 10
318.0787260000000174
 20
72.1146250000000038
 30
0.0
 11
309.5216990000000123
 21
66.1229289999999992
 31
0.0
  0
LINE
  5
CA
100
AcDbEntity
100
AcDbLine
  8
HACHURE
 62
5
370
-1
  6
CONTINUOUS
 10
322.7928479999999922
 20
66.1127950000000055
 30
0.0
 11
330.6507449999999722
 21
71.6149539999999973
 31
0.0
  0
LINE
  5
CB
100
AcDbEntity
100
AcDbLine
  8
HACHURE
 62
5
370
-1
  6
CONTINUOUS
 10
180.9524659999999869
 20
112.5310429999999968
 30
0.0
 11
178.0470960000000105
 21
110.4966809999999953
 31
0.0
  0
LINE
  5
CC
100
AcDbEntity
100
AcDbLine
  8
HACHURE
 62
5
370
-1
  6
CONTINUOUS
 10
183.0458940000000041
 20
104.694184000000007
 30
0.0
 11
194.2319880000000012
 21
112.526771999999994
 31
0.0
  0
LINE
  5
CD
100
AcDbEntity
100
AcDbLine
  8
HACHURE
 62
5
370
-1
  6
CONTINUOUS
 10
205.380627000000004
 20
111.0304390000000012
 30
0.0
 11
183.0461149999999861
 21
95.3916459999999944
 31
0.0
  0
LINE
  5
CE
100
AcDbEntity
100
AcDbLine
  8
HACHURE
 62
5
370
-1
  6
CONTINUOUS
 10
185.813555000000008
 20
88.0267350000000022
 30
0.0
 11
193.0476759999999956
 21
93.0921210000000059
 31
0.0
  0
LINE
  5
CF
100
AcDbEntity
100
AcDbLine
  8
HACHURE
 62
5
370
-1
  6
CONTINUOUS
 10
204.3802949999999896
 20
101.0273059999999958
 30
0.0
 11
218.6643349999999941
 21
111.0290990000000022
 31
0.0
  0
LINE
  5
D0
100
AcDbEntity
100
AcDbLine
  8
HACHURE
 62
5
370
-1
  6
CONTINUOUS
 10
231.9522299999999859
 20
111.030690000000007
 30
0.0
 11
217.6681900000000098
 21
101.0288979999999981
 31
0.0
  0
LINE
  5
D1
100
AcDbEntity
100
AcDbLine
  8
HACHURE
 62
5
370
-1
  6
CONTINUOUS
 10
230.9518989999999974
 20
101.0275570000000016
 30
0.0
 11
245.2359390000000019
 21
111.0293499999999938
 31
0.0
  0
LINE
  5
D2
100
AcDbEntity
100
AcDbLine
  8
HACHURE
 62
5
370
-1
  6
CONTINUOUS
 10
258.5238340000000221
 20
111.0309409999999986
 30
0.0
 11
244.2397939999999892
 21
101.0291490000000039
 31
0.0
  0
LINE
  5
D3
100
AcDbEntity
100
AcDbLine
  8
HACHURE
 62
5
370
-1
  6
CONTINUOUS
 10
256.6108649999999898
 20
100.388772000000003
 30
0.0
 11
268.9482229999999845
 21
109.0274840000000012
 31
0.0
  0
LINE
  5
D4
100
AcDbEntity
100
AcDbLine
  8
HACHURE
 62
5
370
-1
  6
CONTINUOUS
 10
282.2248139999999808
 20
109.0273990000000026
 30
0.0
 11
274.726947999999993
 21
103.7773370000000028
 31
0.0
  0
LINE
  5
D5
100
AcDbEntity
100
AcDbLine
  8
HACHURE
 62
5
370
-1
  6
CONTINUOUS
 10
268.3008050000000253
 20
99.2777030000000025
 30
0.0
 11
261.4476470000000177
 21
94.479069999999993
 31
0.0
  0
LINE
  5
D6
100
AcDbEntity
100
AcDbLine
  8
HACHURE
 62
5
370
-1
  6
CONTINUOUS
 10
270.879856000000018
 20
91.7808809999999937
 30
0.0
 11
280.8728229999999826
 21
98.7780319999999961
 31
0.0
  0
LINE
  5
D7
100
AcDbEntity
100
AcDbLine
  8
HACHURE
 62
5
370
-1
  6
CONTINUOUS
 10
281.0488740000000121
 20
89.5986110000000053
 30
0.0
 11
272.2950849999999718
 21
83.4691420000000051
 31
0.0
  0
LINE
  5
D8
100
AcDbEntity
100
AcDbLine
  8
HACHURE
 62
5
370
-1
  6
CONTINUOUS
 10
277.1975949999999784
 20
77.599222999999995
 30
0.0
 11
287.9273709999999937
 21
85.112292999999994
 31
0.0
  0
LINE
  5
D9
100
AcDbEntity
100
AcDbLine
  8
HACHURE
 62
5
370
-1
  6
CONTINUOUS
 10
301.2152659999999855
 20
85.1138839999999988
 30
0.0
 11
286.931225999999981
 21
75.1120920000000041
 31
0.0
  0
LINE
  5
DA
100
AcDbEntity
100
AcDbLine
  8
HACHURE
 62
5
370
-1
  6
CONTINUOUS
 10
299.9135130000000231
 20
74.8996939999999967
 30
0.0
 11
314.5031609999999773
 21
85.115476000000001
 31
0.0
  0
LINE
  5
DB
100
AcDbEntity
100
AcDbLine
  8
HACHURE
 62
5
370
-1
  6
CONTINUOUS
 10
326.363490000000013
 20
84.1174740000000014
 30
0.0
 11
316.3621499999999855
 21
77.114459999999994
 31
0.0
  0
LINE
  5
DC
100
AcDbEntity
100
AcDbLine
  8
HACHURE
 62
5
370
-1
  6
CONTINUOUS
 10
309.8104139999999802
 20
72.5268849999999929
 30
0.0
 11
304.0917739999999867
 21
68.5226509999999962
 31
0.0
  0
LINE
  5
DD
100
AcDbEntity
100
AcDbLine
  8
HACHURE
 62
5
370
-1
  6
CONTINUOUS
 10
313.9384380000000192
 20
66.1146659999999997
 30
0.0
 11
321.7921479999999974
 21
71.6138930000000045
 31
0.0
  0
LINE
  5
DE
100
AcDbEntity
100
AcDbLine
  8
HACHURE
 62
5
370
-1
  6
CONTINUOUS
 10
330.3659210000000144
 20
77.6173129999999958
 30
0.0
 11
335.0463310000000092
 21
80.8945709999999991
 31
0.0
  0
LINE
  5
DF
100
AcDbEntity
100
AcDbLine
  8
HACHURE
 62
5
370
-1
  6
CONTINUOUS
 10
335.0465520000000197
 20
71.5920330000000007
 30
0.0
 11
327.2221470000000068
 21
66.1133260000000007
 31
0.0
  0
ENDBLK
  5
E0
100
AcDbEntity
  8
0
100
AcDbBlockEnd
  0
BLOCK
  5
E1
100
AcDbEntity
  8
0
100
AcDbBlockBegin
  2
DESENS-G4
 70
0
 10
0.0
 20
0.0
 30
0.0
  3
DESENS-G4
  1

  0
LINE
  5
E2
100
AcDbEntity
100
AcDbLine
  8
HACHURE
 62
5
370
-1
  6
CONTINUOUS
 10
196.0495050000000106
 20
144.9139649999999904
 30
0.0
 11
194.2181119999999908
 21
147.5294649999999876
 31
0.0
  0
LINE
  5
E3
100
AcDbEntity
100
AcDbLine
  8
HACHURE
 62
5
370
-1
  6
CONTINUOUS
 10
191.504889999999989
 20
147.5293979999999863
 30
0.0
 11
193.8388530000000003
 21
144.1961530000000096
 31
0.0
  0
LINE
  5
E4
100
AcDbEntity
100
AcDbLine
  8
HACHURE
 62
5
370
-1
  6
CONTINUOUS
 10
190.5577490000000012
 20
145.0071039999999982
 30
0.0
 11
188.7916679999999872
 21
147.5293299999999874
 31
0.0
  0
LINE
  5
E5
100
AcDbEntity
100
AcDbLine
  8
HACHURE
 62
5
370
-1
  6
CONTINUOUS
 10
186.078739000000013
 20
147.5294680000000085
 30
0.0
 11
188.4127019999999959
 21
144.1962230000000034
 31
0.0
  0
LINE
  5
E6
100
AcDbEntity
100
AcDbLine
  8
HACHURE
 62
5
370
-1
  6
CONTINUOUS
 10
185.6994799999999941
 20
144.1961550000000045
 30
0.0
 11
185.0498560000000055
 21
145.1239140000000134
 31
0.0
  0
ENDBLK
  5
E7
100
AcDbEntity
  8
0
100
AcDbBlockEnd
  0
BLOCK
  5
E8
100
AcDbEntity
  8
0
100
AcDbBlockBegin
  2
DESENS-G5
 70
0
 10
0.0
 20
0.0
 30
0.0
  3
DESENS-G5
  1

  0
LINE
  5
E9
100
AcDbEntity
100
AcDbLine
  8
HACHURE
 62
5
370
-1
  6
CONTINUOUS
 10
185.0495449999999948
 20
123.2888190000000037
 30
0.0
 11
184.151881000000003
 21
123.5293470000000013
 31
0.0
  0
LINE
  5
EA
100
AcDbEntity
100
AcDbLine
  8
HACHURE
 62
5
370
-1
  6
CONTINUOUS
 10
184.0495789999999943
 20
122.5706349999999958
 30
0.0
 11
185.0495579999999904
 21
122.3026919999999933
 31
0.0
  0
LINE
  5
EB
100
AcDbEntity
100
AcDbLine
  8
HACHURE
 62
5
370
-1
  6
CONTINUOUS
 10
185.04953900000001
 20
121.3165730000000053
 30
0.0
 11
184.0495919999999899
 21
121.5845079999999996
 31
0.0
  0
LINE
  5
EC
100
AcDbEntity
100
AcDbLine
  8
HACHURE
 62
5
370
-1
  6
CONTINUOUS
 10
184.049570999999986
 20
120.5985069999999979
 30
0.0
 11
184.3074029999999937
 21
120.5294209999999993
 31
0.0
  0
ENDBLK
  5
ED
100
AcDbEntity
  8
0
100
AcDbBlockEnd
  0
BLOCK
  5
EE
100
AcDbEntity
  8
0
100
AcDbBlockBegin
  2
DESENS-G6
 70
0
 10
0.0
 20
0.0
 30
0.0
  3
DESENS-G6
  1

  0
LINE
  5
EF
100
AcDbEntity
100
AcDbLine
  8
HACHURE
 62
5
370
-1
  6
CONTINUOUS
 10
196.0495730000000094
 20
112.9578649999999982
 30
0.0
 11
194.0154679999999985
 21
115.862868000000006
 31
0.0
  0
LINE
  5
F0
100
AcDbEntity
100
AcDbLine
  8
HACHURE
 62
5
370
-1
  6
CONTINUOUS
 10
191.6791220000000067
 20
115.3245650000000069
 30
0.0
 11
193.636209000000008
 21
112.5295559999999995
 31
0.0
  0
LINE
  5
F1
100
AcDbEntity
100
AcDbLine
  8
HACHURE
 62
5
370
-1
  6
CONTINUOUS
 10
190.9227820000000122
 20
112.5297809999999998
 30
0.0
 11
188.5890239999999949
 21
115.8627330000000057
 31
0.0
  0
LINE
  5
F2
100
AcDbEntity
100
AcDbLine
  8
HACHURE
 62
5
370
-1
  6
CONTINUOUS
 10
185.8758899999999983
 20
115.8631639999999976
 30
0.0
 11
188.2098530000000096
 21
112.5299190000000067
 31
0.0
  0
LINE
  5
F3
100
AcDbEntity
100
AcDbLine
  8
HACHURE
 62
5
370
-1
  6
CONTINUOUS
 10
185.4966310000000078
 20
112.5298509999999936
 30
0.0
 11
185.0499240000000043
 21
113.167814000000007
 31
0.0
  0
ENDBLK
  5
F4
100
AcDbEntity
  8
0
100
AcDbBlockEnd
  0
BLOCK
  5
F5
100
AcDbEntity
  8
0
100
AcDbBlockBegin
  2
DESENS-G7
 70
0
 10
0.0
 20
0.0
 30
0.0
  3
DESENS-G7
  1

  0
LINE
  5
F6
100
AcDbEntity
100
AcDbLine
  8
HACHURE
 62
5
370
-1
  6
CONTINUOUS
 10
187.0849819999999966
 20
140.8626910000000123
 30
0.0
 11
185.0495659999999987
 21
139.9135609999999872
 31
0.0
  0
LINE
  5
F7
100
AcDbEntity
100
AcDbLine
  8
HACHURE
 62
5
370
-1
  6
CONTINUOUS
 10
185.1954069999999888
 20
137.5292220000000043
 30
0.0
 11
190.605875999999995
 21
140.0521650000000022
 31
0.0
  0
LINE
  5
F8
100
AcDbEntity
100
AcDbLine
  8
HACHURE
 62
5
370
-1
  6
CONTINUOUS
 10
196.0492509999999982
 20
140.1381069999999909
 30
0.0
 11
190.4551020000000108
 21
137.5295120000000111
 31
0.0
  0
LINE
  5
F9
100
AcDbEntity
100
AcDbLine
  8
HACHURE
 62
5
370
-1
  6
CONTINUOUS
 10
195.7136710000000051
 20
137.529672000000005
 30
0.0
 11
196.0492289999999969
 21
137.6861460000000079
 31
0.0
  0
ENDBLK
  5
FA
100
AcDbEntity
  8
0
100
AcDbBlockEnd
  0
BLOCK
  5
FB
100
AcDbEntity
  8
0
100
AcDbBlockBegin
  2
DESENS-G8
 70
0
 10
0.0
 20
0.0
 30
0.0
  3
DESENS-G8
  1

  0
LINE
  5
FC
100
AcDbEntity
100
AcDbLine
  8
HACHURE
 62
5
370
-1
  6
CONTINUOUS
 10
187.96332799999999
 20
122.5292259999999942
 30
0.0
 11
185.0494250000000136
 21
121.1704500000000024
 31
0.0
  0
LINE
  5
FD
100
AcDbEntity
100
AcDbLine
  8
HACHURE
 62
5
370
-1
  6
CONTINUOUS
 10
186.0740779999999859
 20
119.1959080000000029
 30
0.0
 11
193.2226980000000083
 21
122.5293640000000011
 31
0.0
  0
LINE
  5
FE
100
AcDbEntity
100
AcDbLine
  8
HACHURE
 62
5
370
-1
  6
CONTINUOUS
 10
196.0494349999999883
 20
121.3951469999999944
 30
0.0
 11
192.0259829999999965
 21
119.5189799999999991
 31
0.0
  0
ENDBLK
  5
FF
100
AcDbEntity
  8
0
100
AcDbBlockEnd
  0
BLOCK
  5
100
100
AcDbEntity
  8
0
100
AcDbBlockBegin
  2
DESENS-G9
 70
0
 10
0.0
 20
0.0
 30
0.0
  3
DESENS-G9
  1

  0
LINE
  5
101
100
AcDbEntity
100
AcDbLine
  8
HACHURE
 62
5
370
-1
  6
CONTINUOUS
 10
305.1518990000000144
 20
158.2795370000000048
 30
0.0
 11
299.0486690000000181
 21
156.0581430000000012
 31
0.0
  0
LINE
  5
102
100
AcDbEntity
100
AcDbLine
  8
HACHURE
 62
5
370
-1
  6
CONTINUOUS
 10
280.1214350000000195
 20
144.1012139999999988
 30
0.0
 11
285.4194110000000251
 21
146.0295189999999934
 31
0.0
  0
LINE
  5
103
100
AcDbEntity
100
AcDbLine
  8
HACHURE
 62
5
370
-1
  6
CONTINUOUS
 10
299.049082999999996
 20
150.9903150000000096
 30
0.0
 11
319.0492110000000139
 21
158.2697660000000042
 31
0.0
  0
LINE
  5
104
100
AcDbEntity
100
AcDbLine
  8
HACHURE
 62
5
370
-1
  6
CONTINUOUS
 10
319.0484319999999911
 20
153.2015030000000024
 30
0.0
 11
318.5736299999999801
 21
153.0286890000000142
 31
0.0
  0
LINE
  5
105
100
AcDbEntity
100
AcDbLine
  8
HACHURE
 62
5
370
-1
  6
CONTINUOUS
 10
312.0480890000000045
 20
150.65358599999999
 30
0.0
 11
290.5531710000000203
 21
142.8300759999999912
 31
0.0
  0
LINE
  5
106
100
AcDbEntity
100
AcDbLine
  8
HACHURE
 62
5
370
-1
  6
CONTINUOUS
 10
304.4779209999999807
 20
142.8302909999999883
 30
0.0
 11
312.0485029999999824
 21
145.5857579999999984
 31
0.0
  0
ENDBLK
  5
107
100
AcDbEntity
  8
0
100
AcDbBlockEnd
  0
BLOCK
  5
108
100
AcDbEntity
  8
0
100
AcDbBlockBegin
  2
DESENS-G10
 70
0
 10
0.0
 20
0.0
 30
0.0
  3
DESENS-G10
  1

  0
LINE
  5
109
100
AcDbEntity
100
AcDbLine
  8
HACHURE
 62
5
370
-1
  6
CONTINUOUS
 10
347.049049000000025
 20
147.2098709999999926
 30
0.0
 11
343.1470879999999966
 21
149.0293859999999881
 31
0.0
  0
LINE
  5
10A
100
AcDbEntity
100
AcDbLine
  8
HACHURE
 62
5
370
-1
  6
CONTINUOUS
 10
335.6354519999999866
 20
149.0291339999999991
 30
0.0
 11
347.0489410000000134
 21
143.7069360000000131
 31
0.0
  0
LINE
  5
10B
100
AcDbEntity
100
AcDbLine
  8
HACHURE
 62
5
370
-1
  6
CONTINUOUS
 10
347.0491000000000099
 20
140.2032660000000135
 30
0.0
 11
330.0494860000000017
 21
148.1303159999999934
 31
0.0
  0
LINE
  5
10C
100
AcDbEntity
100
AcDbLine
  8
HACHURE
 62
5
370
-1
  6
CONTINUOUS
 10
330.0493779999999902
 20
144.627381000000014
 30
0.0
 11
347.0489919999999984
 21
136.7003310000000056
 31
0.0
  0
LINE
  5
10D
100
AcDbEntity
100
AcDbLine
  8
HACHURE
 62
5
370
-1
  6
CONTINUOUS
 10
347.0491509999999948
 20
133.196661000000006
 30
0.0
 11
330.0495369999999866
 21
141.1237109999999859
 31
0.0
  0
LINE
  5
10E
100
AcDbEntity
100
AcDbLine
  8
HACHURE
 62
5
370
-1
  6
CONTINUOUS
 10
330.0494289999999751
 20
137.6207760000000064
 30
0.0
 11
345.2565470000000118
 21
130.5295800000000099
 31
0.0
  0
LINE
  5
10F
100
AcDbEntity
100
AcDbLine
  8
HACHURE
 62
5
370
-1
  6
CONTINUOUS
 10
337.7444100000000162
 20
130.5295619999999985
 30
0.0
 11
330.0493200000000229
 21
134.1178409999999985
 31
0.0
  0
LINE
  5
110
100
AcDbEntity
100
AcDbLine
  8
HACHURE
 62
5
370
-1
  6
CONTINUOUS
 10
330.0489779999999769
 20
130.614405000000005
 30
0.0
 11
331.3023200000000088
 21
130.0299609999999859
 31
0.0
  0
ENDBLK
  5
111
100
AcDbEntity
  8
0
100
AcDbBlockEnd
  0
BLOCK
  5
112
100
AcDbEntity
  8
0
100
AcDbBlockBegin
  2
DESENS-G11
 70
0
 10
0.0
 20
0.0
 30
0.0
  3
DESENS-G11
  1

  0
LINE
  5
113
100
AcDbEntity
100
AcDbLine
  8
HACHURE
 62
5
370
-1
  6
CONTINUOUS
 10
294.0492929999999774
 20
152.2110000000000127
 30
0.0
 11
292.9509100000000217
 21
153.7796549999999911
 31
0.0
  0
LINE
  5
114
100
AcDbEntity
100
AcDbLine
  8
HACHURE
 62
5
370
-1
  6
CONTINUOUS
 10
287.8144350000000031
 20
155.5795799999999929
 30
0.0
 11
289.0492669999999862
 21
153.8160560000000032
 31
0.0
  0
LINE
  5
115
100
AcDbEntity
100
AcDbLine
  8
HACHURE
 62
5
370
-1
  6
CONTINUOUS
 10
289.0748839999999973
 20
153.7794719999999984
 30
0.0
 11
293.1008979999999724
 21
148.0297280000000057
 31
0.0
  0
LINE
  5
116
100
AcDbEntity
100
AcDbLine
  8
HACHURE
 62
5
370
-1
  6
CONTINUOUS
 10
289.2252449999999726
 20
148.0298070000000052
 30
0.0
 11
286.049289999999985
 21
152.5655409999999961
 31
0.0
  0
LINE
  5
117
100
AcDbEntity
100
AcDbLine
  8
HACHURE
 62
5
370
-1
  6
CONTINUOUS
 10
283.2483839999999873
 20
151.0299280000000124
 30
0.0
 11
285.3489589999999794
 21
148.0299970000000087
 31
0.0
  0
LINE
  5
118
100
AcDbEntity
100
AcDbLine
  8
HACHURE
 62
5
370
-1
  6
CONTINUOUS
 10
281.4729330000000118
 20
148.0298139999999876
 30
0.0
 11
280.0498959999999897
 21
150.0621209999999905
 31
0.0
  0
ENDBLK
  5
119
100
AcDbEntity
  8
0
100
AcDbBlockEnd
  0
BLOCK
  5
11A
100
AcDbEntity
  8
0
100
AcDbBlockBegin
  2
DESENS-G12
 70
0
 10
0.0
 20
0.0
 30
0.0
  3
DESENS-G12
  1

  0
LINE
  5
11B
100
AcDbEntity
100
AcDbLine
  8
HACHURE
 62
5
370
-1
  6
CONTINUOUS
 10
280.0495530000000031
 20
148.3024450000000058
 30
0.0
 11
278.7779009999999857
 21
151.0295110000000136
 31
0.0
  0
LINE
  5
11C
100
AcDbEntity
100
AcDbLine
  8
HACHURE
 62
5
370
-1
  6
CONTINUOUS
 10
276.3257300000000214
 20
151.0295059999999978
 30
0.0
 11
278.0353529999999864
 21
147.363207999999986
 31
0.0
  0
LINE
  5
11D
100
AcDbEntity
100
AcDbLine
  8
HACHURE
 62
5
370
-1
  6
CONTINUOUS
 10
275.3205320000000142
 20
147.9264599999999916
 30
0.0
 11
273.8733940000000189
 21
151.0298559999999952
 31
0.0
  0
LINE
  5
11E
100
AcDbEntity
100
AcDbLine
  8
HACHURE
 62
5
370
-1
  6
CONTINUOUS
 10
271.420868999999982
 20
151.0296859999999981
 30
0.0
 11
272.850672999999972
 21
147.9634629999999902
 31
0.0
  0
LINE
  5
11F
100
AcDbEntity
100
AcDbLine
  8
HACHURE
 62
5
370
-1
  6
CONTINUOUS
 10
270.6783209999999826
 20
147.3633839999999964
 30
0.0
 11
268.9686980000000176
 21
151.0296820000000082
 31
0.0
  0
LINE
  5
120
100
AcDbEntity
100
AcDbLine
  8
HACHURE
 62
5
370
-1
  6
CONTINUOUS
 10
268.04983900000002
 20
147.7414789999999982
 30
0.0
 11
268.2261510000000158
 21
147.363379000000009
 31
0.0
  0
ENDBLK
  5
121
100
AcDbEntity
  8
0
100
AcDbBlockEnd
  0
BLOCK
  5
122
100
AcDbEntity
  8
0
100
AcDbBlockBegin
  2
DESENS-G13
 70
0
 10
0.0
 20
0.0
 30
0.0
  3
DESENS-G13
  1

  0
LINE
  5
123
100
AcDbEntity
100
AcDbLine
  8
HACHURE
 62
5
370
-1
  6
CONTINUOUS
 10
349.2703910000000178
 20
124.8292890000000028
 30
0.0
 11
347.0491880000000151
 21
123.2739859999999936
 31
0.0
  0
LINE
  5
124
100
AcDbEntity
100
AcDbLine
  8
HACHURE
 62
5
370
-1
  6
CONTINUOUS
 10
347.0492830000000026
 20
119.3982010000000002
 30
0.0
 11
352.2348460000000046
 21
123.0291710000000052
 31
0.0
  0
LINE
  5
125
100
AcDbEntity
100
AcDbLine
  8
HACHURE
 62
5
370
-1
  6
CONTINUOUS
 10
357.0489779999999769
 20
122.5238140000000016
 30
0.0
 11
352.0586040000000025
 21
119.029516000000001
 31
0.0
  0
ENDBLK
  5
126
100
AcDbEntity
  8
0
100
AcDbBlockEnd
  0
BLOCK
  5
127
100
AcDbEntity
  8
0
100
AcDbBlockBegin
  2
DESENS-G14
 70
0
 10
0.0
 20
0.0
 30
0.0
  3
DESENS-G14
  1

  0
LINE
  5
128
100
AcDbEntity
100
AcDbLine
  8
HACHURE
 62
5
370
-1
  6
CONTINUOUS
 10
349.7032659999999851
 20
138.536800999999997
 30
0.0
 11
347.04928799999999
 21
136.6784649999999885
 31
0.0
  0
LINE
  5
129
100
AcDbEntity
100
AcDbLine
  8
HACHURE
 62
5
370
-1
  6
CONTINUOUS
 10
347.0493890000000192
 20
132.8026700000000062
 30
0.0
 11
354.0628449999999816
 21
137.7135450000000105
 31
0.0
  0
LINE
  5
12A
100
AcDbEntity
100
AcDbLine
  8
HACHURE
 62
5
370
-1
  6
CONTINUOUS
 10
357.0491719999999987
 20
135.9287270000000092
 30
0.0
 11
352.9083479999999895
 21
133.0292910000000006
 31
0.0
  0
LINE
  5
12B
100
AcDbEntity
100
AcDbLine
  8
HACHURE
 62
5
370
-1
  6
CONTINUOUS
 10
352.0491979999999899
 20
132.4277079999999955
 30
0.0
 11
350.3375649999999837
 21
131.2292089999999973
 31
0.0
  0
ENDBLK
  5
12C
100
AcDbEntity
  8
0
100
AcDbBlockEnd
  0
BLOCK
  5
12D
100
AcDbEntity
  8
0
100
AcDbBlockBegin
  2
DESENS-G15
 70
0
 10
0.0
 20
0.0
 30
0.0
  3
DESENS-G15
  1

  0
LINE
  5
12E
100
AcDbEntity
100
AcDbLine
  8
HACHURE
 62
5
370
-1
  6
CONTINUOUS
 10
347.0490019999999731
 20
68.1449620000000067
 30
0.0
 11
345.6169639999999958
 21
68.8127319999999969
 31
0.0
  0
LINE
  5
12F
100
AcDbEntity
100
AcDbLine
  8
HACHURE
 62
5
370
-1
  6
CONTINUOUS
 10
335.0495280000000093
 20
70.2370590000000021
 30
0.0
 11
343.8941709999999716
 21
66.1127340000000032
 31
0.0
  0
LINE
  5
130
100
AcDbEntity
100
AcDbLine
  8
HACHURE
 62
5
370
-1
  6
CONTINUOUS
 10
336.3821479999999724
 20
66.1127299999999991
 30
0.0
 11
335.049239
 21
66.7342759999999942
 31
0.0
  0
ENDBLK
  5
131
100
AcDbEntity
  8
0
100
AcDbBlockEnd
  0
BLOCK
  5
132
100
AcDbEntity
  8
0
100
AcDbBlockBegin
  2
DESENS-G16
 70
0
 10
0.0
 20
0.0
 30
0.0
  3
DESENS-G16
  1

  0
LINE
  5
133
100
AcDbEntity
100
AcDbLine
  8
HACHURE
 62
5
370
-1
  6
CONTINUOUS
 10
282.722231000000022
 20
120.0295969999999954
 30
0.0
 11
280.0487880000000018
 21
119.0565430000000049
 31
0.0
  0
LINE
  5
134
100
AcDbEntity
100
AcDbLine
  8
HACHURE
 62
5
370
-1
  6
CONTINUOUS
 10
281.5451150000000098
 20
114.5333990000000028
 30
0.0
 11
296.6445259999999848
 21
120.0291349999999966
 31
0.0
  0
LINE
  5
135
100
AcDbEntity
100
AcDbLine
  8
HACHURE
 62
5
370
-1
  6
CONTINUOUS
 10
310.5720269999999914
 20
120.0292170000000027
 30
0.0
 11
294.0863860000000045
 21
114.0289340000000067
 31
0.0
  0
LINE
  5
136
100
AcDbEntity
100
AcDbLine
  8
HACHURE
 62
5
370
-1
  6
CONTINUOUS
 10
299.0494820000000118
 20
110.7675909999999959
 30
0.0
 11
312.0492669999999862
 21
115.499126000000004
 31
0.0
  0
LINE
  5
137
100
AcDbEntity
100
AcDbLine
  8
HACHURE
 62
5
370
-1
  6
CONTINUOUS
 10
312.048419000000024
 20
110.4310540000000032
 30
0.0
 11
299.0498269999999934
 21
105.6999540000000053
 31
0.0
  0
LINE
  5
138
100
AcDbEntity
100
AcDbLine
  8
HACHURE
 62
5
370
-1
  6
CONTINUOUS
 10
302.2008030000000076
 20
101.7790530000000047
 30
0.0
 11
316.627379000000019
 21
107.0298970000000054
 31
0.0
  0
LINE
  5
139
100
AcDbEntity
100
AcDbLine
  8
HACHURE
 62
5
370
-1
  6
CONTINUOUS
 10
319.0486920000000168
 20
102.8420689999999951
 30
0.0
 11
316.1306900000000155
 21
101.7800029999999936
 31
0.0
  0
ENDBLK
  5
13A
100
AcDbEntity
  8
0
100
AcDbBlockEnd
  0
BLOCK
  5
13B
100
AcDbEntity
  8
0
100
AcDbBlockBegin
  2
DESENS-G17
 70
0
 10
0.0
 20
0.0
 30
0.0
  3
DESENS-G17
  1

  0
LINE
  5
13C
100
AcDbEntity
100
AcDbLine
  8
HACHURE
 62
5
370
-1
  6
CONTINUOUS
 10
292.7931909999999789
 20
122.7986039999999974
 30
0.0
 11
291.5014659999999935
 21
120.028492
 31
0.0
  0
LINE
  5
13D
100
AcDbEntity
100
AcDbLine
  8
HACHURE
 62
5
370
-1
  6
CONTINUOUS
 10
295.0045289999999909
 20
120.0288460000000015
 30
0.0
 11
297.4372270000000071
 21
125.2457840000000004
 31
0.0
  0
LINE
  5
13E
100
AcDbEntity
100
AcDbLine
  8
HACHURE
 62
5
370
-1
  6
CONTINUOUS
 10
301.2659199999999942
 20
125.9420920000000024
 30
0.0
 11
299.2909629999999765
 21
121.7067830000000015
 31
0.0
  0
LINE
  5
13F
100
AcDbEntity
100
AcDbLine
  8
HACHURE
 62
5
370
-1
  6
CONTINUOUS
 10
303.1377529999999751
 20
122.444264000000004
 30
0.0
 11
305.0738620000000196
 21
126.5962609999999984
 31
0.0
  0
LINE
  5
140
100
AcDbEntity
100
AcDbLine
  8
HACHURE
 62
5
370
-1
  6
CONTINUOUS
 10
308.5469429999999988
 20
126.532320999999996
 30
0.0
 11
306.6800870000000145
 21
122.5288350000000008
 31
0.0
  0
LINE
  5
141
100
AcDbEntity
100
AcDbLine
  8
HACHURE
 62
5
370
-1
  6
CONTINUOUS
 10
310.1831490000000144
 20
122.5291890000000024
 30
0.0
 11
312.0521160000000123
 21
126.5372030000000052
 31
0.0
  0
LINE
  5
142
100
AcDbEntity
100
AcDbLine
  8
HACHURE
 62
5
370
-1
  6
CONTINUOUS
 10
315.316235000000006
 20
126.0227759999999932
 30
0.0
 11
313.6871170000000006
 21
122.5291210000000035
 31
0.0
  0
LINE
  5
143
100
AcDbEntity
100
AcDbLine
  8
HACHURE
 62
5
370
-1
  6
CONTINUOUS
 10
317.1901790000000005
 20
122.529475000000005
 30
0.0
 11
318.9037509999999997
 21
126.2042419999999936
 31
0.0
  0
LINE
  5
144
100
AcDbEntity
100
AcDbLine
  8
HACHURE
 62
5
370
-1
  6
CONTINUOUS
 10
321.0479480000000194
 20
123.2905010000000061
 30
0.0
 11
320.6928189999999859
 21
122.5289240000000035
 31
0.0
  0
ENDBLK
  5
145
100
AcDbEntity
  8
0
100
AcDbBlockEnd
  0
BLOCK
  5
146
100
AcDbEntity
  8
0
100
AcDbBlockBegin
  2
DESENS-G18
 70
0
 10
0.0
 20
0.0
 30
0.0
  3
DESENS-G18
  1

  0
LINE
  5
147
100
AcDbEntity
100
AcDbLine
  8
HACHURE
 62
5
370
-1
  6
CONTINUOUS
 10
284.0498519999999871
 20
138.1838970000000018
 30
0.0
 11
282.7111990000000219
 21
135.3131469999999865
 31
0.0
  0
LINE
  5
148
100
AcDbEntity
100
AcDbLine
  8
HACHURE
 62
5
370
-1
  6
CONTINUOUS
 10
285.2206059999999752
 20
133.1826049999999952
 30
0.0
 11
286.7811570000000074
 21
136.529217999999986
 31
0.0
  0
LINE
  5
149
100
AcDbEntity
100
AcDbLine
  8
HACHURE
 62
5
370
-1
  6
CONTINUOUS
 10
290.2848599999999806
 20
136.5291039999999896
 30
0.0
 11
288.6516639999999825
 21
133.0267029999999977
 31
0.0
  0
LINE
  5
14A
100
AcDbEntity
100
AcDbLine
  8
HACHURE
 62
5
370
-1
  6
CONTINUOUS
 10
292.3755669999999895
 20
133.5006569999999897
 30
0.0
 11
293.7878559999999766
 21
136.5293200000000127
 31
0.0
  0
LINE
  5
14B
100
AcDbEntity
100
AcDbLine
  8
HACHURE
 62
5
370
-1
  6
CONTINUOUS
 10
297.291560000000004
 20
136.5292059999999879
 30
0.0
 11
295.8079460000000154
 21
133.3475870000000043
 31
0.0
  0
LINE
  5
14C
100
AcDbEntity
100
AcDbLine
  8
HACHURE
 62
5
370
-1
  6
CONTINUOUS
 10
299.2756099999999719
 20
133.2720329999999933
 30
0.0
 11
300.7945550000000026
 21
136.5294210000000135
 31
0.0
  0
LINE
  5
14D
100
AcDbEntity
100
AcDbLine
  8
HACHURE
 62
5
370
-1
  6
CONTINUOUS
 10
305.9294259999999781
 20
140.0292059999999879
 30
0.0
 11
303.1193769999999859
 21
134.0030370000000062
 31
0.0
  0
ENDBLK
  5
14E
100
AcDbEntity
  8
0
100
AcDbBlockEnd
  0
BLOCK
  5
14F
100
AcDbEntity
  8
0
100
AcDbBlockBegin
  2
DESENS-G19
 70
0
 10
0.0
 20
0.0
 30
0.0
  3
DESENS-G19
  1

  0
LINE
  5
150
100
AcDbEntity
100
AcDbLine
  8
HACHURE
 62
5
370
-1
  6
CONTINUOUS
 10
294.0495329999999967
 20
110.3266909999999967
 30
0.0
 11
292.8573079999999891
 21
112.0293640000000011
 31
0.0
  0
LINE
  5
151
100
AcDbEntity
100
AcDbLine
  8
HACHURE
 62
5
370
-1
  6
CONTINUOUS
 10
288.9812820000000215
 20
112.0291809999999941
 30
0.0
 11
293.0072959999999966
 21
106.279437999999999
 31
0.0
  0
LINE
  5
152
100
AcDbEntity
100
AcDbLine
  8
HACHURE
 62
5
370
-1
  6
CONTINUOUS
 10
289.1316439999999943
 20
106.279516000000001
 30
0.0
 11
285.1058909999999855
 21
112.028886
 31
0.0
  0
LINE
  5
153
100
AcDbEntity
100
AcDbLine
  8
HACHURE
 62
5
370
-1
  6
CONTINUOUS
 10
281.2298660000000154
 20
112.028702999999993
 30
0.0
 11
283.3299170000000231
 21
109.0295179999999959
 31
0.0
  0
LINE
  5
154
100
AcDbEntity
100
AcDbLine
  8
HACHURE
 62
5
370
-1
  6
CONTINUOUS
 10
286.0497379999999907
 20
105.1452120000000008
 30
0.0
 11
286.5158059999999978
 21
104.4795979999999957
 31
0.0
  0
ENDBLK
  5
155
100
AcDbEntity
  8
0
100
AcDbBlockEnd
  0
BLOCK
  5
156
100
AcDbEntity
  8
0
100
AcDbBlockBegin
  2
DESENS-G20
 70
0
 10
0.0
 20
0.0
 30
0.0
  3
DESENS-G20
  1

  0
LINE
  5
157
100
AcDbEntity
100
AcDbLine
  8
HACHURE
 62
5
370
-1
  6
CONTINUOUS
 10
294.0495849999999791
 20
94.6321240000000046
 30
0.0
 11
292.896158000000014
 21
96.2793879999999973
 31
0.0
  0
LINE
  5
158
100
AcDbEntity
100
AcDbLine
  8
HACHURE
 62
5
370
-1
  6
CONTINUOUS
 10
287.7598760000000198
 20
98.0794470000000018
 30
0.0
 11
290.6653989999999794
 21
93.9299299999999988
 31
0.0
  0
LINE
  5
159
100
AcDbEntity
100
AcDbLine
  8
HACHURE
 62
5
370
-1
  6
CONTINUOUS
 10
286.7891280000000052
 20
93.9300520000000034
 30
0.0
 11
286.0496029999999905
 21
94.9862040000000007
 31
0.0
  0
ENDBLK
  5
15A
100
AcDbEntity
  8
0
100
AcDbBlockEnd
  0
BLOCK
  5
15B
100
AcDbEntity
  8
0
100
AcDbBlockBegin
  2
DESENS-G21
 70
0
 10
0.0
 20
0.0
 30
0.0
  3
DESENS-G21
  1

  0
LINE
  5
15C
100
AcDbEntity
100
AcDbLine
  8
HACHURE
 62
5
370
-1
  6
CONTINUOUS
 10
280.0065579999999841
 20
109.0293920000000014
 30
0.0
 11
278.2967699999999809
 21
112.6960440000000006
 31
0.0
  0
LINE
  5
15D
100
AcDbEntity
100
AcDbLine
  8
HACHURE
 62
5
370
-1
  6
CONTINUOUS
 10
275.9104679999999803
 20
112.5547830000000005
 30
0.0
 11
277.5543870000000197
 21
109.0293869999999998
 31
0.0
  0
LINE
  5
15E
100
AcDbEntity
100
AcDbLine
  8
HACHURE
 62
5
370
-1
  6
CONTINUOUS
 10
275.1022159999999985
 20
109.0293829999999957
 30
0.0
 11
273.7972169999999892
 21
111.8279619999999994
 31
0.0
  0
LINE
  5
15F
100
AcDbEntity
100
AcDbLine
  8
HACHURE
 62
5
370
-1
  6
CONTINUOUS
 10
270.9399030000000153
 20
112.6958649999999977
 30
0.0
 11
272.6495259999999803
 21
109.0295670000000001
 31
0.0
  0
LINE
  5
160
100
AcDbEntity
100
AcDbLine
  8
HACHURE
 62
5
370
-1
  6
CONTINUOUS
 10
270.1973550000000159
 20
109.029562999999996
 30
0.0
 11
268.4875670000000127
 21
112.6962149999999951
 31
0.0
  0
ENDBLK
  5
161
100
AcDbEntity
  8
0
100
AcDbBlockEnd
  0
BLOCK
  5
162
100
AcDbEntity
  8
0
100
AcDbBlockBegin
  2
DESENS-G22
 70
0
 10
0.0
 20
0.0
 30
0.0
  3
DESENS-G22
  1

  0
LINE
  5
163
100
AcDbEntity
100
AcDbLine
  8
HACHURE
 62
5
370
-1
  6
CONTINUOUS
 10
248.7261139999999955
 20
95.7960570000000047
 30
0.0
 11
237.8957240000000013
 21
88.2125369999999975
 31
0.0
  0
LINE
  5
164
100
AcDbEntity
100
AcDbLine
  8
HACHURE
 62
5
370
-1
  6
CONTINUOUS
 10
241.1743260000000078
 20
81.2058389999999974
 30
0.0
 11
247.6508599999999944
 21
85.7407570000000021
 31
0.0
  0
LINE
  5
165
100
AcDbEntity
100
AcDbLine
  8
HACHURE
 62
5
370
-1
  6
CONTINUOUS
 10
242.7486969999999928
 20
97.812224999999998
 30
0.0
 11
238.8291450000000111
 21
95.0677249999999958
 31
0.0
  0
LINE
  5
166
100
AcDbEntity
100
AcDbLine
  8
HACHURE
 62
5
370
-1
  6
CONTINUOUS
 10
237.441995999999989
 20
84.7940329999999989
 30
0.0
 11
248.5845899999999915
 21
92.5961620000000067
 31
0.0
  0
LINE
  5
167
100
AcDbEntity
100
AcDbLine
  8
HACHURE
 62
5
370
-1
  6
CONTINUOUS
 10
246.3013229999999965
 20
81.6950010000000049
 30
0.0
 11
245.6432220000000086
 21
81.2341940000000022
 31
0.0
  0
ENDBLK
  5
168
100
AcDbEntity
  8
0
100
AcDbBlockEnd
  0
BLOCK
  5
169
100
AcDbEntity
  8
0
100
AcDbBlockBegin
  2
DESENS-G23
 70
0
 10
0.0
 20
0.0
 30
0.0
  3
DESENS-G23
  1

  0
LINE
  5
16A
100
AcDbEntity
100
AcDbLine
  8
HACHURE
 62
5
370
-1
  6
CONTINUOUS
 10
284.8511480000000233
 20
109.0291880000000049
 30
0.0
 11
284.0496049999999855
 21
108.8144149999999968
 31
0.0
  0
LINE
  5
16B
100
AcDbEntity
100
AcDbLine
  8
HACHURE
 62
5
370
-1
  6
CONTINUOUS
 10
284.0496549999999729
 20
106.8421309999999949
 30
0.0
 11
286.0492980000000216
 21
107.3779339999999962
 31
0.0
  0
LINE
  5
16C
100
AcDbEntity
100
AcDbLine
  8
HACHURE
 62
5
370
-1
  6
CONTINUOUS
 10
286.0492209999999886
 20
105.4056170000000066
 30
0.0
 11
284.0497669999999744
 21
104.8698650000000043
 31
0.0
  0
ENDBLK
  5
16D
100
AcDbEntity
  8
0
100
AcDbBlockEnd
  0
BLOCK
  5
16E
100
AcDbEntity
  8
0
100
AcDbBlockBegin
  2
DESENS-G24
 70
0
 10
0.0
 20
0.0
 30
0.0
  3
DESENS-G24
  1

  0
LINE
  5
16F
100
AcDbEntity
100
AcDbLine
  8
HACHURE
 62
5
370
-1
  6
CONTINUOUS
 10
284.1768359999999802
 20
98.0793110000000041
 30
0.0
 11
284.049554999999998
 21
98.0452059999999932
 31
0.0
  0
LINE
  5
170
100
AcDbEntity
100
AcDbLine
  8
HACHURE
 62
5
370
-1
  6
CONTINUOUS
 10
284.0495730000000094
 20
96.0730410000000035
 30
0.0
 11
286.0495300000000043
 21
96.6089280000000059
 31
0.0
  0
LINE
  5
171
100
AcDbEntity
100
AcDbLine
  8
HACHURE
 62
5
370
-1
  6
CONTINUOUS
 10
286.0495010000000207
 20
94.6366840000000025
 30
0.0
 11
284.0496069999999804
 21
94.1008139999999997
 31
0.0
  0
ENDBLK
  5
172
100
AcDbEntity
  8
0
100
AcDbBlockEnd
  0
BLOCK
  5
173
100
AcDbEntity
  8
0
100
AcDbBlockBegin
  2
DESENS-G25
 70
0
 10
0.0
 20
0.0
 30
0.0
  3
DESENS-G25
  1

  0
LINE
  5
174
100
AcDbEntity
100
AcDbLine
  8
HACHURE
 62
5
370
-1
  6
CONTINUOUS
 10
270.5217349999999783
 20
120.0293350000000032
 30
0.0
 11
268.0495589999999879
 21
118.2982990000000001
 31
0.0
  0
LINE
  5
175
100
AcDbEntity
100
AcDbLine
  8
HACHURE
 62
5
370
-1
  6
CONTINUOUS
 10
269.1598190000000272
 20
116.3626330000000024
 30
0.0
 11
274.396632000000011
 21
120.0294889999999981
 31
0.0
  0
LINE
  5
176
100
AcDbEntity
100
AcDbLine
  8
HACHURE
 62
5
370
-1
  6
CONTINUOUS
 10
278.2715299999999843
 20
120.0296440000000047
 30
0.0
 11
274.276882999999998
 21
117.2325620000000015
 31
0.0
  0
LINE
  5
177
100
AcDbEntity
100
AcDbLine
  8
HACHURE
 62
5
370
-1
  6
CONTINUOUS
 10
276.910158000000024
 20
116.3628460000000047
 30
0.0
 11
280.0491739999999936
 21
118.5608090000000061
 31
0.0
  0
ENDBLK
  5
178
100
AcDbEntity
  8
0
100
AcDbBlockEnd
  0
BLOCK
  5
179
100
AcDbEntity
  8
0
100
AcDbBlockBegin
  2
DESENS-G26
 70
0
 10
0.0
 20
0.0
 30
0.0
  3
DESENS-G26
  1

  0
LINE
  5
17A
100
AcDbEntity
100
AcDbLine
  8
HACHURE
 62
5
370
-1
  6
CONTINUOUS
 10
268.6997010000000046
 20
143.6959050000000104
 30
0.0
 11
268.0494990000000257
 21
143.2406279999999867
 31
0.0
  0
LINE
  5
17B
100
AcDbEntity
100
AcDbLine
  8
HACHURE
 62
5
370
-1
  6
CONTINUOUS
 10
268.0494229999999902
 20
140.527497000000011
 30
0.0
 11
272.2690160000000219
 21
143.4820880000000045
 31
0.0
  0
LINE
  5
17C
100
AcDbEntity
100
AcDbLine
  8
HACHURE
 62
5
370
-1
  6
CONTINUOUS
 10
276.4491760000000227
 20
143.6959889999999973
 30
0.0
 11
271.2126830000000268
 21
140.0293570000000045
 31
0.0
  0
LINE
  5
17D
100
AcDbEntity
100
AcDbLine
  8
HACHURE
 62
5
370
-1
  6
CONTINUOUS
 10
275.0881239999999934
 20
140.0294159999999977
 30
0.0
 11
280.0491139999999746
 21
143.503138000000007
 31
0.0
  0
LINE
  5
17E
100
AcDbEntity
100
AcDbLine
  8
HACHURE
 62
5
370
-1
  6
CONTINUOUS
 10
280.0490379999999959
 20
140.7900070000000028
 30
0.0
 11
278.9627019999999789
 21
140.0293460000000039
 31
0.0
  0
ENDBLK
  5
17F
100
AcDbEntity
  8
0
100
AcDbBlockEnd
  0
BLOCK
  5
180
100
AcDbEntity
  8
0
100
AcDbBlockBegin
  2
DESENS-G27
 70
0
 10
0.0
 20
0.0
 30
0.0
  3
DESENS-G27
  1

  0
LINE
  5
181
100
AcDbEntity
100
AcDbLine
  8
HACHURE
 62
5
370
-1
  6
CONTINUOUS
 10
347.048281999999972
 20
124.9962110000000024
 30
0.0
 11
345.9057789999999954
 21
125.5289690000000036
 31
0.0
  0
LINE
  5
182
100
AcDbEntity
100
AcDbLine
  8
HACHURE
 62
5
370
-1
  6
CONTINUOUS
 10
338.3901220000000194
 20
125.5292579999999987
 30
0.0
 11
347.0486650000000282
 21
121.4917130000000043
 31
0.0
  0
LINE
  5
183
100
AcDbEntity
100
AcDbLine
  8
HACHURE
 62
5
370
-1
  6
CONTINUOUS
 10
347.0485259999999812
 20
117.9900200000000012
 30
0.0
 11
330.0499149999999986
 21
125.9166029999999949
 31
0.0
  0
LINE
  5
184
100
AcDbEntity
100
AcDbLine
  8
HACHURE
 62
5
370
-1
  6
CONTINUOUS
 10
330.0497970000000123
 20
122.4123380000000054
 30
0.0
 11
347.0489089999999806
 21
114.4855220000000031
 31
0.0
  0
LINE
  5
185
100
AcDbEntity
100
AcDbLine
  8
HACHURE
 62
5
370
-1
  6
CONTINUOUS
 10
347.048768999999993
 20
110.9838290000000001
 30
0.0
 11
330.0496570000000247
 21
118.9106450000000024
 31
0.0
  0
LINE
  5
186
100
AcDbEntity
100
AcDbLine
  8
HACHURE
 62
5
370
-1
  6
CONTINUOUS
 10
330.0495389999999816
 20
115.4063799999999986
 30
0.0
 11
347.0486510000000067
 21
107.4795639999999963
 31
0.0
  0
LINE
  5
187
100
AcDbEntity
100
AcDbLine
  8
HACHURE
 62
5
370
-1
  6
CONTINUOUS
 10
347.0490130000000022
 20
103.9776370000000014
 30
0.0
 11
330.049398999999994
 21
111.9046879999999931
 31
0.0
  0
LINE
  5
188
100
AcDbEntity
100
AcDbLine
  8
HACHURE
 62
5
370
-1
  6
CONTINUOUS
 10
330.0492810000000077
 20
108.4004230000000035
 30
0.0
 11
347.0488950000000159
 21
100.4733729999999952
 31
0.0
  0
LINE
  5
189
100
AcDbEntity
100
AcDbLine
  8
HACHURE
 62
5
370
-1
  6
CONTINUOUS
 10
347.0487769999999728
 20
96.9691080000000056
 30
0.0
 11
330.0491630000000214
 21
104.8961579999999998
 31
0.0
  0
LINE
  5
18A
100
AcDbEntity
100
AcDbLine
  8
HACHURE
 62
5
370
-1
  6
CONTINUOUS
 10
330.0495250000000169
 20
101.3942320000000024
 30
0.0
 11
347.0491390000000251
 21
93.4671809999999965
 31
0.0
  0
LINE
  5
18B
100
AcDbEntity
100
AcDbLine
  8
HACHURE
 62
5
370
-1
  6
CONTINUOUS
 10
347.049020999999982
 20
89.9629170000000045
 30
0.0
 11
330.0494069999999738
 21
97.8899669999999986
 31
0.0
  0
LINE
  5
18C
100
AcDbEntity
100
AcDbLine
  8
HACHURE
 62
5
370
-1
  6
CONTINUOUS
 10
330.0492669999999862
 20
94.3882739999999956
 30
0.0
 11
347.0488809999999944
 21
86.4612240000000014
 31
0.0
  0
LINE
  5
18D
100
AcDbEntity
100
AcDbLine
  8
HACHURE
 62
5
370
-1
  6
CONTINUOUS
 10
347.0492649999999912
 20
82.9567250000000058
 30
0.0
 11
330.0491489999999999
 21
90.884009000000006
 31
0.0
  0
LINE
  5
18E
100
AcDbEntity
100
AcDbLine
  8
HACHURE
 62
5
370
-1
  6
CONTINUOUS
 10
330.0490100000000098
 20
87.3823170000000005
 30
0.0
 11
344.9943260000000009
 21
80.4132010000000008
 31
0.0
  0
LINE
  5
18F
100
AcDbEntity
100
AcDbLine
  8
HACHURE
 62
5
370
-1
  6
CONTINUOUS
 10
341.0491139999999746
 20
78.7485640000000018
 30
0.0
 11
335.0492209999999886
 21
81.5463600000000071
 31
0.0
  0
ENDBLK
  5
190
100
AcDbEntity
  8
0
100
AcDbBlockEnd
  0
BLOCK
  5
191
100
AcDbEntity
  8
0
100
AcDbBlockBegin
  2
DESENS-G28
 70
0
 10
0.0
 20
0.0
 30
0.0
  3
DESENS-G28
  1

  0
LINE
  5
192
100
AcDbEntity
100
AcDbLine
  8
HACHURE
 62
5
370
-1
  6
CONTINUOUS
 10
315.4924990000000093
 20
144.1416209999999865
 30
0.0
 11
313.0534450000000106
 21
145.0293639999999868
 31
0.0
  0
LINE
  5
193
100
AcDbEntity
100
AcDbLine
  8
HACHURE
 62
5
370
-1
  6
CONTINUOUS
 10
312.0497490000000198
 20
144.0432270000000017
 30
0.0
 11
313.0495300000000043
 21
143.6793360000000064
 31
0.0
  0
LINE
  5
194
100
AcDbEntity
100
AcDbLine
  8
HACHURE
 62
5
370
-1
  6
CONTINUOUS
 10
313.0494739999999751
 20
142.3277850000000058
 30
0.0
 11
312.0495869999999741
 21
142.6917139999999904
 31
0.0
  0
LINE
  5
195
100
AcDbEntity
100
AcDbLine
  8
HACHURE
 62
5
370
-1
  6
CONTINUOUS
 10
312.0495690000000195
 20
141.3402690000000064
 30
0.0
 11
313.0495609999999829
 21
140.9763010000000065
 31
0.0
  0
ENDBLK
  5
196
100
AcDbEntity
  8
0
100
AcDbBlockEnd
  0
BLOCK
  5
197
100
AcDbEntity
  8
0
100
AcDbBlockBegin
  2
DESENS-G29
 70
0
 10
0.0
 20
0.0
 30
0.0
  3
DESENS-G29
  1

  0
LINE
  5
198
100
AcDbEntity
100
AcDbLine
  8
HACHURE
 62
5
370
-1
  6
CONTINUOUS
 10
319.0495300000000043
 20
118.166909000000004
 30
0.0
 11
317.1870220000000131
 21
120.0294169999999951
 31
0.0
  0
LINE
  5
199
100
AcDbEntity
100
AcDbLine
  8
HACHURE
 62
5
370
-1
  6
CONTINUOUS
 10
313.5950530000000072
 20
120.0293300000000016
 30
0.0
 11
317.5949019999999905
 21
116.0294810000000041
 31
0.0
  0
LINE
  5
19A
100
AcDbEntity
100
AcDbLine
  8
HACHURE
 62
5
370
-1
  6
CONTINUOUS
 10
314.0029329999999845
 20
116.0293929999999989
 30
0.0
 11
313.0495809999999892
 21
116.9827439999999967
 31
0.0
  0
ENDBLK
  5
19B
100
AcDbEntity
  8
0
100
AcDbBlockEnd
  0
BLOCK
  5
19C
100
AcDbEntity
  8
0
100
AcDbBlockBegin
  2
DESENS-G30
 70
0
 10
0.0
 20
0.0
 30
0.0
  3
DESENS-G30
  1

  0
LINE
  5
19D
100
AcDbEntity
100
AcDbLine
  8
HACHURE
 62
5
370
-1
  6
CONTINUOUS
 10
319.0495020000000181
 20
141.0222520000000088
 30
0.0
 11
316.042365000000018
 21
144.029389000000009
 31
0.0
  0
LINE
  5
19E
100
AcDbEntity
100
AcDbLine
  8
HACHURE
 62
5
370
-1
  6
CONTINUOUS
 10
313.0496410000000083
 20
143.4300560000000075
 30
0.0
 11
316.4502449999999953
 21
140.0294529999999895
 31
0.0
  0
ENDBLK
  5
19F
100
AcDbEntity
  8
0
100
AcDbBlockEnd
  0
BLOCK
  5
1A0
100
AcDbEntity
  8
0
100
AcDbBlockBegin
  2
DESENS-G31
 70
0
 10
0.0
 20
0.0
 30
0.0
  3
DESENS-G31
  1

  0
LINE
  5
1A1
100
AcDbEntity
100
AcDbLine
  8
HACHURE
 62
5
370
-1
  6
CONTINUOUS
 10
313.0495839999999816
 20
121.8976650000000035
 30
0.0
 11
312.6685069999999769
 21
122.036366000000001
 31
0.0
  0
LINE
  5
1A2
100
AcDbEntity
100
AcDbLine
  8
HACHURE
 62
5
370
-1
  6
CONTINUOUS
 10
312.0495720000000119
 20
120.9101480000000066
 30
0.0
 11
313.0495559999999955
 21
120.5461839999999967
 31
0.0
  0
LINE
  5
1A3
100
AcDbEntity
100
AcDbLine
  8
HACHURE
 62
5
370
-1
  6
CONTINUOUS
 10
313.0495579999999904
 20
119.1946930000000009
 30
0.0
 11
312.0495750000000044
 21
119.5586569999999966
 31
0.0
  0
LINE
  5
1A4
100
AcDbEntity
100
AcDbLine
  8
HACHURE
 62
5
370
-1
  6
CONTINUOUS
 10
312.0495769999999993
 20
118.2071650000000034
 30
0.0
 11
313.0495599999999854
 21
117.8432009999999934
 31
0.0
  0
LINE
  5
1A5
100
AcDbEntity
100
AcDbLine
  8
HACHURE
 62
5
370
-1
  6
CONTINUOUS
 10
313.049554999999998
 20
116.4915929999999946
 30
0.0
 11
312.0495720000000119
 21
116.8555570000000046
 31
0.0
  0
ENDBLK
  5
1A6
100
AcDbEntity
  8
0
100
AcDbBlockEnd
  0
BLOCK
  5
1A7
100
AcDbEntity
  8
0
100
AcDbBlockBegin
  2
DESENS-G32
 70
0
 10
0.0
 20
0.0
 30
0.0
  3
DESENS-G32
  1

  0
LINE
  5
1A8
100
AcDbEntity
100
AcDbLine
  8
HACHURE
 62
5
370
-1
  6
CONTINUOUS
 10
350.4135949999999866
 20
229.0294039999999995
 30
0.0
 11
347.0492590000000064
 21
226.6736699999999871
 31
0.0
  0
LINE
  5
1A9
100
AcDbEntity
100
AcDbLine
  8
HACHURE
 62
5
370
-1
  6
CONTINUOUS
 10
347.6655840000000239
 20
223.2293740000000071
 30
0.0
 11
355.948566000000028
 21
229.0291799999999967
 31
0.0
  0
LINE
  5
1AA
100
AcDbEntity
100
AcDbLine
  8
HACHURE
 62
5
370
-1
  6
CONTINUOUS
 10
357.049049000000025
 20
225.923497999999995
 30
0.0
 11
355.772324000000026
 21
225.0295260000000042
 31
0.0
  0
ENDBLK
  5
1AB
100
AcDbEntity
  8
0
100
AcDbBlockEnd
  0
BLOCK
  5
1AC
100
AcDbEntity
  8
0
100
AcDbBlockBegin
  2
DESENS-G33
 70
0
 10
0.0
 20
0.0
 30
0.0
  3
DESENS-G33
  1

  0
LINE
  5
1AD
100
AcDbEntity
100
AcDbLine
  8
HACHURE
 62
5
370
-1
  6
CONTINUOUS
 10
352.0489059999999881
 20
216.7366309999999885
 30
0.0
 11
347.0491989999999873
 21
213.2357979999999884
 31
0.0
  0
LINE
  5
1AE
100
AcDbEntity
100
AcDbLine
  8
HACHURE
 62
5
370
-1
  6
CONTINUOUS
 10
347.0495579999999904
 20
209.3602019999999868
 30
0.0
 11
355.1456170000000157
 21
215.0291239999999959
 31
0.0
  0
LINE
  5
1AF
100
AcDbEntity
100
AcDbLine
  8
HACHURE
 62
5
370
-1
  6
CONTINUOUS
 10
357.0489860000000135
 20
212.4856310000000121
 30
0.0
 11
356.5975450000000251
 21
212.1695290000000114
 31
0.0
  0
ENDBLK
  5
1B0
100
AcDbEntity
  8
0
100
AcDbBlockEnd
  0
BLOCK
  5
1B1
100
AcDbEntity
  8
0
100
AcDbBlockBegin
  2
DESENS-G34
 70
0
 10
0.0
 20
0.0
 30
0.0
  3
DESENS-G34
  1

  0
LINE
  5
1B2
100
AcDbEntity
100
AcDbLine
  8
HACHURE
 62
5
370
-1
  6
CONTINUOUS
 10
347.0487570000000233
 20
233.4190169999999966
 30
0.0
 11
346.2041679999999815
 21
233.8128550000000132
 31
0.0
  0
LINE
  5
1B3
100
AcDbEntity
100
AcDbLine
  8
HACHURE
 62
5
370
-1
  6
CONTINUOUS
 10
335.0488510000000133
 20
235.511650000000003
 30
0.0
 11
347.0491390000000251
 21
229.9158239999999864
 31
0.0
  0
LINE
  5
1B4
100
AcDbEntity
100
AcDbLine
  8
HACHURE
 62
5
370
-1
  6
CONTINUOUS
 10
347.0487850000000094
 20
226.4123629999999991
 30
0.0
 11
335.0489989999999807
 21
232.0079560000000072
 31
0.0
  0
LINE
  5
1B5
100
AcDbEntity
100
AcDbLine
  8
HACHURE
 62
5
370
-1
  6
CONTINUOUS
 10
331.6013100000000122
 20
230.1126240000000109
 30
0.0
 11
347.0486660000000256
 21
222.909403999999995
 31
0.0
  0
LINE
  5
1B6
100
AcDbEntity
100
AcDbLine
  8
HACHURE
 62
5
370
-1
  6
CONTINUOUS
 10
340.3515160000000037
 20
222.5293220000000076
 30
0.0
 11
330.0489319999999793
 21
227.3334949999999992
 31
0.0
  0
LINE
  5
1B7
100
AcDbEntity
100
AcDbLine
  8
HACHURE
 62
5
370
-1
  6
CONTINUOUS
 10
330.0490800000000036
 20
223.8298010000000033
 30
0.0
 11
333.9089129999999841
 21
222.0299310000000048
 31
0.0
  0
ENDBLK
  5
1B8
100
AcDbEntity
  8
0
100
AcDbBlockEnd
  0
BLOCK
  5
1B9
100
AcDbEntity
  8
0
100
AcDbBlockBegin
  2
DESENS-G35
 70
0
 10
0.0
 20
0.0
 30
0.0
  3
DESENS-G35
  1

  0
LINE
  5
1BA
100
AcDbEntity
100
AcDbLine
  8
HACHURE
 62
5
370
-1
  6
CONTINUOUS
 10
293.883197999999993
 20
163.7794389999999964
 30
0.0
 11
292.2379000000000246
 21
166.1291679999999928
 31
0.0
  0
LINE
  5
1BB
100
AcDbEntity
100
AcDbLine
  8
HACHURE
 62
5
370
-1
  6
CONTINUOUS
 10
288.3619919999999865
 20
166.1292259999999885
 30
0.0
 11
290.0072900000000118
 21
163.7794969999999921
 31
0.0
  0
LINE
  5
1BC
100
AcDbEntity
100
AcDbLine
  8
HACHURE
 62
5
370
-1
  6
CONTINUOUS
 10
287.3913939999999911
 20
161.9796169999999904
 30
0.0
 11
286.0496140000000196
 21
163.8958790000000079
 31
0.0
  0
ENDBLK
  5
1BD
100
AcDbEntity
  8
0
100
AcDbBlockEnd
  0
BLOCK
  5
1BE
100
AcDbEntity
  8
0
100
AcDbBlockBegin
  2
DESENS-G36
 70
0
 10
0.0
 20
0.0
 30
0.0
  3
DESENS-G36
  1

  0
LINE
  5
1BF
100
AcDbEntity
100
AcDbLine
  8
HACHURE
 62
5
370
-1
  6
CONTINUOUS
 10
286.0493940000000066
 20
155.350215999999989
 30
0.0
 11
284.0496259999999893
 21
154.8143799999999999
 31
0.0
  0
LINE
  5
1C0
100
AcDbEntity
100
AcDbLine
  8
HACHURE
 62
5
370
-1
  6
CONTINUOUS
 10
284.0496749999999793
 20
152.8420969999999954
 30
0.0
 11
286.049318000000028
 21
153.3778990000000135
 31
0.0
  0
LINE
  5
1C1
100
AcDbEntity
100
AcDbLine
  8
HACHURE
 62
5
370
-1
  6
CONTINUOUS
 10
286.0492419999999925
 20
151.4055820000000097
 30
0.0
 11
284.6459449999999833
 21
151.0295700000000068
 31
0.0
  0
ENDBLK
  5
1C2
100
AcDbEntity
  8
0
100
AcDbBlockEnd
  0
BLOCK
  5
1C3
100
AcDbEntity
  8
0
100
AcDbBlockBegin
  2
DESENS-G37
 70
0
 10
0.0
 20
0.0
 30
0.0
  3
DESENS-G37
  1

  0
LINE
  5
1C4
100
AcDbEntity
100
AcDbLine
  8
HACHURE
 62
5
370
-1
  6
CONTINUOUS
 10
286.0495000000000232
 20
166.1199740000000133
 30
0.0
 11
284.0495430000000283
 21
165.5840870000000109
 31
0.0
  0
LINE
  5
1C5
100
AcDbEntity
100
AcDbLine
  8
HACHURE
 62
5
370
-1
  6
CONTINUOUS
 10
284.0495609999999829
 20
163.6119229999999902
 30
0.0
 11
286.0495179999999777
 21
164.1478099999999927
 31
0.0
  0
LINE
  5
1C6
100
AcDbEntity
100
AcDbLine
  8
HACHURE
 62
5
370
-1
  6
CONTINUOUS
 10
286.0494889999999941
 20
162.175565000000006
 30
0.0
 11
285.317372999999975
 21
161.9793950000000109
 31
0.0
  0
ENDBLK
  5
1C7
100
AcDbEntity
  8
0
100
AcDbBlockEnd
  0
BLOCK
  5
1C8
100
AcDbEntity
  8
0
100
AcDbBlockBegin
  2
DESENS-G38
 70
0
 10
0.0
 20
0.0
 30
0.0
  3
DESENS-G38
  1

  0
LINE
  5
1C9
100
AcDbEntity
100
AcDbLine
  8
HACHURE
 62
5
370
-1
  6
CONTINUOUS
 10
324.1900079999999775
 20
181.8299409999999909
 30
0.0
 11
323.6306240000000116
 21
183.029545000000013
 31
0.0
  0
LINE
  5
1CA
100
AcDbEntity
100
AcDbLine
  8
HACHURE
 62
5
370
-1
  6
CONTINUOUS
 10
320.1270049999999969
 20
183.0298160000000109
 30
0.0
 11
320.68676099999999
 21
181.8294150000000116
 31
0.0
  0
LINE
  5
1CB
100
AcDbEntity
100
AcDbLine
  8
HACHURE
 62
5
370
-1
  6
CONTINUOUS
 10
317.1839390000000094
 20
181.8300580000000082
 30
0.0
 11
316.0413980000000151
 21
184.2802450000000078
 31
0.0
  0
LINE
  5
1CC
100
AcDbEntity
100
AcDbLine
  8
HACHURE
 62
5
370
-1
  6
CONTINUOUS
 10
312.5377799999999979
 20
184.2805160000000058
 30
0.0
 11
313.6806920000000218
 21
181.8295320000000004
 31
0.0
  0
LINE
  5
1CD
100
AcDbEntity
100
AcDbLine
  8
HACHURE
 62
5
370
-1
  6
CONTINUOUS
 10
310.1770740000000046
 20
181.8298029999999983
 30
0.0
 11
309.0345330000000104
 21
184.279989999999998
 31
0.0
  0
LINE
  5
1CE
100
AcDbEntity
100
AcDbLine
  8
HACHURE
 62
5
370
-1
  6
CONTINUOUS
 10
305.5309139999999957
 20
184.2802609999999959
 30
0.0
 11
306.6734549999999899
 21
181.8300739999999962
 31
0.0
  0
LINE
  5
1CF
100
AcDbEntity
100
AcDbLine
  8
HACHURE
 62
5
370
-1
  6
CONTINUOUS
 10
303.1710049999999796
 20
181.8299199999999871
 30
0.0
 11
302.0284639999999854
 21
184.2801069999999868
 31
0.0
  0
LINE
  5
1D0
100
AcDbEntity
100
AcDbLine
  8
HACHURE
 62
5
370
-1
  6
CONTINUOUS
 10
299.0500579999999786
 20
183.1540569999999946
 30
0.0
 11
299.6673860000000218
 21
181.8301910000000134
 31
0.0
  0
ENDBLK
  5
1D1
100
AcDbEntity
  8
0
100
AcDbBlockEnd
  0
BLOCK
  5
1D2
100
AcDbEntity
  8
0
100
AcDbBlockBegin
  2
DESENS-G39
 70
0
 10
0.0
 20
0.0
 30
0.0
  3
DESENS-G39
  1

  0
LINE
  5
1D3
100
AcDbEntity
100
AcDbLine
  8
HACHURE
 62
5
370
-1
  6
CONTINUOUS
 10
324.6593100000000049
 20
165.0296969999999988
 30
0.0
 11
323.2604769999999803
 21
168.0295030000000054
 31
0.0
  0
LINE
  5
1D4
100
AcDbEntity
100
AcDbLine
  8
HACHURE
 62
5
370
-1
  6
CONTINUOUS
 10
319.7571009999999774
 20
168.0298870000000022
 30
0.0
 11
321.1563059999999723
 21
165.0292839999999899
 31
0.0
  0
LINE
  5
1D5
100
AcDbEntity
100
AcDbLine
  8
HACHURE
 62
5
370
-1
  6
CONTINUOUS
 10
318.2357150000000274
 20
163.7798819999999864
 30
0.0
 11
316.2537259999999719
 21
168.030270999999999
 31
0.0
  0
LINE
  5
1D6
100
AcDbEntity
100
AcDbLine
  8
HACHURE
 62
5
370
-1
  6
CONTINUOUS
 10
312.7507219999999961
 20
168.0298589999999876
 30
0.0
 11
314.7327109999999948
 21
163.7794700000000034
 31
0.0
  0
LINE
  5
1D7
100
AcDbEntity
100
AcDbLine
  8
HACHURE
 62
5
370
-1
  6
CONTINUOUS
 10
311.2293349999999919
 20
163.7798540000000003
 30
0.0
 11
309.2473459999999932
 21
168.0302430000000129
 31
0.0
  0
LINE
  5
1D8
100
AcDbEntity
100
AcDbLine
  8
HACHURE
 62
5
370
-1
  6
CONTINUOUS
 10
305.7443420000000174
 20
168.0298310000000015
 30
0.0
 11
307.7259599999999864
 21
163.7802379999999971
 31
0.0
  0
LINE
  5
1D9
100
AcDbEntity
100
AcDbLine
  8
HACHURE
 62
5
370
-1
  6
CONTINUOUS
 10
304.2229560000000106
 20
163.7798260000000141
 30
0.0
 11
302.2409670000000119
 21
168.0302149999999983
 31
0.0
  0
LINE
  5
1DA
100
AcDbEntity
100
AcDbLine
  8
HACHURE
 62
5
370
-1
  6
CONTINUOUS
 10
299.0499699999999734
 20
167.3607010000000059
 30
0.0
 11
300.7195800000000077
 21
163.780210000000011
 31
0.0
  0
ENDBLK
  5
1DB
100
AcDbEntity
  8
0
100
AcDbBlockEnd
  0
BLOCK
  5
1DC
100
AcDbEntity
  8
0
100
AcDbBlockBegin
  2
DESENS-G40
 70
0
 10
0.0
 20
0.0
 30
0.0
  3
DESENS-G40
  1

  0
LINE
  5
1DD
100
AcDbEntity
100
AcDbLine
  8
HACHURE
 62
5
370
-1
  6
CONTINUOUS
 10
301.0498610000000212
 20
178.9185390000000098
 30
0.0
 11
299.9663469999999847
 21
177.8350240000000042
 31
0.0
  0
LINE
  5
1DE
100
AcDbEntity
100
AcDbLine
  8
HACHURE
 62
5
370
-1
  6
CONTINUOUS
 10
300.9788710000000265
 20
175.2555560000000128
 30
0.0
 11
303.252475000000004
 21
177.5291609999999878
 31
0.0
  0
LINE
  5
1DF
100
AcDbEntity
100
AcDbLine
  8
HACHURE
 62
5
370
-1
  6
CONTINUOUS
 10
306.8444079999999872
 20
177.5291009999999972
 30
0.0
 11
304.4896719999999846
 21
175.1743649999999946
 31
0.0
  0
LINE
  5
1E0
100
AcDbEntity
100
AcDbLine
  8
HACHURE
 62
5
370
-1
  6
CONTINUOUS
 10
307.4147889999999848
 20
174.50748999999999
 30
0.0
 11
310.4368200000000115
 21
177.5295209999999884
 31
0.0
  0
LINE
  5
1E1
100
AcDbEntity
100
AcDbLine
  8
HACHURE
 62
5
370
-1
  6
CONTINUOUS
 10
314.0287529999999947
 20
177.5294609999999977
 30
0.0
 11
311.6394520000000057
 21
175.1401600000000087
 31
0.0
  0
LINE
  5
1E2
100
AcDbEntity
100
AcDbLine
  8
HACHURE
 62
5
370
-1
  6
CONTINUOUS
 10
315.0398369999999773
 20
174.947591999999986
 30
0.0
 11
320.1218420000000151
 21
180.0295969999999954
 31
0.0
  0
ENDBLK
  5
1E3
100
AcDbEntity
  8
0
100
AcDbBlockEnd
  0
BLOCK
  5
1E4
100
AcDbEntity
  8
0
100
AcDbBlockBegin
  2
DESENS-G41
 70
0
 10
0.0
 20
0.0
 30
0.0
  3
DESENS-G41
  1

  0
LINE
  5
1E5
100
AcDbEntity
100
AcDbLine
  8
HACHURE
 62
5
370
-1
  6
CONTINUOUS
 10
299.0495520000000056
 20
168.9111790000000042
 30
0.0
 11
298.0495730000000094
 21
168.6432350000000042
 31
0.0
  0
LINE
  5
1E6
100
AcDbEntity
100
AcDbLine
  8
HACHURE
 62
5
370
-1
  6
CONTINUOUS
 10
298.0495829999999842
 20
167.6571509999999989
 30
0.0
 11
299.0495300000000043
 21
167.9250859999999932
 31
0.0
  0
LINE
  5
1E7
100
AcDbEntity
100
AcDbLine
  8
HACHURE
 62
5
370
-1
  6
CONTINUOUS
 10
299.0495389999999816
 20
166.9390019999999879
 30
0.0
 11
298.0495920000000183
 21
166.6710669999999936
 31
0.0
  0
ENDBLK
  5
1E8
100
AcDbEntity
  8
0
100
AcDbBlockEnd
  0
BLOCK
  5
1E9
100
AcDbEntity
  8
0
100
AcDbBlockBegin
  2
DESENS-G42
 70
0
 10
0.0
 20
0.0
 30
0.0
  3
DESENS-G42
  1

  0
LINE
  5
1EA
100
AcDbEntity
100
AcDbLine
  8
HACHURE
 62
5
370
-1
  6
CONTINUOUS
 10
347.0490260000000262
 20
214.9239680000000021
 30
0.0
 11
341.4618980000000192
 21
217.5292890000000057
 31
0.0
  0
LINE
  5
1EB
100
AcDbEntity
100
AcDbLine
  8
HACHURE
 62
5
370
-1
  6
CONTINUOUS
 10
332.8779749999999922
 20
218.0290520000000072
 30
0.0
 11
347.0489170000000172
 21
211.4210329999999942
 31
0.0
  0
LINE
  5
1EC
100
AcDbEntity
100
AcDbLine
  8
HACHURE
 62
5
370
-1
  6
CONTINUOUS
 10
347.0490760000000137
 20
207.9173629999999946
 30
0.0
 11
330.0494620000000054
 21
215.844413000000003
 31
0.0
  0
LINE
  5
1ED
100
AcDbEntity
100
AcDbLine
  8
HACHURE
 62
5
370
-1
  6
CONTINUOUS
 10
330.0493539999999939
 20
212.3414779999999951
 30
0.0
 11
347.0489680000000021
 21
204.4144279999999867
 31
0.0
  0
LINE
  5
1EE
100
AcDbEntity
100
AcDbLine
  8
HACHURE
 62
5
370
-1
  6
CONTINUOUS
 10
347.0491269999999986
 20
200.9107579999999871
 30
0.0
 11
330.0495129999999904
 21
208.8378079999999954
 31
0.0
  0
LINE
  5
1EF
100
AcDbEntity
100
AcDbLine
  8
HACHURE
 62
5
370
-1
  6
CONTINUOUS
 10
330.0494049999999788
 20
205.3348729999999875
 30
0.0
 11
343.570855999999992
 21
199.0297170000000051
 31
0.0
  0
LINE
  5
1F0
100
AcDbEntity
100
AcDbLine
  8
HACHURE
 62
5
370
-1
  6
CONTINUOUS
 10
336.0582170000000133
 20
199.0299320000000023
 30
0.0
 11
330.0492960000000267
 21
201.8319380000000081
 31
0.0
  0
ENDBLK
  5
1F1
100
AcDbEntity
  8
0
100
AcDbBlockEnd
  0
BLOCK
  5
1F2
100
AcDbEntity
  8
0
100
AcDbBlockBegin
  2
DESENS-G43
 70
0
 10
0.0
 20
0.0
 30
0.0
  3
DESENS-G43
  1

  0
LINE
  5
1F3
100
AcDbEntity
100
AcDbLine
  8
HACHURE
 62
5
370
-1
  6
CONTINUOUS
 10
347.0489910000000009
 20
247.2437889999999925
 30
0.0
 11
345.1846879999999942
 21
248.113127999999989
 31
0.0
  0
LINE
  5
1F4
100
AcDbEntity
100
AcDbLine
  8
HACHURE
 62
5
370
-1
  6
CONTINUOUS
 10
337.6725000000000136
 20
248.1127700000000118
 30
0.0
 11
343.4626030000000014
 21
245.4128000000000043
 31
0.0
  0
LINE
  5
1F5
100
AcDbEntity
100
AcDbLine
  8
HACHURE
 62
5
370
-1
  6
CONTINUOUS
 10
340.2396110000000249
 20
243.4127880000000062
 30
0.0
 11
335.0495819999999867
 21
245.8329380000000128
 31
0.0
  0
ENDBLK
  5
1F6
100
AcDbEntity
  8
0
100
AcDbBlockEnd
  0
ENDSEC
  0
SECTION
  2
ENTITIES
  0
LINE
  5
1F7
100
AcDbEntity
100
AcDbLine
  8
FORT
 62
7
370
-1
  6
CONTINUOUS
 10
10.0
 20
287.0
 30
0.0
 11
410.0
 21
287.0
 31
0.0
  0
LINE
  5
1F8
100
AcDbEntity
100
AcDbLine
  8
FORT
 62
7
370
-1
  6
CONTINUOUS
 10
196.0495669999999961
 20
140.0293470000000013
 30
0.0
 11
264.0495670000000246
 21
140.0293470000000013
 31
0.0
  0
LINE
  5
1F9
100
AcDbEntity
100
AcDbLine
  8
FORT
 62
7
370
-1
  6
CONTINUOUS
 10
196.0495669999999961
 20
120.0293470000000013
 30
0.0
 11
264.0495670000000246
 21
120.0293470000000013
 31
0.0
  0
LINE
  5
1FA
100
AcDbEntity
100
AcDbLine
  8
FORT
 62
7
370
-1
  6
CONTINUOUS
 10
189.7579000000000065
 20
88.0291799999999967
 30
0.0
 11
280.1952170000000137
 21
76.032275999999996
 31
0.0
  0
LINE
  5
1FB
100
AcDbEntity
100
AcDbLine
  8
FORT
 62
7
370
-1
  6
CONTINUOUS
 10
192.8131860000000017
 20
172.8673090000000059
 30
0.0
 11
274.9204280000000153
 21
234.6767499999999984
 31
0.0
  0
LINE
  5
1FC
100
AcDbEntity
100
AcDbLine
  8
FORT
 62
7
370
-1
  6
CONTINUOUS
 10
202.6464599999999905
 20
111.0291799999999967
 30
0.0
 11
268.0495670000000246
 21
111.0291799999999967
 31
0.0
  0
LINE
  5
1FD
100
AcDbEntity
100
AcDbLine
  8
FORT
 62
7
370
-1
  6
CONTINUOUS
 10
202.6495669999999905
 20
149.029514000000006
 30
0.0
 11
268.0495670000000246
 21
149.029514000000006
 31
0.0
  0
LINE
  5
1FE
100
AcDbEntity
100
AcDbLine
  8
FORT
 62
7
370
-1
  6
CONTINUOUS
 10
196.3412339999999858
 20
159.029514000000006
 30
0.0
 11
254.7579000000000065
 21
159.029514000000006
 31
0.0
  0
LINE
  5
1FF
100
AcDbEntity
100
AcDbLine
  8
FORT
 62
7
370
-1
  6
CONTINUOUS
 10
196.3412339999999858
 20
101.0291799999999967
 30
0.0
 11
254.7579000000000065
 21
101.0291799999999967
 31
0.0
  0
LWPOLYLINE
  5
200
  8
HACHURE
 62
5
370
-1
  6
CONTINUOUS
100
AcDbEntity
100
AcDbPolyline
 90
50
 70
1
 10
284.0495670000000246
 20
156.2793470000000013
 10
273.5495670000000246
 20
156.2793470000000013
 10
273.0495670000000246
 20
156.7793470000000013
 10
264.0491210000000137
 20
156.7793470000000013
 10
262.8944210000000226
 20
158.7793470000000013
 10
264.0491210000000137
 20
160.7793470000000013
 10
273.0495670000000246
 20
160.7793470000000013
 10
273.5495670000000246
 20
161.2793470000000013
 10
284.0495670000000246
 20
161.2793470000000013
 10
284.0495670000000246
 20
166.1290679999999895
 42
-0.3354129999722646
 10
281.0498999999999796
 20
170.0976009995886216
 10
281.0498999999999796
 20
224.9873469999999998
 42
-0.4142139999528726
 10
285.1748999999999796
 20
229.1123469999999998
 10
324.0492340000000127
 20
229.1123469999999998
 10
324.0492340000000127
 20
230.1125140000000044
 10
335.0492340000000127
 20
230.1125140000000044
 10
335.0492340000000127
 20
236.6126800000000117
 10
321.5492340000000127
 20
236.6126800000000117
 10
321.0492340000000127
 20
237.1126800000000117
 10
310.0488960000000134
 20
237.1126800000000117
 10
308.6055200000000127
 20
239.6126800000000117
 10
310.0488960000000134
 20
242.1126800000000117
 10
321.0492340000000127
 20
242.1126800000000117
 10
321.5492340000000127
 20
242.6126800000000117
 10
335.0492340000000127
 20
242.6126800000000117
 10
335.0492340000000127
 20
248.1128469999999879
 10
309.8142389999999864
 20
248.1128469999999879
 42
0.3555449999999959
 10
301.9807300000000509
 20
241.7364629999999863
 42
-0.3555450000000103
 10
298.7575669999999946
 20
239.1128469999999595
 10
285.2165669999999977
 20
239.1128469999999879
 42
0.4142140000192058
 10
271.0498999999999228
 20
224.9461799990711199
 10
271.0498999999999796
 20
169.1543470000000013
 42
-0.4248179999999952
 10
267.7582340000000158
 20
166.0291800000000251
 10
263.7302050000000122
 20
166.0291799999999967
 42
0.3396969999999991
 10
257.9332979999999793
 20
161.5770410000000084
 42
-0.3279219999999992
 10
254.7579000000000065
 20
159.029514000000006
 10
196.3412339999999858
 20
159.029514000000006
 42
-0.4142140000362936
 10
193.0495670000000246
 20
162.3211800004078782
 10
193.0495669999999961
 20
168.7378469999999879
 42
0.4142139999528698
 10
189.7579000000000065
 20
172.029514000000006
 10
183.0495669999999961
 20
172.029514000000006
 10
183.0495669999999961
 20
152.5293470000000013
 10
179.5495669999999961
 20
152.5293470000000013
 10
178.0495669999999961
 20
151.0293470000000013
 10
178.0495669999999961
 20
147.5291799999999967
 10
201.0526739999999961
 20
147.5291799999999967
 42
-0.3960730000000013
 10
202.6495669999999905
 20
149.029514000000006
 10
268.0495670000000246
 20
149.029514000000006
 10
268.0495670000000246
 20
151.029514000000006
 10
284.0495670000000246
 20
151.029514000000006
  0
INSERT
  5
201
100
AcDbEntity
100
AcDbBlockReference
  8
HACHURE
 62
256
370
-1
  6
ByLayer
  2
DESENS-G2
 10
0.0
 20
0.0
 30
0.0
  0
LWPOLYLINE
  5
202
  8
HACHURE
 62
5
370
-1
  6
CONTINUOUS
100
AcDbEntity
100
AcDbPolyline
 90
51
 70
1
 10
284.0495670000000246
 20
109.0291799999999967
 10
268.0495670000000246
 20
109.0291799999999967
 10
268.0495670000000246
 20
111.0291799999999967
 10
202.6464599999999905
 20
111.0291799999999967
 42
-0.3960730000000016
 10
201.0495669999999677
 20
112.529514000000006
 10
178.0495669999999961
 20
112.529514000000006
 10
178.0495669999999961
 20
109.0293470000000013
 10
179.5495669999999961
 20
107.5293470000000013
 10
183.0495669999999961
 20
107.5293470000000013
 10
183.0495669999999961
 20
88.0291799999999967
 10
189.7579000000000065
 20
88.0291799999999967
 42
0.4142139999756749
 10
193.0495669999999677
 20
91.3208469997266405
 10
193.0495669999999961
 20
97.7375140000000044
 42
-0.4142140001522421
 10
196.3412339999999858
 20
101.0291799999999967
 10
254.7579000000000065
 20
101.0291799999999967
 42
-0.3279219999999993
 10
257.9332979999999793
 20
98.4816529999999943
 42
0.3396969999999984
 10
263.7302050000000122
 20
94.029514000000006
 10
267.7582340000000158
 20
94.029514000000006
 42
-0.4142139999780363
 10
271.0498999999999796
 20
90.7378470002468305
 10
271.0498999999999796
 20
89.6126799999999974
 10
271.0498999999999796
 20
89.2791799999999967
 42
0.4142139999404678
 10
285.2165669999999977
 20
75.1125139999999902
 10
298.7575669999999946
 20
75.1125140000000044
 42
-0.355545000000003
 10
301.9807299999999941
 20
72.488898000000006
 42
0.3555449999999963
 10
309.8142389999999864
 20
66.112513999999976
 10
335.0492340000000127
 20
66.1125140000000044
 10
335.0492340000000127
 20
71.6126799999999974
 10
321.5492340000000127
 20
71.6126799999999974
 10
321.0492340000000127
 20
72.1126799999999974
 10
310.0488960000000134
 20
72.1126799999999974
 10
308.6055200000000127
 20
74.6126799999999974
 10
310.0488960000000134
 20
77.1126799999999974
 10
321.0492340000000127
 20
77.1126799999999974
 10
321.5492340000000127
 20
77.6126799999999974
 10
335.0492340000000127
 20
77.6126799999999974
 10
335.0492340000000127
 20
84.1128470000000021
 10
324.0492340000000127
 20
84.1128470000000021
 10
324.0492340000000127
 20
85.1130140000000068
 10
285.1748999999999796
 20
85.1130140000000068
 42
-0.4083139999999991
 10
281.0507400000000189
 20
89.1547639999999859
 10
281.0507400000000189
 20
90.0443439999999953
 42
-0.329809000000002
 10
284.0495670000000246
 20
93.9296260000000132
 10
284.0495670000000246
 20
98.7793470000000013
 10
273.5495670000000246
 20
98.7793470000000013
 10
273.0495670000000246
 20
99.2793470000000013
 10
264.0491210000000137
 20
99.2793470000000013
 10
262.8944210000000226
 20
101.2793470000000013
 10
264.0491210000000137
 20
103.2793470000000013
 10
273.0495670000000246
 20
103.2793470000000013
 10
273.5495670000000246
 20
103.7793470000000013
 10
284.0495670000000246
 20
103.7793470000000013
  0
INSERT
  5
203
100
AcDbEntity
100
AcDbBlockReference
  8
HACHURE
 62
256
370
-1
  6
ByLayer
  2
DESENS-G3
 10
0.0
 20
0.0
 30
0.0
  0
LINE
  5
204
100
AcDbEntity
100
AcDbLine
  8
FORT
 62
7
370
-1
  6
CONTINUOUS
 10
10.0
 20
10.0
 30
0.0
 11
10.0
 21
287.0
 31
0.0
  0
ARC
  5
205
100
AcDbEntity
  8
FORT
 62
7
370
-1
  6
CONTINUOUS
100
AcDbCircle
 10
34.5601649999999978
 20
157.1126800000000117
 30
0.0
 40
91.0001670000000047
100
AcDbArc
 50
270.0
 51
90.0
  0
LINE
  5
206
100
AcDbEntity
100
AcDbLine
  8
FORT
 62
7
370
-1
  6
CONTINUOUS
 10
178.0495669999999961
 20
137.5293470000000013
 30
0.0
 11
178.0495669999999961
 21
151.0293470000000013
 31
0.0
  0
ARC
  5
207
100
AcDbEntity
  8
FORT
 62
7
370
-1
  6
CONTINUOUS
100
AcDbCircle
 10
202.6495669999999905
 20
147.4295140000000117
 30
0.0
 40
1.6000000000000001
100
AcDbArc
 50
90.0
 51
180.0
  0
ARC
  5
208
100
AcDbEntity
  8
FORT
 62
7
370
-1
  6
CONTINUOUS
100
AcDbCircle
 10
140.8499889999999937
 20
28.8331279999999985
 30
0.0
 40
42.0
100
AcDbArc
 50
90.0
 51
180.0
  0
ARC
  5
209
100
AcDbEntity
  8
FORT
 62
7
370
-1
  6
CONTINUOUS
100
AcDbCircle
 10
34.5601649999999978
 20
74.6126799999999974
 30
0.0
 40
5.0
100
AcDbArc
 50
270.0
 51
90.0
  0
ARC
  5
20A
100
AcDbEntity
  8
FORT
 62
7
370
-1
  6
CONTINUOUS
100
AcDbCircle
 10
34.5601649999999978
 20
74.6126799999999974
 30
0.0
 40
5.7999999999999998
100
AcDbArc
 50
270.0
 51
90.0
  0
MTEXT
  5
20B
100
AcDbEntity
100
AcDbMText
  8
TEXTE
 62
7
370
-1
  6
CONTINUOUS
 10
105.0916660000000036
 20
70.0397549999999995
 30
0.0
 40
5.0
 41
100.0
 71
7
 72
2
  1
F
  7
iso9
 50
0.0
 73
1
 44
1.0
  0
MTEXT
  5
20C
100
AcDbEntity
100
AcDbMText
  8
TEXTE
 62
7
370
-1
  6
CONTINUOUS
 10
33.094177000000002
 20
30.8617689999999989
 30
0.0
 40
5.0
 41
100.0
 71
7
 72
2
  1
A
  7
iso9
 50
0.0
 73
1
 44
1.0
  0
LINE
  5
20D
100
AcDbEntity
100
AcDbLine
  8
FORT
 62
7
370
-1
  6
CONTINUOUS
 10
34.5601649999999978
 20
38.5627240000000029
 30
0.0
 11
34.5601649999999978
 21
48.5627240000000029
 31
0.0
  0
LINE
  5
20E
100
AcDbEntity
100
AcDbLine
  8
FORT
 62
7
370
-1
  6
CONTINUOUS
 10
34.5601649999999978
 20
49.5627240000000029
 30
0.0
 11
34.5601649999999978
 21
51.5627240000000029
 31
0.0
  0
LINE
  5
20F
100
AcDbEntity
100
AcDbLine
  8
FORT
 62
7
370
-1
  6
CONTINUOUS
 10
34.5601649999999978
 20
52.5627240000000029
 30
0.0
 11
34.5601649999999978
 21
57.5627240000000029
 31
0.0
  0
LINE
  5
210
100
AcDbEntity
100
AcDbLine
  8
FORT
 62
7
370
-1
  6
CONTINUOUS
 10
25.1415539999999993
 20
43.2293900000000022
 30
0.0
 11
34.5601649999999978
 21
43.2293900000000022
 31
0.0
  0
LINE
  5
211
100
AcDbEntity
100
AcDbLine
  8
FORT
 62
7
370
-1
  6
CONTINUOUS
 10
34.5601649999999978
 20
43.2293900000000022
 30
0.0
 11
31.7601650000000006
 21
42.2960569999999976
 31
0.0
  0
LINE
  5
212
100
AcDbEntity
100
AcDbLine
  8
FORT
 62
7
370
-1
  6
CONTINUOUS
 10
34.5601649999999978
 20
43.2293900000000022
 30
0.0
 11
31.7601650000000006
 21
44.1627239999999972
 31
0.0
  0
LINE
  5
213
100
AcDbEntity
100
AcDbLine
  8
FIN
 62
5
370
-1
  6
CONTINUOUS
 10
32.0601649999999978
 20
61.6249109999999973
 30
0.0
 11
37.0601649999999978
 21
61.6249109999999973
 31
0.0
  0
LINE
  5
214
100
AcDbEntity
100
AcDbLine
  8
FIN
 62
5
370
-1
  6
CONTINUOUS
 10
32.0601649999999978
 20
63.1249109999999973
 30
0.0
 11
37.0601649999999978
 21
63.1249109999999973
 31
0.0
  0
LINE
  5
215
100
AcDbEntity
100
AcDbLine
  8
FIN
 62
5
370
-1
  6
CONTINUOUS
 10
95.8623860000000008
 20
26.3331279999999985
 30
0.0
 11
95.8623860000000008
 21
31.3331279999999985
 31
0.0
  0
LINE
  5
216
100
AcDbEntity
100
AcDbLine
  8
FIN
 62
5
370
-1
  6
CONTINUOUS
 10
94.3623860000000008
 20
26.3331279999999985
 30
0.0
 11
94.3623860000000008
 21
31.3331279999999985
 31
0.0
  0
LINE
  5
217
100
AcDbEntity
100
AcDbLine
  8
FORT
 62
7
370
-1
  6
CONTINUOUS
 10
37.4469169999999991
 20
74.6126799999999974
 30
0.0
 11
36.0035409999999985
 21
72.1126799999999974
 31
0.0
  0
LINE
  5
218
100
AcDbEntity
100
AcDbLine
  8
FORT
 62
7
370
-1
  6
CONTINUOUS
 10
34.5601649999999978
 20
72.1126799999999974
 30
0.0
 11
36.0035409999999985
 21
72.1126799999999974
 31
0.0
  0
LINE
  5
219
100
AcDbEntity
100
AcDbLine
  8
FORT
 62
7
370
-1
  6
CONTINUOUS
 10
36.0035409999999985
 20
77.1126799999999974
 30
0.0
 11
37.4469169999999991
 21
74.6126799999999974
 31
0.0
  0
LINE
  5
21A
100
AcDbEntity
100
AcDbLine
  8
FORT
 62
7
370
-1
  6
CONTINUOUS
 10
34.5601649999999978
 20
77.1126799999999974
 30
0.0
 11
36.0035409999999985
 21
77.1126799999999974
 31
0.0
  0
ARC
  5
21B
100
AcDbEntity
  8
FORT
 62
7
370
-1
  6
CONTINUOUS
100
AcDbCircle
 10
34.5601649999999978
 20
128.0293470000000013
 30
0.0
 40
2.0
100
AcDbArc
 50
270.0
 51
90.0
  0
ARC
  5
21C
100
AcDbEntity
  8
FIN
 62
5
370
-1
  6
CONTINUOUS
100
AcDbCircle
 10
34.5601649999999978
 20
128.0293470000000013
 30
0.0
 40
2.5
100
AcDbArc
 50
358.4428580000000011
 51
90.0
  0
CIRCLE
  5
21D
100
AcDbEntity
100
AcDbCircle
  8
FORT
 62
7
370
-1
  6
CONTINUOUS
 10
106.0072609999999997
 20
115.8626799999999974
 30
0.0
 40
5.7999999999999998
  0
CIRCLE
  5
21E
100
AcDbEntity
100
AcDbCircle
  8
FORT
 62
7
370
-1
  6
CONTINUOUS
 10
67.0870769999999936
 20
141.5024349999999913
 30
0.0
 40
2.0
  0
CIRCLE
  5
21F
100
AcDbEntity
100
AcDbCircle
  8
FORT
 62
7
370
-1
  6
CONTINUOUS
 10
106.0072609999999997
 20
115.8626799999999974
 30
0.0
 40
5.0
  0
LWPOLYLINE
  5
220
  8
FORT
 62
7
370
-1
  6
CONTINUOUS
100
AcDbEntity
100
AcDbPolyline
 90
6
 70
1
 10
104.5638849999999991
 20
118.3626799999999974
 10
107.4506370000000004
 20
118.3626799999999974
 10
108.8940120000000036
 20
115.8626799999999974
 10
107.4506370000000004
 20
113.3626799999999974
 10
104.5638849999999991
 20
113.3626799999999974
 10
103.1205099999999959
 20
115.8626799999999974
  0
ARC
  5
221
100
AcDbEntity
  8
FIN
 62
5
370
-1
  6
CONTINUOUS
100
AcDbCircle
 10
67.0870769999999936
 20
141.5024349999999913
 30
0.0
 40
2.5
100
AcDbArc
 50
358.4428580000000011
 51
270.0
  0
LINE
  5
222
100
AcDbEntity
100
AcDbLine
  8
FIN
 62
5
370
-1
  6
CONTINUOUS
 10
172.0
 20
50.0
 30
0.0
 11
184.0495669999999961
 21
120.5293470000000013
 31
0.0
  0
LINE
  5
223
100
AcDbEntity
100
AcDbLine
  8
FIN
 62
5
370
-1
  6
CONTINUOUS
 10
190.5495669999999961
 20
117.529430000000005
 30
0.0
 11
202.0
 21
50.0
 31
0.0
  0
LINE
  5
224
100
AcDbEntity
100
AcDbLine
  8
FIN
 62
5
370
-1
  6
CONTINUOUS
 10
222.0
 20
50.0
 30
0.0
 11
216.7299500000000023
 21
125.117906000000005
 31
0.0
  0
ARC
  5
225
100
AcDbEntity
  8
FORT
 62
7
370
-1
  6
CONTINUOUS
100
AcDbCircle
 10
140.8499889999999937
 20
28.8331279999999985
 30
0.0
 40
22.5
100
AcDbArc
 50
90.0
 51
180.0
  0
ARC
  5
226
100
AcDbEntity
  8
FORT
 62
7
370
-1
  6
CONTINUOUS
100
AcDbCircle
 10
140.8499889999999937
 20
28.8331279999999985
 30
0.0
 40
21.0
100
AcDbArc
 50
90.0
 51
180.0
  0
ARC
  5
227
100
AcDbEntity
  8
FORT
 62
7
370
-1
  6
CONTINUOUS
100
AcDbCircle
 10
140.8499889999999937
 20
28.8331279999999985
 30
0.0
 40
17.5
100
AcDbArc
 50
90.0
 51
180.0
  0
LINE
  5
228
100
AcDbEntity
100
AcDbLine
  8
FIN
 62
5
370
-1
  6
CONTINUOUS
 10
138.3499889999999937
 20
24.1284300000000016
 30
0.0
 11
143.3499889999999937
 21
24.1284300000000016
 31
0.0
  0
LINE
  5
229
100
AcDbEntity
100
AcDbLine
  8
FIN
 62
5
370
-1
  6
CONTINUOUS
 10
138.3499889999999937
 20
22.6284300000000016
 30
0.0
 11
143.3499889999999937
 21
22.6284300000000016
 31
0.0
  0
LINE
  5
22A
100
AcDbEntity
100
AcDbLine
  8
FIN
 62
5
370
-1
  6
CONTINUOUS
 10
145.1786850000000015
 20
26.3331279999999985
 30
0.0
 11
145.1786850000000015
 21
31.3331279999999985
 31
0.0
  0
LINE
  5
22B
100
AcDbEntity
100
AcDbLine
  8
FIN
 62
5
370
-1
  6
CONTINUOUS
 10
146.6786850000000015
 20
26.3331279999999985
 30
0.0
 11
146.6786850000000015
 21
31.3331279999999985
 31
0.0
  0
CIRCLE
  5
22C
100
AcDbEntity
100
AcDbCircle
  8
FORT
 62
7
370
-1
  6
CONTINUOUS
 10
115.3941449999999946
 20
54.2889720000000011
 30
0.0
 40
2.5
  0
ARC
  5
22D
100
AcDbEntity
  8
FIN
 62
5
370
-1
  6
CONTINUOUS
100
AcDbCircle
 10
115.3941449999999946
 20
54.2889720000000011
 30
0.0
 40
3.0
100
AcDbArc
 50
353.4666369999999915
 51
269.2264789999999834
  0
MTEXT
  5
22E
100
AcDbEntity
100
AcDbMText
  8
TEXTE
 62
7
370
-1
  6
CONTINUOUS
 10
164.0
 20
52.0
 30
0.0
 40
5.0
 41
100.0
 71
7
 72
2
  1
12
  7
iso9
 50
0.0
 73
1
 44
1.0
  0
MTEXT
  5
22F
100
AcDbEntity
100
AcDbMText
  8
TEXTE
 62
7
370
-1
  6
CONTINUOUS
 10
204.0
 20
52.0
 30
0.0
 40
5.0
 41
100.0
 71
7
 72
2
  1
10
  7
iso9
 50
0.0
 73
1
 44
1.0
  0
MTEXT
  5
230
100
AcDbEntity
100
AcDbMText
  8
TEXTE
 62
7
370
-1
  6
CONTINUOUS
 10
225.0
 20
52.0
 30
0.0
 40
5.0
 41
100.0
 71
7
 72
2
  1
9
  7
iso9
 50
0.0
 73
1
 44
1.0
  0
LINE
  5
231
100
AcDbEntity
100
AcDbLine
  8
FORT
 62
7
370
-1
  6
CONTINUOUS
 10
156.0495669999999961
 20
136.0293470000000013
 30
0.0
 11
176.0495669999999961
 21
136.0293470000000013
 31
0.0
  0
LINE
  5
232
100
AcDbEntity
100
AcDbLine
  8
FORT
 62
7
370
-1
  6
CONTINUOUS
 10
156.0495669999999961
 20
124.0293470000000013
 30
0.0
 11
176.0495669999999961
 21
124.0293470000000013
 31
0.0
  0
LINE
  5
233
100
AcDbEntity
100
AcDbLine
  8
FORT
 62
7
370
-1
  6
CONTINUOUS
 10
160.0495669999999961
 20
132.0293470000000013
 30
0.0
 11
172.0495669999999961
 21
132.0293470000000013
 31
0.0
  0
LINE
  5
234
100
AcDbEntity
100
AcDbLine
  8
FORT
 62
7
370
-1
  6
CONTINUOUS
 10
160.0495669999999961
 20
128.0293470000000013
 30
0.0
 11
172.0495669999999961
 21
128.0293470000000013
 31
0.0
  0
LINE
  5
235
100
AcDbEntity
100
AcDbLine
  8
FIN
 62
5
370
-1
  6
CONTINUOUS
 10
138.3499889999999937
 20
73.820730999999995
 30
0.0
 11
143.3499889999999937
 21
73.820730999999995
 31
0.0
  0
LINE
  5
236
100
AcDbEntity
100
AcDbLine
  8
FIN
 62
5
370
-1
  6
CONTINUOUS
 10
138.3499889999999937
 20
75.320730999999995
 30
0.0
 11
143.3499889999999937
 21
75.320730999999995
 31
0.0
  0
ARC
  5
237
100
AcDbEntity
  8
FORT
 62
7
370
-1
  6
CONTINUOUS
100
AcDbCircle
 10
160.0495669999999961
 20
130.0293470000000013
 30
0.0
 40
2.0
100
AcDbArc
 50
90.0
 51
270.0
  0
LINE
  5
238
100
AcDbEntity
100
AcDbLine
  8
FORT
 62
7
370
-1
  6
CONTINUOUS
 10
155.0495669999999961
 20
135.0293470000000013
 30
0.0
 11
156.0495669999999961
 21
136.0293470000000013
 31
0.0
  0
LINE
  5
239
100
AcDbEntity
100
AcDbLine
  8
FORT
 62
7
370
-1
  6
CONTINUOUS
 10
155.0495669999999961
 20
135.0293470000000013
 30
0.0
 11
155.0495669999999961
 21
125.0293470000000013
 31
0.0
  0
LINE
  5
23A
100
AcDbEntity
100
AcDbLine
  8
FORT
 62
7
370
-1
  6
CONTINUOUS
 10
155.0495669999999961
 20
125.0293470000000013
 30
0.0
 11
156.0495669999999961
 21
124.0293470000000013
 31
0.0
  0
LINE
  5
23B
100
AcDbEntity
100
AcDbLine
  8
FORT
 62
7
370
-1
  6
CONTINUOUS
 10
156.0495669999999961
 20
124.0293470000000013
 30
0.0
 11
156.0495669999999961
 21
136.0293470000000013
 31
0.0
  0
LINE
  5
23C
100
AcDbEntity
100
AcDbLine
  8
FORT
 62
7
370
-1
  6
CONTINUOUS
 10
178.0495669999999961
 20
109.0293470000000013
 30
0.0
 11
178.0495669999999961
 21
122.5293470000000013
 31
0.0
  0
LINE
  5
23D
100
AcDbEntity
100
AcDbLine
  8
FORT
 62
7
370
-1
  6
CONTINUOUS
 10
179.5495669999999961
 20
107.5293470000000013
 30
0.0
 11
183.0495669999999961
 21
107.5293470000000013
 31
0.0
  0
LINE
  5
23E
100
AcDbEntity
100
AcDbLine
  8
FORT
 62
7
370
-1
  6
CONTINUOUS
 10
178.0495669999999961
 20
109.0293470000000013
 30
0.0
 11
179.5495669999999961
 21
107.5293470000000013
 31
0.0
  0
LINE
  5
23F
100
AcDbEntity
100
AcDbLine
  8
FORT
 62
7
370
-1
  6
CONTINUOUS
 10
183.0495669999999961
 20
88.0291799999999967
 30
0.0
 11
189.7579000000000065
 21
88.0291799999999967
 31
0.0
  0
LINE
  5
240
100
AcDbEntity
100
AcDbLine
  8
FORT
 62
7
370
-1
  6
CONTINUOUS
 10
183.0495669999999961
 20
107.5293470000000013
 30
0.0
 11
183.0495669999999961
 21
88.0291799999999967
 31
0.0
  0
ARC
  5
241
100
AcDbEntity
  8
FORT
 62
7
370
-1
  6
CONTINUOUS
100
AcDbCircle
 10
196.3412339999999858
 20
97.7375140000000044
 30
0.0
 40
3.2916669999999999
100
AcDbArc
 50
90.0
 51
180.0
  0
ARC
  5
242
100
AcDbEntity
  8
FORT
 62
7
370
-1
  6
CONTINUOUS
100
AcDbCircle
 10
189.7579000000000065
 20
91.3208470000000005
 30
0.0
 40
3.2916669999999999
100
AcDbArc
 50
270.0
 51
0.0
  0
LINE
  5
243
100
AcDbEntity
100
AcDbLine
  8
FORT
 62
7
370
-1
  6
CONTINUOUS
 10
193.0495669999999961
 20
91.3208470000000005
 30
0.0
 11
193.0495669999999961
 21
97.7375140000000044
 31
0.0
  0
LINE
  5
244
100
AcDbEntity
100
AcDbLine
  8
FORT
 62
7
370
-1
  6
CONTINUOUS
 10
178.0495669999999961
 20
112.529514000000006
 30
0.0
 11
201.0495669999999961
 21
112.529514000000006
 31
0.0
  0
LINE
  5
245
100
AcDbEntity
100
AcDbLine
  8
FORT
 62
7
370
-1
  6
CONTINUOUS
 10
177.0495669999999961
 20
137.5293470000000013
 30
0.0
 11
184.0495669999999961
 21
137.5293470000000013
 31
0.0
  0
LINE
  5
246
100
AcDbEntity
100
AcDbLine
  8
FORT
 62
7
370
-1
  6
CONTINUOUS
 10
177.0495669999999961
 20
122.5293470000000013
 30
0.0
 11
184.0495669999999961
 21
122.5293470000000013
 31
0.0
  0
LINE
  5
247
100
AcDbEntity
100
AcDbLine
  8
FORT
 62
7
370
-1
  6
CONTINUOUS
 10
178.0495669999999961
 20
147.5291799999999967
 30
0.0
 11
201.0526739999999961
 21
147.5291799999999967
 31
0.0
  0
ARC
  5
248
100
AcDbEntity
  8
FORT
 62
7
370
-1
  6
CONTINUOUS
100
AcDbCircle
 10
172.0495669999999961
 20
130.0293470000000013
 30
0.0
 40
2.0
100
AcDbArc
 50
270.0
 51
90.0
  0
LINE
  5
249
100
AcDbEntity
100
AcDbLine
  8
FORT
 62
7
370
-1
  6
CONTINUOUS
 10
177.0495669999999961
 20
122.5293470000000013
 30
0.0
 11
177.0495669999999961
 21
137.5293470000000013
 31
0.0
  0
LINE
  5
24A
100
AcDbEntity
100
AcDbLine
  8
FORT
 62
7
370
-1
  6
CONTINUOUS
 10
176.0495669999999961
 20
136.5293470000000013
 30
0.0
 11
177.0495669999999961
 21
137.5293470000000013
 31
0.0
  0
LINE
  5
24B
100
AcDbEntity
100
AcDbLine
  8
FORT
 62
7
370
-1
  6
CONTINUOUS
 10
176.0495669999999961
 20
136.5293470000000013
 30
0.0
 11
176.0495669999999961
 21
123.5293470000000013
 31
0.0
  0
LINE
  5
24C
100
AcDbEntity
100
AcDbLine
  8
FORT
 62
7
370
-1
  6
CONTINUOUS
 10
176.0495669999999961
 20
123.5293470000000013
 30
0.0
 11
177.0495669999999961
 21
122.5293470000000013
 31
0.0
  0
LINE
  5
24D
100
AcDbEntity
100
AcDbLine
  8
FORT
 62
7
370
-1
  6
CONTINUOUS
 10
185.0495669999999961
 20
112.529514000000006
 30
0.0
 11
185.0495669999999961
 21
147.5291799999999967
 31
0.0
  0
LINE
  5
24E
100
AcDbEntity
100
AcDbLine
  8
FORT
 62
7
370
-1
  6
CONTINUOUS
 10
196.0495669999999961
 20
112.529514000000006
 30
0.0
 11
196.0495669999999961
 21
147.5291799999999967
 31
0.0
  0
LWPOLYLINE
  5
24F
  8
HACHURE
 62
5
370
-1
  6
CONTINUOUS
100
AcDbEntity
100
AcDbPolyline
 90
6
 70
1
 10
196.0495669999999961
 20
147.5291799999999967
 10
185.0495669999999961
 20
147.5291799999999967
 10
185.0495669999999961
 20
144.1958469999999863
 10
188.7162950000000023
 20
144.1958469999999863
 42
-0.4423749999999996
 10
192.3828389999999899
 20
144.1958469999999863
 10
196.0495669999999961
 20
144.1958469999999863
  0
INSERT
  5
250
100
AcDbEntity
100
AcDbBlockReference
  8
HACHURE
 62
256
370
-1
  6
ByLayer
  2
DESENS-G4
 10
0.0
 20
0.0
 30
0.0
  0
CIRCLE
  5
251
100
AcDbEntity
100
AcDbCircle
  8
FORT
 62
7
370
-1
  6
CONTINUOUS
 10
190.5495669999999961
 20
142.5292640000000119
 30
0.0
 40
2.4775770000000001
  0
LINE
  5
252
100
AcDbEntity
100
AcDbLine
  8
FORT
 62
7
370
-1
  6
CONTINUOUS
 10
201.0495669999999961
 20
140.0293470000000013
 30
0.0
 11
201.0495669999999961
 21
147.4295140000000117
 31
0.0
  0
LINE
  5
253
100
AcDbEntity
100
AcDbLine
  8
FORT
 62
7
370
-1
  6
CONTINUOUS
 10
184.0495669999999961
 20
123.5293470000000013
 30
0.0
 11
185.0495669999999961
 21
123.5293470000000013
 31
0.0
  0
LINE
  5
254
100
AcDbEntity
100
AcDbLine
  8
FORT
 62
7
370
-1
  6
CONTINUOUS
 10
184.0495669999999961
 20
120.5293470000000013
 30
0.0
 11
185.0495669999999961
 21
120.5293470000000013
 31
0.0
  0
LINE
  5
255
100
AcDbEntity
100
AcDbLine
  8
FORT
 62
7
370
-1
  6
CONTINUOUS
 10
184.0495669999999961
 20
136.5293470000000013
 30
0.0
 11
185.0495669999999961
 21
136.5293470000000013
 31
0.0
  0
LINE
  5
256
100
AcDbEntity
100
AcDbLine
  8
FORT
 62
7
370
-1
  6
CONTINUOUS
 10
184.0495669999999961
 20
139.5293470000000013
 30
0.0
 11
185.0495669999999961
 21
139.5293470000000013
 31
0.0
  0
LWPOLYLINE
  5
257
  8
HACHURE
 62
5
370
-1
  6
CONTINUOUS
100
AcDbEntity
100
AcDbPolyline
 90
4
 70
1
 10
185.0495669999999961
 20
123.5293470000000013
 10
184.0495669999999961
 20
123.5293470000000013
 10
184.0495669999999961
 20
120.5293470000000013
 10
185.0495669999999961
 20
120.5293470000000013
  0
INSERT
  5
258
100
AcDbEntity
100
AcDbBlockReference
  8
HACHURE
 62
256
370
-1
  6
ByLayer
  2
DESENS-G5
 10
0.0
 20
0.0
 30
0.0
  0
LINE
  5
259
100
AcDbEntity
100
AcDbLine
  8
FORT
 62
7
370
-1
  6
CONTINUOUS
 10
184.0495669999999961
 20
120.5293470000000013
 30
0.0
 11
184.0495669999999961
 21
139.5293470000000013
 31
0.0
  0
LINE
  5
25A
100
AcDbEntity
100
AcDbLine
  8
FORT
 62
7
370
-1
  6
CONTINUOUS
 10
183.1316250000000139
 20
117.843244999999996
 30
0.0
 11
184.0495669999999961
 21
120.5293470000000013
 31
0.0
  0
LINE
  5
25B
100
AcDbEntity
100
AcDbLine
  8
FORT
 62
7
370
-1
  6
CONTINUOUS
 10
184.0523750000000121
 20
117.6907290000000046
 30
0.0
 11
184.0495669999999961
 21
120.5293470000000013
 31
0.0
  0
LWPOLYLINE
  5
25C
  8
HACHURE
 62
5
370
-1
  6
CONTINUOUS
100
AcDbEntity
100
AcDbPolyline
 90
6
 70
1
 10
196.0495669999999961
 20
115.8628470000000021
 10
192.3828389999999899
 20
115.8628470000000021
 42
-0.4423749999999996
 10
188.7162950000000023
 20
115.8628470000000021
 10
185.0495669999999961
 20
115.8628470000000021
 10
185.0495669999999961
 20
112.529514000000006
 10
196.0495669999999961
 20
112.529514000000006
  0
INSERT
  5
25D
100
AcDbEntity
100
AcDbBlockReference
  8
HACHURE
 62
256
370
-1
  6
ByLayer
  2
DESENS-G6
 10
0.0
 20
0.0
 30
0.0
  0
LINE
  5
25E
100
AcDbEntity
100
AcDbLine
  8
FORT
 62
7
370
-1
  6
CONTINUOUS
 10
185.0495669999999961
 20
137.5293470000000013
 30
0.0
 11
196.0495669999999961
 21
137.5293470000000013
 31
0.0
  0
LINE
  5
25F
100
AcDbEntity
100
AcDbLine
  8
FORT
 62
7
370
-1
  6
CONTINUOUS
 10
185.0495669999999961
 20
122.5293470000000013
 30
0.0
 11
196.0495669999999961
 21
122.5293470000000013
 31
0.0
  0
LINE
  5
260
100
AcDbEntity
100
AcDbLine
  8
FORT
 62
7
370
-1
  6
CONTINUOUS
 10
192.3828389999999899
 20
119.1960140000000052
 30
0.0
 11
196.0495669999999961
 21
119.1960140000000052
 31
0.0
  0
LINE
  5
261
100
AcDbEntity
100
AcDbLine
  8
FORT
 62
7
370
-1
  6
CONTINUOUS
 10
192.3828389999999899
 20
115.8628470000000021
 30
0.0
 11
196.0495669999999961
 21
115.8628470000000021
 31
0.0
  0
LINE
  5
262
100
AcDbEntity
100
AcDbLine
  8
FORT
 62
7
370
-1
  6
CONTINUOUS
 10
192.3828389999999899
 20
140.8626800000000117
 30
0.0
 11
196.0495669999999961
 21
140.8626800000000117
 31
0.0
  0
LINE
  5
263
100
AcDbEntity
100
AcDbLine
  8
FORT
 62
7
370
-1
  6
CONTINUOUS
 10
192.3828389999999899
 20
144.1958469999999863
 30
0.0
 11
196.0495669999999961
 21
144.1958469999999863
 31
0.0
  0
LWPOLYLINE
  5
264
  8
HACHURE
 62
5
370
-1
  6
CONTINUOUS
100
AcDbEntity
100
AcDbPolyline
 90
6
 70
1
 10
196.0495669999999961
 20
140.8626800000000117
 10
192.3828389999999899
 20
140.8626800000000117
 42
-0.4423749999999996
 10
188.7162950000000023
 20
140.8626800000000117
 10
185.0495669999999961
 20
140.8626800000000117
 10
185.0495669999999961
 20
137.5293470000000013
 10
196.0495669999999961
 20
137.5293470000000013
  0
INSERT
  5
265
100
AcDbEntity
100
AcDbBlockReference
  8
HACHURE
 62
256
370
-1
  6
ByLayer
  2
DESENS-G7
 10
0.0
 20
0.0
 30
0.0
  0
LWPOLYLINE
  5
266
  8
HACHURE
 62
5
370
-1
  6
CONTINUOUS
100
AcDbEntity
100
AcDbPolyline
 90
6
 70
1
 10
196.0495669999999961
 20
122.5293470000000013
 10
185.0495669999999961
 20
122.5293470000000013
 10
185.0495669999999961
 20
119.1960140000000052
 10
188.7162950000000023
 20
119.1960140000000052
 42
-0.4423749999999996
 10
192.3828389999999899
 20
119.1960140000000052
 10
196.0495669999999961
 20
119.1960140000000052
  0
INSERT
  5
267
100
AcDbEntity
100
AcDbBlockReference
  8
HACHURE
 62
256
370
-1
  6
ByLayer
  2
DESENS-G8
 10
0.0
 20
0.0
 30
0.0
  0
CIRCLE
  5
268
100
AcDbEntity
100
AcDbCircle
  8
FORT
 62
7
370
-1
  6
CONTINUOUS
 10
190.5495669999999961
 20
117.529430000000005
 30
0.0
 40
2.4775770000000001
  0
LINE
  5
269
100
AcDbEntity
100
AcDbLine
  8
FORT
 62
7
370
-1
  6
CONTINUOUS
 10
185.0495669999999961
 20
115.8628470000000021
 30
0.0
 11
188.7162950000000023
 21
115.8628470000000021
 31
0.0
  0
LINE
  5
26A
100
AcDbEntity
100
AcDbLine
  8
FORT
 62
7
370
-1
  6
CONTINUOUS
 10
185.0495669999999961
 20
119.1960140000000052
 30
0.0
 11
188.7162950000000023
 21
119.1960140000000052
 31
0.0
  0
LINE
  5
26B
100
AcDbEntity
100
AcDbLine
  8
FORT
 62
7
370
-1
  6
CONTINUOUS
 10
185.0495669999999961
 20
144.1958469999999863
 30
0.0
 11
188.7162950000000023
 21
144.1958469999999863
 31
0.0
  0
LINE
  5
26C
100
AcDbEntity
100
AcDbLine
  8
FORT
 62
7
370
-1
  6
CONTINUOUS
 10
185.0495669999999961
 20
140.8626800000000117
 30
0.0
 11
188.7162950000000023
 21
140.8626800000000117
 31
0.0
  0
CIRCLE
  5
26D
100
AcDbEntity
100
AcDbCircle
  8
FORT
 62
7
370
-1
  6
CONTINUOUS
 10
190.5495669999999961
 20
117.529430000000005
 30
0.0
 40
0.25
  0
LINE
  5
26E
100
AcDbEntity
100
AcDbLine
  8
FORT
 62
7
370
-1
  6
CONTINUOUS
 10
201.0495669999999961
 20
112.529514000000006
 30
0.0
 11
201.0495669999999961
 21
120.0293470000000013
 31
0.0
  0
ARC
  5
26F
100
AcDbEntity
  8
FORT
 62
7
370
-1
  6
CONTINUOUS
100
AcDbCircle
 10
202.6464599999999905
 20
112.6291800000000052
 30
0.0
 40
1.6000000000000001
100
AcDbArc
 50
183.5713619999999935
 51
270.0
  0
CIRCLE
  5
270
100
AcDbEntity
100
AcDbCircle
  8
FORT
 62
7
370
-1
  6
CONTINUOUS
 10
216.7299500000000023
 20
125.117906000000005
 30
0.0
 40
0.25
  0
ARC
  5
271
100
AcDbEntity
  8
FORT
 62
7
370
-1
  6
CONTINUOUS
100
AcDbCircle
 10
34.5601649999999978
 20
174.0293470000000013
 30
0.0
 40
25.0
100
AcDbArc
 50
270.0
 51
90.0
  0
ARC
  5
272
100
AcDbEntity
  8
FORT
 62
7
370
-1
  6
CONTINUOUS
100
AcDbCircle
 10
34.5601649999999978
 20
130.0293470000000013
 30
0.0
 40
36.0997210000000024
100
AcDbArc
 50
55.3768349999999998
 51
90.0
  0
ARC
  5
273
100
AcDbEntity
  8
FORT
 62
7
370
-1
  6
CONTINUOUS
100
AcDbCircle
 10
34.5601649999999978
 20
130.0293470000000013
 30
0.0
 40
33.0
100
AcDbArc
 50
55.735396999999999
 51
90.0
  0
ARC
  5
274
100
AcDbEntity
  8
FORT
 62
7
370
-1
  6
CONTINUOUS
100
AcDbCircle
 10
34.5601649999999978
 20
130.0293470000000013
 30
0.0
 40
23.0
100
AcDbArc
 50
65.3800229999999942
 51
90.0
  0
ARC
  5
275
100
AcDbEntity
  8
FORT
 62
7
370
-1
  6
CONTINUOUS
100
AcDbCircle
 10
34.5601649999999978
 20
158.7793470000000013
 30
0.0
 40
5.0
100
AcDbArc
 50
55.676751000000003
 51
90.0
  0
ARC
  5
276
100
AcDbEntity
  8
FORT
 62
7
370
-1
  6
CONTINUOUS
100
AcDbCircle
 10
34.5601649999999978
 20
220.0293470000000013
 30
0.0
 40
2.0
100
AcDbArc
 50
270.0
 51
90.0
  0
ARC
  5
277
100
AcDbEntity
  8
FIN
 62
5
370
-1
  6
CONTINUOUS
100
AcDbCircle
 10
34.5601649999999978
 20
220.0293470000000013
 30
0.0
 40
2.5
100
AcDbArc
 50
358.4428580000000011
 51
90.0
  0
CIRCLE
  5
278
100
AcDbEntity
100
AcDbCircle
  8
FORT
 62
7
370
-1
  6
CONTINUOUS
 10
80.5601649999999978
 20
174.0293470000000013
 30
0.0
 40
2.0
  0
ARC
  5
279
100
AcDbEntity
  8
FIN
 62
5
370
-1
  6
CONTINUOUS
100
AcDbCircle
 10
80.5601649999999978
 20
174.0293470000000013
 30
0.0
 40
2.5
100
AcDbArc
 50
358.4428580000000011
 51
270.0
  0
CIRCLE
  5
27A
100
AcDbEntity
100
AcDbCircle
  8
FORT
 62
7
370
-1
  6
CONTINUOUS
 10
67.0870769999999936
 20
206.5562590000000114
 30
0.0
 40
2.0
  0
CIRCLE
  5
27B
100
AcDbEntity
100
AcDbCircle
  8
FORT
 62
7
370
-1
  6
CONTINUOUS
 10
106.0072609999999997
 20
198.3626800000000117
 30
0.0
 40
5.0
  0
CIRCLE
  5
27C
100
AcDbEntity
100
AcDbCircle
  8
FORT
 62
7
370
-1
  6
CONTINUOUS
 10
106.0072609999999997
 20
198.3626800000000117
 30
0.0
 40
5.7999999999999998
  0
LWPOLYLINE
  5
27D
  8
FORT
 62
7
370
-1
  6
CONTINUOUS
100
AcDbEntity
100
AcDbPolyline
 90
6
 70
1
 10
104.5638849999999991
 20
200.8626800000000117
 10
107.4506370000000004
 20
200.8626800000000117
 10
108.8940120000000036
 20
198.3626800000000117
 10
107.4506370000000004
 20
195.8626800000000117
 10
104.5638849999999991
 20
195.8626800000000117
 10
103.1205099999999959
 20
198.3626800000000117
  0
ARC
  5
27E
100
AcDbEntity
  8
FIN
 62
5
370
-1
  6
CONTINUOUS
100
AcDbCircle
 10
67.0870769999999936
 20
206.5562590000000114
 30
0.0
 40
2.5
100
AcDbArc
 50
358.4428580000000011
 51
270.0
  0
LINE
  5
27F
100
AcDbEntity
100
AcDbLine
  8
FORT
 62
7
370
-1
  6
CONTINUOUS
 10
34.5601649999999978
 20
264.6626370000000179
 30
0.0
 11
34.5601649999999978
 21
262.6626370000000179
 31
0.0
  0
LINE
  5
280
100
AcDbEntity
100
AcDbLine
  8
FORT
 62
7
370
-1
  6
CONTINUOUS
 10
36.0035409999999985
 20
242.1126800000000117
 30
0.0
 11
37.4469169999999991
 21
239.6126800000000117
 31
0.0
  0
LINE
  5
281
100
AcDbEntity
100
AcDbLine
  8
FORT
 62
7
370
-1
  6
CONTINUOUS
 10
37.4469169999999991
 20
239.6126800000000117
 30
0.0
 11
36.0035409999999985
 21
237.1126800000000117
 31
0.0
  0
LINE
  5
282
100
AcDbEntity
100
AcDbLine
  8
FORT
 62
7
370
-1
  6
CONTINUOUS
 10
34.5601649999999978
 20
242.1126800000000117
 30
0.0
 11
36.0035409999999985
 21
242.1126800000000117
 31
0.0
  0
LINE
  5
283
100
AcDbEntity
100
AcDbLine
  8
FORT
 62
7
370
-1
  6
CONTINUOUS
 10
34.5601649999999978
 20
237.1126800000000117
 30
0.0
 11
36.0035409999999985
 21
237.1126800000000117
 31
0.0
  0
ARC
  5
284
100
AcDbEntity
  8
FORT
 62
7
370
-1
  6
CONTINUOUS
100
AcDbCircle
 10
34.5601649999999978
 20
239.6126800000000117
 30
0.0
 40
5.0
100
AcDbArc
 50
270.0
 51
90.0
  0
ARC
  5
285
100
AcDbEntity
  8
FORT
 62
7
370
-1
  6
CONTINUOUS
100
AcDbCircle
 10
34.5601649999999978
 20
239.6126800000000117
 30
0.0
 40
5.7999999999999998
100
AcDbArc
 50
270.0
 51
90.0
  0
LINE
  5
286
100
AcDbEntity
100
AcDbLine
  8
FORT
 62
7
370
-1
  6
CONTINUOUS
 10
34.5601649999999978
 20
261.6626370000000179
 30
0.0
 11
34.5601649999999978
 21
256.6626370000000179
 31
0.0
  0
LINE
  5
287
100
AcDbEntity
100
AcDbLine
  8
FIN
 62
5
370
-1
  6
CONTINUOUS
 10
32.0601649999999978
 20
252.600449999999995
 30
0.0
 11
37.0601649999999978
 21
252.600449999999995
 31
0.0
  0
LINE
  5
288
100
AcDbEntity
100
AcDbLine
  8
FIN
 62
5
370
-1
  6
CONTINUOUS
 10
32.0601649999999978
 20
251.100449999999995
 30
0.0
 11
37.0601649999999978
 21
251.100449999999995
 31
0.0
  0
LINE
  5
289
100
AcDbEntity
100
AcDbLine
  8
FORT
 62
7
370
-1
  6
CONTINUOUS
 10
34.5601649999999978
 20
275.6626370000000179
 30
0.0
 11
34.5601649999999978
 21
265.6626370000000179
 31
0.0
  0
LINE
  5
28A
100
AcDbEntity
100
AcDbLine
  8
FORT
 62
7
370
-1
  6
CONTINUOUS
 10
25.1415539999999993
 20
270.9959709999999973
 30
0.0
 11
34.5601649999999978
 21
270.9959709999999973
 31
0.0
  0
LINE
  5
28B
100
AcDbEntity
100
AcDbLine
  8
FORT
 62
7
370
-1
  6
CONTINUOUS
 10
34.5601649999999978
 20
270.9959709999999973
 30
0.0
 11
31.7601650000000006
 21
271.9293040000000019
 31
0.0
  0
LINE
  5
28C
100
AcDbEntity
100
AcDbLine
  8
FORT
 62
7
370
-1
  6
CONTINUOUS
 10
34.5601649999999978
 20
270.9959709999999973
 30
0.0
 11
31.7601650000000006
 21
270.0626369999999952
 31
0.0
  0
MTEXT
  5
28D
100
AcDbEntity
100
AcDbMText
  8
TEXTE
 62
7
370
-1
  6
CONTINUOUS
 10
33.1769260000000017
 20
277.8009170000000267
 30
0.0
 40
5.0
 41
100.0
 71
7
 72
2
  1
A
  7
iso9
 50
0.0
 73
1
 44
1.0
  0
LINE
  5
28E
100
AcDbEntity
100
AcDbLine
  8
FORT
 62
7
370
-1
  6
CONTINUOUS
 10
160.6506860000000074
 20
151.1150450000000092
 30
0.0
 11
152.3173529999999971
 21
151.1150450000000092
 31
0.0
  0
LINE
  5
28F
100
AcDbEntity
100
AcDbLine
  8
FORT
 62
7
370
-1
  6
CONTINUOUS
 10
160.6506860000000074
 20
151.1150450000000092
 30
0.0
 11
158.1506860000000074
 21
151.9483779999999911
 31
0.0
  0
LINE
  5
290
100
AcDbEntity
100
AcDbLine
  8
FORT
 62
7
370
-1
  6
CONTINUOUS
 10
160.6506860000000074
 20
151.1150450000000092
 30
0.0
 11
158.1506860000000074
 21
151.9483779999999911
 31
0.0
  0
LINE
  5
291
100
AcDbEntity
100
AcDbLine
  8
FORT
 62
7
370
-1
  6
CONTINUOUS
 10
160.6506860000000074
 20
151.1150450000000092
 30
0.0
 11
158.1506860000000074
 21
150.2817119999999989
 31
0.0
  0
LINE
  5
292
100
AcDbEntity
100
AcDbLine
  8
FORT
 62
7
370
-1
  6
CONTINUOUS
 10
160.6506860000000074
 20
151.1150450000000092
 30
0.0
 11
158.1506860000000074
 21
150.2817119999999989
 31
0.0
  0
MTEXT
  5
293
100
AcDbEntity
100
AcDbMText
  8
TEXTE
 62
7
370
-1
  6
CONTINUOUS
 10
154.9189140000000009
 20
152.6794539999999927
 30
0.0
 40
5.0
 41
100.0
 71
7
 72
2
  1
F
  7
iso9
 50
0.0
 73
1
 44
1.0
  0
LINE
  5
294
100
AcDbEntity
100
AcDbLine
  8
FORT
 62
7
370
-1
  6
CONTINUOUS
 10
179.5495669999999961
 20
152.5293470000000013
 30
0.0
 11
183.0495669999999961
 21
152.5293470000000013
 31
0.0
  0
LINE
  5
295
100
AcDbEntity
100
AcDbLine
  8
FORT
 62
7
370
-1
  6
CONTINUOUS
 10
179.5495669999999961
 20
152.5293470000000013
 30
0.0
 11
178.0495669999999961
 21
151.0293470000000013
 31
0.0
  0
LINE
  5
296
100
AcDbEntity
100
AcDbLine
  8
FORT
 62
7
370
-1
  6
CONTINUOUS
 10
183.0495669999999961
 20
172.029514000000006
 30
0.0
 11
189.7579000000000065
 21
172.029514000000006
 31
0.0
  0
LINE
  5
297
100
AcDbEntity
100
AcDbLine
  8
FORT
 62
7
370
-1
  6
CONTINUOUS
 10
183.0495669999999961
 20
172.029514000000006
 30
0.0
 11
183.0495669999999961
 21
152.5293470000000013
 31
0.0
  0
ARC
  5
298
100
AcDbEntity
  8
FORT
 62
7
370
-1
  6
CONTINUOUS
100
AcDbCircle
 10
196.3412339999999858
 20
162.3211799999999982
 30
0.0
 40
3.2916669999999999
100
AcDbArc
 50
180.0
 51
270.0
  0
ARC
  5
299
100
AcDbEntity
  8
FORT
 62
7
370
-1
  6
CONTINUOUS
100
AcDbCircle
 10
189.7579000000000065
 20
168.7378469999999879
 30
0.0
 40
3.2916669999999999
100
AcDbArc
 50
0.0
 51
90.0
  0
LINE
  5
29A
100
AcDbEntity
100
AcDbLine
  8
FORT
 62
7
370
-1
  6
CONTINUOUS
 10
193.0495669999999961
 20
162.3211799999999982
 30
0.0
 11
193.0495669999999961
 21
168.7378469999999879
 31
0.0
  0
ARC
  5
29B
100
AcDbEntity
  8
FORT
 62
7
370
-1
  6
CONTINUOUS
100
AcDbCircle
 10
190.3072469999999896
 20
176.1961799999999982
 30
0.0
 40
4.1666670000000003
100
AcDbArc
 50
270.0
 51
306.9720370000000003
  0
MTEXT
  5
29C
100
AcDbEntity
100
AcDbMText
  8
TEXTE
 62
7
370
-1
  6
CONTINUOUS
 10
225.0
 20
262.0
 30
0.0
 40
5.0
 41
100.0
 71
7
 72
2
  1
1
  7
iso9
 50
0.0
 73
1
 44
1.0
  0
LINE
  5
29D
100
AcDbEntity
100
AcDbLine
  8
FORT
 62
7
370
-1
  6
CONTINUOUS
 10
357.0492340000000127
 20
119.0293470000000013
 30
0.0
 11
357.0492340000000127
 21
229.0293470000000013
 31
0.0
  0
LINE
  5
29E
100
AcDbEntity
100
AcDbLine
  8
FORT
 62
7
370
-1
  6
CONTINUOUS
 10
347.0492340000000127
 20
130.5293470000000013
 30
0.0
 11
347.0492340000000127
 21
217.5293470000000013
 31
0.0
  0
LINE
  5
29F
100
AcDbEntity
100
AcDbLine
  8
FORT
 62
7
370
-1
  6
CONTINUOUS
 10
330.0492340000000127
 20
85.1128470000000021
 30
0.0
 11
330.0492340000000127
 21
164.0293470000000013
 31
0.0
  0
LINE
  5
2A0
100
AcDbEntity
100
AcDbLine
  8
FORT
 62
7
370
-1
  6
CONTINUOUS
 10
319.0495670000000246
 20
165.0293470000000013
 30
0.0
 11
319.0495670000000246
 21
140.0293470000000013
 31
0.0
  0
LINE
  5
2A1
100
AcDbEntity
100
AcDbLine
  8
FORT
 62
7
370
-1
  6
CONTINUOUS
 10
312.0495670000000246
 20
140.0293470000000013
 30
0.0
 11
312.0495670000000246
 21
153.0293470000000013
 31
0.0
  0
LWPOLYLINE
  5
2A2
  8
HACHURE
 62
5
370
-1
  6
CONTINUOUS
100
AcDbEntity
100
AcDbPolyline
 90
9
 70
1
 10
319.0495670000000246
 20
158.2793470000000013
 10
299.0495670000000246
 20
158.2793470000000013
 10
299.0495670000000246
 20
146.0293470000000013
 10
282.0495670000000246
 20
146.0293470000000013
 10
280.0495670000000246
 20
144.0293470000000013
 10
280.0495670000000246
 20
142.8293470000000127
 10
312.0495670000000246
 20
142.8293470000000127
 10
312.0495670000000246
 20
153.0293470000000013
 10
319.0495670000000246
 20
153.0293470000000013
  0
INSERT
  5
2A3
100
AcDbEntity
100
AcDbBlockReference
  8
HACHURE
 62
256
370
-1
  6
ByLayer
  2
DESENS-G9
 10
0.0
 20
0.0
 30
0.0
  0
LINE
  5
2A4
100
AcDbEntity
100
AcDbLine
  8
FORT
 62
7
370
-1
  6
CONTINUOUS
 10
324.0492340000000127
 20
84.1128470000000021
 30
0.0
 11
324.0492340000000127
 21
165.0293470000000013
 31
0.0
  0
LINE
  5
2A5
100
AcDbEntity
100
AcDbLine
  8
FORT
 62
7
370
-1
  6
CONTINUOUS
 10
268.0495670000000246
 20
109.0291799999999967
 30
0.0
 11
268.0495670000000246
 21
151.029514000000006
 31
0.0
  0
LINE
  5
2A6
100
AcDbEntity
100
AcDbLine
  8
FORT
 62
7
370
-1
  6
CONTINUOUS
 10
280.0495670000000246
 20
139.0293470000000013
 30
0.0
 11
280.0495670000000246
 21
151.029514000000006
 31
0.0
  0
LWPOLYLINE
  5
2A7
  8
HACHURE
 62
5
370
-1
  6
CONTINUOUS
100
AcDbEntity
100
AcDbPolyline
 90
6
 70
1
 10
347.0492340000000127
 20
149.0293470000000013
 10
330.0492340000000127
 20
149.0293470000000013
 10
330.0492340000000127
 20
130.0293470000000013
 10
336.0492340000000127
 20
130.0293470000000013
 10
336.5492340000000127
 20
130.5293470000000013
 10
347.0492340000000127
 20
130.5293470000000013
  0
INSERT
  5
2A8
100
AcDbEntity
100
AcDbBlockReference
  8
HACHURE
 62
256
370
-1
  6
ByLayer
  2
DESENS-G10
 10
0.0
 20
0.0
 30
0.0
  0
LINE
  5
2A9
100
AcDbEntity
100
AcDbLine
  8
FORT
 62
7
370
-1
  6
CONTINUOUS
 10
299.0495670000000246
 20
189.0293470000000013
 30
0.0
 11
299.0495670000000246
 21
146.0293470000000013
 31
0.0
  0
LINE
  5
2AA
100
AcDbEntity
100
AcDbLine
  8
FORT
 62
7
370
-1
  6
CONTINUOUS
 10
294.0495670000000246
 20
146.0293470000000013
 30
0.0
 11
294.0495670000000246
 21
166.1290679999999895
 31
0.0
  0
LWPOLYLINE
  5
2AB
  8
HACHURE
 62
5
370
-1
  6
CONTINUOUS
100
AcDbEntity
100
AcDbPolyline
 90
8
 70
1
 10
294.0495670000000246
 20
153.7793470000000013
 10
289.0495670000000246
 20
153.7793470000000013
 10
289.0495670000000246
 20
155.5793470000000127
 10
286.0495670000000246
 20
155.5793470000000127
 10
286.0495670000000246
 20
151.029514000000006
 10
280.0495670000000246
 20
151.029514000000006
 10
280.0495670000000246
 20
148.029514000000006
 10
294.0495670000000246
 20
148.029514000000006
  0
INSERT
  5
2AC
100
AcDbEntity
100
AcDbBlockReference
  8
HACHURE
 62
256
370
-1
  6
ByLayer
  2
DESENS-G11
 10
0.0
 20
0.0
 30
0.0
  0
LWPOLYLINE
  5
2AD
  8
HACHURE
 62
5
370
-1
  6
CONTINUOUS
100
AcDbEntity
100
AcDbPolyline
 90
6
 70
1
 10
280.0495670000000246
 20
151.029514000000006
 10
268.0495670000000246
 20
151.029514000000006
 10
268.0495670000000246
 20
147.3628469999999879
 10
272.049506000000008
 20
147.3628469999999879
 42
-0.4398969999999804
 10
276.0496279999999842
 20
147.3628470000000164
 10
280.0495670000000246
 20
147.3628469999999879
  0
INSERT
  5
2AE
100
AcDbEntity
100
AcDbBlockReference
  8
HACHURE
 62
256
370
-1
  6
ByLayer
  2
DESENS-G12
 10
0.0
 20
0.0
 30
0.0
  0
LINE
  5
2AF
100
AcDbEntity
100
AcDbLine
  8
FIN
 62
5
370
-1
  6
CONTINUOUS
 10
315.693552000000011
 20
104.3079479999999961
 30
0.0
 11
382.0
 21
70.0
 31
0.0
  0
LINE
  5
2B0
100
AcDbEntity
100
AcDbLine
  8
FIN
 62
5
370
-1
  6
CONTINUOUS
 10
315.693552000000011
 20
117.5482990000000001
 30
0.0
 11
382.0
 21
110.0
 31
0.0
  0
LINE
  5
2B1
100
AcDbEntity
100
AcDbLine
  8
FIN
 62
5
370
-1
  6
CONTINUOUS
 10
313.3382419999999797
 20
113.5293470000000013
 30
0.0
 11
382.0
 21
90.0
 31
0.0
  0
MTEXT
  5
2B2
100
AcDbEntity
100
AcDbMText
  8
TEXTE
 62
7
370
-1
  6
CONTINUOUS
 10
302.3305290000000127
 20
12.6947080000000003
 30
0.0
 40
5.0
 41
100.0
 71
7
 72
2
  1
Dessin d'ensemble
  7
iso9
 50
0.0
 73
1
 44
1.0
  0
LINE
  5
2B3
100
AcDbEntity
100
AcDbLine
  8
FORT
 62
7
370
-1
  6
CONTINUOUS
 10
336.5492340000000127
 20
125.5293470000000013
 30
0.0
 11
352.0492340000000127
 21
125.5293470000000013
 31
0.0
  0
LINE
  5
2B4
100
AcDbEntity
100
AcDbLine
  8
FORT
 62
7
370
-1
  6
CONTINUOUS
 10
336.5492340000000127
 20
130.5293470000000013
 30
0.0
 11
352.0492340000000127
 21
130.5293470000000013
 31
0.0
  0
LINE
  5
2B5
100
AcDbEntity
100
AcDbLine
  8
FORT
 62
7
370
-1
  6
CONTINUOUS
 10
347.0492340000000127
 20
119.0293470000000013
 30
0.0
 11
357.0492340000000127
 21
119.0293470000000013
 31
0.0
  0
LINE
  5
2B6
100
AcDbEntity
100
AcDbLine
  8
FORT
 62
7
370
-1
  6
CONTINUOUS
 10
347.0492340000000127
 20
124.8293469999999985
 30
0.0
 11
352.0492340000000127
 21
124.8293469999999985
 31
0.0
  0
LINE
  5
2B7
100
AcDbEntity
100
AcDbLine
  8
FORT
 62
7
370
-1
  6
CONTINUOUS
 10
347.0492340000000127
 20
131.22934699999999
 30
0.0
 11
352.0492340000000127
 21
131.22934699999999
 31
0.0
  0
LWPOLYLINE
  5
2B8
  8
HACHURE
 62
5
370
-1
  6
CONTINUOUS
100
AcDbEntity
100
AcDbPolyline
 90
6
 70
1
 10
357.0492340000000127
 20
123.0293470000000013
 10
352.0492340000000127
 20
123.0293470000000013
 10
352.0492340000000127
 20
124.8293469999999985
 10
347.0492340000000127
 20
124.8293469999999985
 10
347.0492340000000127
 20
119.0293470000000013
 10
357.0492340000000127
 20
119.0293470000000013
  0
INSERT
  5
2B9
100
AcDbEntity
100
AcDbBlockReference
  8
HACHURE
 62
256
370
-1
  6
ByLayer
  2
DESENS-G13
 10
0.0
 20
0.0
 30
0.0
  0
LWPOLYLINE
  5
2BA
  8
HACHURE
 62
5
370
-1
  6
CONTINUOUS
100
AcDbEntity
100
AcDbPolyline
 90
9
 70
1
 10
357.0492340000000127
 20
136.1225029999999947
 10
354.6728120000000217
 20
137.7529859999999928
 10
352.0125509999999736
 20
137.5813559999999995
 10
349.523918999999978
 20
138.6111339999999927
 10
347.0492340000000127
 20
138.4395049999999969
 10
347.0492340000000127
 20
131.22934699999999
 10
352.0492340000000127
 20
131.22934699999999
 10
352.0492340000000127
 20
133.0293470000000013
 10
357.0492340000000127
 20
133.0293470000000013
  0
INSERT
  5
2BB
100
AcDbEntity
100
AcDbBlockReference
  8
HACHURE
 62
256
370
-1
  6
ByLayer
  2
DESENS-G14
 10
0.0
 20
0.0
 30
0.0
  0
LWPOLYLINE
  5
2BC
  8
FIN
 62
5
370
-1
  6
CONTINUOUS
100
AcDbEntity
100
AcDbPolyline
 90
5
 70
0
 10
357.0492340000000127
 20
136.1225029999999947
 10
354.6728120000000217
 20
137.7529859999999928
 10
352.0125509999999736
 20
137.5813559999999995
 10
349.523918999999978
 20
138.6111339999999927
 10
347.0492340000000127
 20
138.4395049999999969
  0
LINE
  5
2BD
100
AcDbEntity
100
AcDbLine
  8
FORT
 62
7
370
-1
  6
CONTINUOUS
 10
347.0492340000000127
 20
66.1125140000000044
 30
0.0
 11
347.0492340000000127
 21
125.5293470000000013
 31
0.0
  0
LINE
  5
2BE
100
AcDbEntity
100
AcDbLine
  8
FORT
 62
7
370
-1
  6
CONTINUOUS
 10
341.0492340000000127
 20
68.8126800000000003
 30
0.0
 11
341.0492340000000127
 21
80.4126799999999946
 31
0.0
  0
LINE
  5
2BF
100
AcDbEntity
100
AcDbLine
  8
FORT
 62
7
370
-1
  6
CONTINUOUS
 10
315.0492340000000127
 20
71.6126799999999974
 30
0.0
 11
315.0492340000000127
 21
77.6126799999999974
 31
0.0
  0
LINE
  5
2C0
100
AcDbEntity
100
AcDbLine
  8
FORT
 62
7
370
-1
  6
CONTINUOUS
 10
339.0492340000000127
 20
77.6126799999999974
 30
0.0
 11
339.0492340000000127
 21
71.6126799999999974
 31
0.0
  0
LINE
  5
2C1
100
AcDbEntity
100
AcDbLine
  8
FORT
 62
7
370
-1
  6
CONTINUOUS
 10
321.5492340000000127
 20
71.6126799999999974
 30
0.0
 11
321.5492340000000127
 21
77.6126799999999974
 31
0.0
  0
LINE
  5
2C2
100
AcDbEntity
100
AcDbLine
  8
FORT
 62
7
370
-1
  6
CONTINUOUS
 10
321.0492340000000127
 20
72.1126799999999974
 30
0.0
 11
321.5492340000000127
 21
71.6126799999999974
 31
0.0
  0
LINE
  5
2C3
100
AcDbEntity
100
AcDbLine
  8
FIN
 62
5
370
-1
  6
CONTINUOUS
 10
252.0
 20
50.0
 30
0.0
 11
274.0495670000000246
 21
114.5292639999999977
 31
0.0
  0
LINE
  5
2C4
100
AcDbEntity
100
AcDbLine
  8
FIN
 62
5
370
-1
  6
CONTINUOUS
 10
293.4964929999999868
 20
139.3559370000000115
 30
0.0
 11
302.0
 21
50.0
 31
0.0
  0
LINE
  5
2C5
100
AcDbEntity
100
AcDbLine
  8
FIN
 62
5
370
-1
  6
CONTINUOUS
 10
292.0
 20
50.0
 30
0.0
 11
292.0
 21
95.0065160000000049
 31
0.0
  0
LINE
  5
2C6
100
AcDbEntity
100
AcDbLine
  8
FIN
 62
5
370
-1
  6
CONTINUOUS
 10
272.0
 20
50.0
 30
0.0
 11
285.0722989999999868
 21
93.929625999999999
 31
0.0
  0
ARC
  5
2C7
100
AcDbEntity
  8
FORT
 62
7
370
-1
  6
CONTINUOUS
100
AcDbCircle
 10
309.8142389999999864
 20
74.1125140000000044
 30
0.0
 40
8.0
100
AcDbArc
 50
191.7096390000000099
 51
270.0
  0
MTEXT
  5
2C8
100
AcDbEntity
100
AcDbMText
  8
TEXTE
 62
7
370
-1
  6
CONTINUOUS
 10
244.0
 20
52.0
 30
0.0
 40
5.0
 41
100.0
 71
7
 72
2
  1
11
  7
iso9
 50
0.0
 73
1
 44
1.0
  0
MTEXT
  5
2C9
100
AcDbEntity
100
AcDbMText
  8
TEXTE
 62
7
370
-1
  6
CONTINUOUS
 10
264.0
 20
52.0
 30
0.0
 40
5.0
 41
100.0
 71
7
 72
2
  1
14
  7
iso9
 50
0.0
 73
1
 44
1.0
  0
MTEXT
  5
2CA
100
AcDbEntity
100
AcDbMText
  8
TEXTE
 62
7
370
-1
  6
CONTINUOUS
 10
284.0
 20
52.0
 30
0.0
 40
5.0
 41
100.0
 71
7
 72
2
  1
13
  7
iso9
 50
0.0
 73
1
 44
1.0
  0
MTEXT
  5
2CB
100
AcDbEntity
100
AcDbMText
  8
TEXTE
 62
7
370
-1
  6
CONTINUOUS
 10
304.0
 20
52.0
 30
0.0
 40
5.0
 41
100.0
 71
7
 72
2
  1
16
  7
iso9
 50
0.0
 73
1
 44
1.0
  0
LINE
  5
2CC
100
AcDbEntity
100
AcDbLine
  8
FORT
 62
7
370
-1
  6
CONTINUOUS
 10
335.0492340000000127
 20
71.6126799999999974
 30
0.0
 11
335.0492340000000127
 21
66.1125140000000044
 31
0.0
  0
ARC
  5
2CD
100
AcDbEntity
  8
FORT
 62
7
370
-1
  6
CONTINUOUS
100
AcDbCircle
 10
346.0492340000000127
 20
70.6126799999999974
 30
0.0
 40
1.0
100
AcDbArc
 50
270.0
 51
0.0
  0
LINE
  5
2CE
100
AcDbEntity
100
AcDbLine
  8
FORT
 62
7
370
-1
  6
CONTINUOUS
 10
341.0492340000000127
 20
69.6126799999999974
 30
0.0
 11
346.0492340000000127
 21
69.6126799999999974
 31
0.0
  0
LINE
  5
2CF
100
AcDbEntity
100
AcDbLine
  8
FORT
 62
7
370
-1
  6
CONTINUOUS
 10
341.0492340000000127
 20
68.8126800000000003
 30
0.0
 11
347.0492340000000127
 21
68.8126800000000003
 31
0.0
  0
LINE
  5
2D0
100
AcDbEntity
100
AcDbLine
  8
FORT
 62
7
370
-1
  6
CONTINUOUS
 10
335.0492340000000127
 20
70.8126800000000003
 30
0.0
 11
341.0492340000000127
 21
70.8126800000000003
 31
0.0
  0
LWPOLYLINE
  5
2D1
  8
HACHURE
 62
5
370
-1
  6
CONTINUOUS
100
AcDbEntity
100
AcDbPolyline
 90
6
 70
1
 10
347.0492340000000127
 20
68.8126800000000003
 10
341.0492340000000127
 20
68.8126800000000003
 10
341.0492340000000127
 20
70.8126800000000003
 10
335.0492340000000127
 20
70.8126800000000003
 10
335.0492340000000127
 20
66.1125140000000044
 10
347.0492340000000127
 20
66.1125140000000044
  0
INSERT
  5
2D2
100
AcDbEntity
100
AcDbBlockReference
  8
HACHURE
 62
256
370
-1
  6
ByLayer
  2
DESENS-G15
 10
0.0
 20
0.0
 30
0.0
  0
LINE
  5
2D3
100
AcDbEntity
100
AcDbLine
  8
FORT
 62
7
370
-1
  6
CONTINUOUS
 10
321.5492340000000127
 20
71.6126799999999974
 30
0.0
 11
341.0492340000000127
 21
71.6126799999999974
 31
0.0
  0
LINE
  5
2D4
100
AcDbEntity
100
AcDbLine
  8
FIN
 62
5
370
-1
  6
CONTINUOUS
 10
315.0492340000000127
 20
71.6126799999999974
 30
0.0
 11
321.5492340000000127
 21
71.6126799999999974
 31
0.0
  0
LINE
  5
2D5
100
AcDbEntity
100
AcDbLine
  8
FORT
 62
7
370
-1
  6
CONTINUOUS
 10
309.8142389999999864
 20
66.1125140000000044
 30
0.0
 11
347.0492340000000127
 21
66.1125140000000044
 31
0.0
  0
LWPOLYLINE
  5
2D6
  8
HACHURE
 62
5
370
-1
  6
CONTINUOUS
100
AcDbEntity
100
AcDbPolyline
 90
9
 70
1
 10
312.0495670000000246
 20
120.0293470000000013
 10
280.0495670000000246
 20
120.0293470000000013
 10
280.0495670000000246
 20
116.0293470000000013
 10
282.0495670000000246
 20
114.0293470000000013
 10
299.0495670000000246
 20
114.0293470000000013
 10
299.0495670000000246
 20
101.7793470000000013
 10
319.0495670000000246
 20
101.7793470000000013
 10
319.0495670000000246
 20
107.0293470000000013
 10
312.0495670000000246
 20
107.0293470000000013
  0
INSERT
  5
2D7
100
AcDbEntity
100
AcDbBlockReference
  8
HACHURE
 62
256
370
-1
  6
ByLayer
  2
DESENS-G16
 10
0.0
 20
0.0
 30
0.0
  0
LINE
  5
2D8
100
AcDbEntity
100
AcDbLine
  8
FORT
 62
7
370
-1
  6
CONTINUOUS
 10
285.1748999999999796
 20
85.1130140000000068
 30
0.0
 11
324.0492340000000127
 21
85.1130140000000068
 31
0.0
  0
LWPOLYLINE
  5
2D9
  8
HACHURE
 62
5
370
-1
  6
CONTINUOUS
100
AcDbEntity
100
AcDbPolyline
 90
14
 70
1
 10
321.0495670000000246
 20
126.0175440000000009
 10
319.7995670000000246
 20
126.3290499999999952
 10
316.3883260000000064
 20
125.8532950000000028
 10
311.7072319999999763
 20
126.5924150000000026
 10
307.0495670000000246
 20
126.504210999999998
 10
303.4126630000000091
 20
126.6745389999999958
 10
299.7991880000000151
 20
125.4426720000000017
 10
296.842708000000016
 20
125.1962989999999962
 10
294.2147249999999872
 20
123.2253120000000024
 10
291.7509919999999966
 20
122.4861920000000026
 10
290.3548759999999902
 20
120.0293470000000013
 10
295.2830030000000079
 20
120.0293470000000013
 42
-0.1270169999999997
 10
304.9654610000000048
 20
122.5293469999999871
 10
321.0495670000000246
 20
122.5293470000000013
  0
INSERT
  5
2DA
100
AcDbEntity
100
AcDbBlockReference
  8
HACHURE
 62
256
370
-1
  6
ByLayer
  2
DESENS-G17
 10
0.0
 20
0.0
 30
0.0
  0
LINE
  5
2DB
100
AcDbEntity
100
AcDbLine
  8
FORT
 62
7
370
-1
  6
CONTINUOUS
 10
280.0495670000000246
 20
142.8293470000000127
 30
0.0
 11
312.0495670000000246
 21
142.8293470000000127
 31
0.0
  0
LWPOLYLINE
  5
2DC
  8
FIN
 62
5
370
-1
  6
CONTINUOUS
100
AcDbEntity
100
AcDbPolyline
 90
11
 70
0
 10
321.0495670000000246
 20
126.0175440000000009
 10
319.7995670000000246
 20
126.3290499999999952
 10
316.3883260000000064
 20
125.8532950000000028
 10
311.7072319999999763
 20
126.5924150000000026
 10
307.0495670000000246
 20
126.504210999999998
 10
303.4126630000000091
 20
126.6745389999999958
 10
299.7991880000000151
 20
125.4426720000000017
 10
296.842708000000016
 20
125.1962989999999962
 10
294.2147249999999872
 20
123.2253120000000024
 10
291.7509919999999966
 20
122.4861920000000026
 10
290.3548759999999902
 20
120.0293470000000013
  0
LWPOLYLINE
  5
2DD
  8
HACHURE
 62
5
370
-1
  6
CONTINUOUS
100
AcDbEntity
100
AcDbPolyline
 90
16
 70
1
 10
306.167160000000024
 20
135.69498999999999
 10
305.6317879999999718
 20
138.193396000000007
 10
305.9887029999999868
 20
140.0293470000000013
 10
304.0495670000000246
 20
140.0293470000000013
 10
304.0495670000000246
 20
136.5293470000000013
 10
284.0495670000000246
 20
136.5293470000000013
 10
284.0495670000000246
 20
140.0293470000000013
 10
282.5215339999999742
 20
140.0293470000000013
 10
282.1646180000000186
 20
137.5687939999999969
 10
282.8784489999999892
 20
134.6242440000000045
 10
284.9307109999999739
 20
133.1965840000000014
 10
288.8567770000000223
 20
133.0181259999999952
 10
293.4074449999999956
 20
133.6427280000000053
 10
298.493485000000021
 20
133.0181259999999952
 10
301.7949499999999716
 20
134.0888720000000092
 10
304.5610419999999863
 20
133.9104140000000029
  0
INSERT
  5
2DE
100
AcDbEntity
100
AcDbBlockReference
  8
HACHURE
 62
256
370
-1
  6
ByLayer
  2
DESENS-G18
 10
0.0
 20
0.0
 30
0.0
  0
LINE
  5
2DF
100
AcDbEntity
100
AcDbLine
  8
FORT
 62
7
370
-1
  6
CONTINUOUS
 10
284.0495670000000246
 20
136.5293470000000013
 30
0.0
 11
304.0495670000000246
 21
136.5293470000000013
 31
0.0
  0
LINE
  5
2E0
100
AcDbEntity
100
AcDbLine
  8
FORT
 62
7
370
-1
  6
CONTINUOUS
 10
284.0495670000000246
 20
142.5293470000000013
 30
0.0
 11
304.0495670000000246
 21
142.5293470000000013
 31
0.0
  0
LWPOLYLINE
  5
2E1
  8
FIN
 62
5
370
-1
  6
CONTINUOUS
100
AcDbEntity
100
AcDbPolyline
 90
12
 70
0
 10
282.5215339999999742
 20
140.0293470000000013
 10
282.1646180000000186
 20
137.5687939999999969
 10
282.8784489999999892
 20
134.6242440000000045
 10
284.9307109999999739
 20
133.1965840000000014
 10
288.8567770000000223
 20
133.0181259999999952
 10
293.4074449999999956
 20
133.6427280000000053
 10
298.493485000000021
 20
133.0181259999999952
 10
301.7949499999999716
 20
134.0888720000000092
 10
304.5610419999999863
 20
133.9104140000000029
 10
306.167160000000024
 20
135.69498999999999
 10
305.6317879999999718
 20
138.193396000000007
 10
305.9887029999999868
 20
140.0293470000000013
  0
LWPOLYLINE
  5
2E2
  8
HACHURE
 62
5
370
-1
  6
CONTINUOUS
100
AcDbEntity
100
AcDbPolyline
 90
8
 70
1
 10
294.0495670000000246
 20
112.0291799999999967
 10
280.0495670000000246
 20
112.0291799999999967
 10
280.0495670000000246
 20
109.0291799999999967
 10
286.0495670000000246
 20
109.0291799999999967
 10
286.0495670000000246
 20
104.4793470000000042
 10
289.0495670000000246
 20
104.4793470000000042
 10
289.0495670000000246
 20
106.2793470000000013
 10
294.0495670000000246
 20
106.2793470000000013
  0
INSERT
  5
2E3
100
AcDbEntity
100
AcDbBlockReference
  8
HACHURE
 62
256
370
-1
  6
ByLayer
  2
DESENS-G19
 10
0.0
 20
0.0
 30
0.0
  0
LINE
  5
2E4
100
AcDbEntity
100
AcDbLine
  8
FORT
 62
7
370
-1
  6
CONTINUOUS
 10
284.0495670000000246
 20
93.929625999999999
 30
0.0
 11
294.0495670000000246
 21
93.929625999999999
 31
0.0
  0
LINE
  5
2E5
100
AcDbEntity
100
AcDbLine
  8
FORT
 62
7
370
-1
  6
CONTINUOUS
 10
289.0495670000000246
 20
97.0293470000000013
 30
0.0
 11
293.2995670000000246
 21
97.0293470000000013
 31
0.0
  0
LINE
  5
2E6
100
AcDbEntity
100
AcDbLine
  8
FORT
 62
7
370
-1
  6
CONTINUOUS
 10
289.0495670000000246
 20
96.2793470000000013
 30
0.0
 11
294.0495670000000246
 21
96.2793470000000013
 31
0.0
  0
LINE
  5
2E7
100
AcDbEntity
100
AcDbLine
  8
FORT
 62
7
370
-1
  6
CONTINUOUS
 10
285.2165669999999977
 20
75.1125140000000044
 30
0.0
 11
298.7575669999999946
 21
75.1125140000000044
 31
0.0
  0
LINE
  5
2E8
100
AcDbEntity
100
AcDbLine
  8
FORT
 62
7
370
-1
  6
CONTINUOUS
 10
289.0495670000000246
 20
105.5293470000000013
 30
0.0
 11
293.2995670000000246
 21
105.5293470000000013
 31
0.0
  0
LINE
  5
2E9
100
AcDbEntity
100
AcDbLine
  8
FORT
 62
7
370
-1
  6
CONTINUOUS
 10
289.0495670000000246
 20
106.2793470000000013
 30
0.0
 11
294.0495670000000246
 21
106.2793470000000013
 31
0.0
  0
LWPOLYLINE
  5
2EA
  8
HACHURE
 62
5
370
-1
  6
CONTINUOUS
100
AcDbEntity
100
AcDbPolyline
 90
6
 70
1
 10
294.0495670000000246
 20
96.2793470000000013
 10
289.0495670000000246
 20
96.2793470000000013
 10
289.0495670000000246
 20
98.0793469999999985
 10
286.0495670000000246
 20
98.0793469999999985
 10
286.0495670000000246
 20
93.929625999999999
 10
294.0495670000000246
 20
93.929625999999999
  0
INSERT
  5
2EB
100
AcDbEntity
100
AcDbBlockReference
  8
HACHURE
 62
256
370
-1
  6
ByLayer
  2
DESENS-G20
 10
0.0
 20
0.0
 30
0.0
  0
LINE
  5
2EC
100
AcDbEntity
100
AcDbLine
  8
FORT
 62
7
370
-1
  6
CONTINUOUS
 10
280.0495670000000246
 20
112.0291799999999967
 30
0.0
 11
294.0495670000000246
 21
112.0291799999999967
 31
0.0
  0
LINE
  5
2ED
100
AcDbEntity
100
AcDbLine
  8
FORT
 62
7
370
-1
  6
CONTINUOUS
 10
282.0495670000000246
 20
114.0293470000000013
 30
0.0
 11
299.0495670000000246
 21
114.0293470000000013
 31
0.0
  0
LINE
  5
2EE
100
AcDbEntity
100
AcDbLine
  8
FORT
 62
7
370
-1
  6
CONTINUOUS
 10
282.0495670000000246
 20
146.0293470000000013
 30
0.0
 11
299.0495670000000246
 21
146.0293470000000013
 31
0.0
  0
LINE
  5
2EF
100
AcDbEntity
100
AcDbLine
  8
FORT
 62
7
370
-1
  6
CONTINUOUS
 10
280.0495670000000246
 20
148.029514000000006
 30
0.0
 11
294.0495670000000246
 21
148.029514000000006
 31
0.0
  0
LINE
  5
2F0
100
AcDbEntity
100
AcDbLine
  8
FORT
 62
7
370
-1
  6
CONTINUOUS
 10
268.0495670000000246
 20
120.0293470000000013
 30
0.0
 11
312.0495670000000246
 21
120.0293470000000013
 31
0.0
  0
LINE
  5
2F1
100
AcDbEntity
100
AcDbLine
  8
FORT
 62
7
370
-1
  6
CONTINUOUS
 10
280.0495670000000246
 20
109.0291799999999967
 30
0.0
 11
280.0495670000000246
 21
121.0293470000000013
 31
0.0
  0
LWPOLYLINE
  5
2F2
  8
HACHURE
 62
5
370
-1
  6
CONTINUOUS
100
AcDbEntity
100
AcDbPolyline
 90
6
 70
1
 10
280.0495670000000246
 20
112.6958470000000005
 10
276.0496279999999842
 20
112.6958470000000005
 42
-0.4398970000000045
 10
272.049506000000008
 20
112.6958470000000432
 10
268.0495670000000246
 20
112.6958470000000005
 10
268.0495670000000246
 20
109.0291799999999967
 10
280.0495670000000246
 20
109.0291799999999967
  0
INSERT
  5
2F3
100
AcDbEntity
100
AcDbBlockReference
  8
HACHURE
 62
256
370
-1
  6
ByLayer
  2
DESENS-G21
 10
0.0
 20
0.0
 30
0.0
  0
LINE
  5
2F4
100
AcDbEntity
100
AcDbLine
  8
FIN
 62
5
370
-1
  6
CONTINUOUS
 10
239.1214109999999948
 20
97.2134230000000059
 30
0.0
 11
237.4680030000000102
 21
85.074473999999995
 31
0.0
  0
ARC
  5
2F5
100
AcDbEntity
  8
FIN
 62
5
370
-1
  6
CONTINUOUS
100
AcDbCircle
 10
240.7708399999999926
 20
84.6246050000000025
 30
0.0
 40
3.3333330000000001
100
AcDbArc
 50
172.2436570000000131
 51
262.2436569999999847
  0
ARC
  5
2F6
100
AcDbEntity
  8
FIN
 62
5
370
-1
  6
CONTINUOUS
100
AcDbCircle
 10
244.0736760000000061
 20
84.1747359999999958
 30
0.0
 40
3.3333330000000001
100
AcDbArc
 50
262.2436569999999847
 51
352.2436569999999847
  0
LINE
  5
2F7
100
AcDbEntity
100
AcDbLine
  8
FORT
 62
7
370
-1
  6
CONTINUOUS
 10
286.0495670000000246
 20
103.7793470000000013
 30
0.0
 11
286.0495670000000246
 21
109.0291799999999967
 31
0.0
  0
LINE
  5
2F8
100
AcDbEntity
100
AcDbLine
  8
FORT
 62
7
370
-1
  6
CONTINUOUS
 10
284.0495670000000246
 20
109.0291799999999967
 30
0.0
 11
284.0495670000000246
 21
103.7793470000000013
 31
0.0
  0
LWPOLYLINE
  5
2F9
  8
HACHURE
 62
5
370
-1
  6
CONTINUOUS
100
AcDbEntity
100
AcDbPolyline
 90
4
 70
1
 10
286.0495670000000246
 20
109.0291799999999967
 10
284.0495670000000246
 20
109.0291799999999967
 10
284.0495670000000246
 20
104.4793470000000042
 10
286.0495670000000246
 20
104.4793470000000042
  0
INSERT
  5
2FA
100
AcDbEntity
100
AcDbBlockReference
  8
HACHURE
 62
256
370
-1
  6
ByLayer
  2
DESENS-G23
 10
0.0
 20
0.0
 30
0.0
  0
LINE
  5
2FB
100
AcDbEntity
100
AcDbLine
  8
FORT
 62
7
370
-1
  6
CONTINUOUS
 10
264.0491210000000137
 20
99.2793470000000013
 30
0.0
 11
273.0495670000000246
 21
99.2793470000000013
 31
0.0
  0
LINE
  5
2FC
100
AcDbEntity
100
AcDbLine
  8
FORT
 62
7
370
-1
  6
CONTINUOUS
 10
264.0491210000000137
 20
103.2793470000000013
 30
0.0
 11
273.0495670000000246
 21
103.2793470000000013
 31
0.0
  0
ARC
  5
2FD
100
AcDbEntity
  8
FORT
 62
7
370
-1
  6
CONTINUOUS
100
AcDbCircle
 10
267.7582340000000158
 20
90.7378470000000021
 30
0.0
 40
3.2916669999999999
100
AcDbArc
 50
0.0
 51
90.0
  0
LINE
  5
2FE
100
AcDbEntity
100
AcDbLine
  8
FORT
 62
7
370
-1
  6
CONTINUOUS
 10
262.8944210000000226
 20
101.2793470000000013
 30
0.0
 11
264.0491210000000137
 21
99.2793470000000013
 31
0.0
  0
LINE
  5
2FF
100
AcDbEntity
100
AcDbLine
  8
FORT
 62
7
370
-1
  6
CONTINUOUS
 10
262.8944210000000226
 20
101.2793470000000013
 30
0.0
 11
264.0491210000000137
 21
103.2793470000000013
 31
0.0
  0
LINE
  5
300
100
AcDbEntity
100
AcDbLine
  8
FORT
 62
7
370
-1
  6
CONTINUOUS
 10
264.0491210000000137
 20
103.2793470000000013
 30
0.0
 11
264.0491210000000137
 21
99.2793470000000013
 31
0.0
  0
LINE
  5
301
100
AcDbEntity
100
AcDbLine
  8
FORT
 62
7
370
-1
  6
CONTINUOUS
 10
289.0495670000000246
 20
106.2793470000000013
 30
0.0
 11
289.0495670000000246
 21
96.2793470000000013
 31
0.0
  0
LINE
  5
302
100
AcDbEntity
100
AcDbLine
  8
FORT
 62
7
370
-1
  6
CONTINUOUS
 10
273.5495670000000246
 20
98.7793470000000013
 30
0.0
 11
289.0495670000000246
 21
98.7793470000000013
 31
0.0
  0
LINE
  5
303
100
AcDbEntity
100
AcDbLine
  8
FORT
 62
7
370
-1
  6
CONTINUOUS
 10
273.5495670000000246
 20
103.7793470000000013
 30
0.0
 11
289.0495670000000246
 21
103.7793470000000013
 31
0.0
  0
LINE
  5
304
100
AcDbEntity
100
AcDbLine
  8
FORT
 62
7
370
-1
  6
CONTINUOUS
 10
273.0495670000000246
 20
99.2793470000000013
 30
0.0
 11
273.5495670000000246
 21
98.7793470000000013
 31
0.0
  0
LINE
  5
305
100
AcDbEntity
100
AcDbLine
  8
FORT
 62
7
370
-1
  6
CONTINUOUS
 10
273.0495670000000246
 20
103.2793470000000013
 30
0.0
 11
273.5495670000000246
 21
103.7793470000000013
 31
0.0
  0
LINE
  5
306
100
AcDbEntity
100
AcDbLine
  8
FORT
 62
7
370
-1
  6
CONTINUOUS
 10
284.0495670000000246
 20
98.7793470000000013
 30
0.0
 11
284.0495670000000246
 21
93.929625999999999
 31
0.0
  0
LINE
  5
307
100
AcDbEntity
100
AcDbLine
  8
FORT
 62
7
370
-1
  6
CONTINUOUS
 10
286.0495670000000246
 20
98.7793470000000013
 30
0.0
 11
286.0495670000000246
 21
93.929625999999999
 31
0.0
  0
LINE
  5
308
100
AcDbEntity
100
AcDbLine
  8
FORT
 62
7
370
-1
  6
CONTINUOUS
 10
284.0495670000000246
 20
98.0793469999999985
 30
0.0
 11
289.0495670000000246
 21
98.0793469999999985
 31
0.0
  0
LINE
  5
309
100
AcDbEntity
100
AcDbLine
  8
FORT
 62
7
370
-1
  6
CONTINUOUS
 10
287.0495670000000246
 20
98.7793470000000013
 30
0.0
 11
287.0495670000000246
 21
103.7793470000000013
 31
0.0
  0
ARC
  5
30A
100
AcDbEntity
  8
FORT
 62
7
370
-1
  6
CONTINUOUS
100
AcDbCircle
 10
285.2165669999999977
 20
89.2791799999999967
 30
0.0
 40
14.1666670000000003
100
AcDbArc
 50
180.0
 51
270.0
  0
LINE
  5
30B
100
AcDbEntity
100
AcDbLine
  8
FORT
 62
7
370
-1
  6
CONTINUOUS
 10
271.0498999999999796
 20
90.7378470000000021
 30
0.0
 11
271.0498999999999796
 21
89.6126799999999974
 31
0.0
  0
LINE
  5
30C
100
AcDbEntity
100
AcDbLine
  8
FORT
 62
7
370
-1
  6
CONTINUOUS
 10
271.0498999999999796
 20
89.6126799999999974
 30
0.0
 11
271.0498999999999796
 21
89.2791799999999967
 31
0.0
  0
ARC
  5
30D
100
AcDbEntity
  8
FORT
 62
7
370
-1
  6
CONTINUOUS
100
AcDbCircle
 10
285.1748999999999796
 20
89.2380140000000068
 30
0.0
 40
4.125
100
AcDbArc
 50
181.1564119999999889
 51
270.0
  0
ARC
  5
30E
100
AcDbEntity
  8
FORT
 62
7
370
-1
  6
CONTINUOUS
100
AcDbCircle
 10
285.1748999999999796
 20
89.9610940000000028
 30
0.0
 40
4.125
100
AcDbArc
 50
105.8314330000000041
 51
178.8435880000000111
  0
LINE
  5
30F
100
AcDbEntity
100
AcDbLine
  8
FORT
 62
7
370
-1
  6
CONTINUOUS
 10
281.0507400000000189
 20
90.0443439999999953
 30
0.0
 11
281.0507400000000189
 21
89.1547640000000001
 31
0.0
  0
LINE
  5
310
100
AcDbEntity
100
AcDbLine
  8
FORT
 62
7
370
-1
  6
CONTINUOUS
 10
284.0495670000000246
 20
98.7793470000000013
 30
0.0
 11
284.0495670000000246
 21
93.929625999999999
 31
0.0
  0
LINE
  5
311
100
AcDbEntity
100
AcDbLine
  8
FORT
 62
7
370
-1
  6
CONTINUOUS
 10
284.0495670000000246
 20
104.4793470000000042
 30
0.0
 11
289.0495670000000246
 21
104.4793470000000042
 31
0.0
  0
LINE
  5
312
100
AcDbEntity
100
AcDbLine
  8
FORT
 62
7
370
-1
  6
CONTINUOUS
 10
268.0492340000000127
 20
103.7793470000000013
 30
0.0
 11
268.0492340000000127
 21
98.7793470000000013
 31
0.0
  0
LINE
  5
313
100
AcDbEntity
100
AcDbLine
  8
FORT
 62
7
370
-1
  6
CONTINUOUS
 10
273.0495670000000246
 20
103.2793470000000013
 30
0.0
 11
273.0495670000000246
 21
99.2793470000000013
 31
0.0
  0
LINE
  5
314
100
AcDbEntity
100
AcDbLine
  8
FORT
 62
7
370
-1
  6
CONTINUOUS
 10
273.5495670000000246
 20
98.7793470000000013
 30
0.0
 11
273.5495670000000246
 21
103.7793470000000013
 31
0.0
  0
LINE
  5
315
100
AcDbEntity
100
AcDbLine
  8
FORT
 62
7
370
-1
  6
CONTINUOUS
 10
283.8383059999999887
 20
91.3732569999999953
 30
0.0
 11
285.0722989999999868
 21
93.929625999999999
 31
0.0
  0
LINE
  5
316
100
AcDbEntity
100
AcDbLine
  8
FORT
 62
7
370
-1
  6
CONTINUOUS
 10
284.7340639999999894
 20
91.1112300000000062
 30
0.0
 11
285.0722989999999868
 21
93.929625999999999
 31
0.0
  0
LWPOLYLINE
  5
317
  8
HACHURE
 62
5
370
-1
  6
CONTINUOUS
100
AcDbEntity
100
AcDbPolyline
 90
4
 70
1
 10
286.0495670000000246
 20
98.0793469999999985
 10
284.0495670000000246
 20
98.0793469999999985
 10
284.0495670000000246
 20
93.929625999999999
 10
286.0495670000000246
 20
93.929625999999999
  0
INSERT
  5
318
100
AcDbEntity
100
AcDbBlockReference
  8
HACHURE
 62
256
370
-1
  6
ByLayer
  2
DESENS-G24
 10
0.0
 20
0.0
 30
0.0
  0
LINE
  5
319
100
AcDbEntity
100
AcDbLine
  8
FORT
 62
7
370
-1
  6
CONTINUOUS
 10
268.0495670000000246
 20
109.0291799999999967
 30
0.0
 11
286.0495670000000246
 21
109.0291799999999967
 31
0.0
  0
LINE
  5
31A
100
AcDbEntity
100
AcDbLine
  8
FIN
 62
5
370
-1
  6
CONTINUOUS
 10
247.3765129999999886
 20
83.7248670000000033
 30
0.0
 11
249.0299200000000042
 21
95.8638159999999999
 31
0.0
  0
LINE
  5
31B
100
AcDbEntity
100
AcDbLine
  8
FIN
 62
5
370
-1
  6
CONTINUOUS
 10
268.0492340000000127
 20
98.7793470000000013
 30
0.0
 11
273.5495670000000246
 21
98.7793470000000013
 31
0.0
  0
LINE
  5
31C
100
AcDbEntity
100
AcDbLine
  8
FIN
 62
5
370
-1
  6
CONTINUOUS
 10
268.0492340000000127
 20
103.7793470000000013
 30
0.0
 11
273.5495670000000246
 21
103.7793470000000013
 31
0.0
  0
LINE
  5
31D
100
AcDbEntity
100
AcDbLine
  8
FIN
 62
5
370
-1
  6
CONTINUOUS
 10
273.0495670000000246
 20
103.2793470000000013
 30
0.0
 11
287.0495670000000246
 21
103.2793470000000013
 31
0.0
  0
LINE
  5
31E
100
AcDbEntity
100
AcDbLine
  8
FIN
 62
5
370
-1
  6
CONTINUOUS
 10
273.0495670000000246
 20
99.2793470000000013
 30
0.0
 11
287.0495670000000246
 21
99.2793470000000013
 31
0.0
  0
ARC
  5
31F
100
AcDbEntity
  8
FORT
 62
7
370
-1
  6
CONTINUOUS
100
AcDbCircle
 10
254.6122719999999902
 20
97.5948889999999949
 30
0.0
 40
3.4373779999999998
100
AcDbArc
 50
14.9500480000000007
 51
87.5718789999999956
  0
ARC
  5
320
100
AcDbEntity
  8
FORT
 62
7
370
-1
  6
CONTINUOUS
100
AcDbCircle
 10
263.7302050000000122
 20
100.029514000000006
 30
0.0
 40
6.0
100
AcDbArc
 50
194.9500480000000096
 51
270.0
  0
LINE
  5
321
100
AcDbEntity
100
AcDbLine
  8
FORT
 62
7
370
-1
  6
CONTINUOUS
 10
263.7302050000000122
 20
94.029514000000006
 30
0.0
 11
267.7582340000000158
 21
94.029514000000006
 31
0.0
  0
CIRCLE
  5
322
100
AcDbEntity
100
AcDbCircle
  8
FORT
 62
7
370
-1
  6
CONTINUOUS
 10
274.0495670000000246
 20
145.5294299999999907
 30
0.0
 40
2.713238
  0
LINE
  5
323
100
AcDbEntity
100
AcDbLine
  8
FORT
 62
7
370
-1
  6
CONTINUOUS
 10
282.0495670000000246
 20
146.0293470000000013
 30
0.0
 11
280.0495670000000246
 21
144.0293470000000013
 31
0.0
  0
CIRCLE
  5
324
100
AcDbEntity
100
AcDbCircle
  8
FORT
 62
7
370
-1
  6
CONTINUOUS
 10
274.0495670000000246
 20
114.5292639999999977
 30
0.0
 40
2.713238
  0
LINE
  5
325
100
AcDbEntity
100
AcDbLine
  8
FORT
 62
7
370
-1
  6
CONTINUOUS
 10
268.0495670000000246
 20
112.6958470000000005
 30
0.0
 11
272.049506000000008
 21
112.6958470000000005
 31
0.0
  0
LINE
  5
326
100
AcDbEntity
100
AcDbLine
  8
FORT
 62
7
370
-1
  6
CONTINUOUS
 10
276.0496279999999842
 20
112.6958470000000005
 30
0.0
 11
280.0495670000000246
 21
112.6958470000000005
 31
0.0
  0
LINE
  5
327
100
AcDbEntity
100
AcDbLine
  8
FORT
 62
7
370
-1
  6
CONTINUOUS
 10
264.0495670000000246
 20
117.0293470000000013
 30
0.0
 11
268.0495670000000246
 21
117.0293470000000013
 31
0.0
  0
LINE
  5
328
100
AcDbEntity
100
AcDbLine
  8
FORT
 62
7
370
-1
  6
CONTINUOUS
 10
264.0495670000000246
 20
143.0293470000000013
 30
0.0
 11
268.0495670000000246
 21
143.0293470000000013
 31
0.0
  0
LINE
  5
329
100
AcDbEntity
100
AcDbLine
  8
FORT
 62
7
370
-1
  6
CONTINUOUS
 10
264.0495670000000246
 20
117.0293470000000013
 30
0.0
 11
264.0495670000000246
 21
143.0293470000000013
 31
0.0
  0
LINE
  5
32A
100
AcDbEntity
100
AcDbLine
  8
FORT
 62
7
370
-1
  6
CONTINUOUS
 10
279.0495670000000246
 20
120.0293470000000013
 30
0.0
 11
279.0495670000000246
 21
140.0293470000000013
 31
0.0
  0
LINE
  5
32B
100
AcDbEntity
100
AcDbLine
  8
FORT
 62
7
370
-1
  6
CONTINUOUS
 10
281.0495670000000246
 20
120.0293470000000013
 30
0.0
 11
281.0495670000000246
 21
140.0293470000000013
 31
0.0
  0
LINE
  5
32C
100
AcDbEntity
100
AcDbLine
  8
FORT
 62
7
370
-1
  6
CONTINUOUS
 10
284.0495670000000246
 20
136.5293470000000013
 30
0.0
 11
284.0495670000000246
 21
142.5293470000000013
 31
0.0
  0
LINE
  5
32D
100
AcDbEntity
100
AcDbLine
  8
FORT
 62
7
370
-1
  6
CONTINUOUS
 10
282.0495670000000246
 20
114.0293470000000013
 30
0.0
 11
280.0495670000000246
 21
116.0293470000000013
 31
0.0
  0
LINE
  5
32E
100
AcDbEntity
100
AcDbLine
  8
FORT
 62
7
370
-1
  6
CONTINUOUS
 10
279.0495670000000246
 20
139.0293470000000013
 30
0.0
 11
281.0495670000000246
 21
139.0293470000000013
 31
0.0
  0
LINE
  5
32F
100
AcDbEntity
100
AcDbLine
  8
FORT
 62
7
370
-1
  6
CONTINUOUS
 10
279.0495670000000246
 20
121.0293470000000013
 30
0.0
 11
281.0495670000000246
 21
121.0293470000000013
 31
0.0
  0
LINE
  5
330
100
AcDbEntity
100
AcDbLine
  8
FORT
 62
7
370
-1
  6
CONTINUOUS
 10
276.0496279999999842
 20
116.3626799999999974
 30
0.0
 11
280.0495670000000246
 21
116.3626799999999974
 31
0.0
  0
LINE
  5
331
100
AcDbEntity
100
AcDbLine
  8
FORT
 62
7
370
-1
  6
CONTINUOUS
 10
268.0495670000000246
 20
116.3626799999999974
 30
0.0
 11
272.049506000000008
 21
116.3626799999999974
 31
0.0
  0
LINE
  5
332
100
AcDbEntity
100
AcDbLine
  8
FORT
 62
7
370
-1
  6
CONTINUOUS
 10
268.0495670000000246
 20
140.0293470000000013
 30
0.0
 11
284.0495670000000246
 21
140.0293470000000013
 31
0.0
  0
LINE
  5
333
100
AcDbEntity
100
AcDbLine
  8
FORT
 62
7
370
-1
  6
CONTINUOUS
 10
276.0496279999999842
 20
143.696013999999991
 30
0.0
 11
280.0495670000000246
 21
143.696013999999991
 31
0.0
  0
LINE
  5
334
100
AcDbEntity
100
AcDbLine
  8
FORT
 62
7
370
-1
  6
CONTINUOUS
 10
268.0495670000000246
 20
143.696013999999991
 30
0.0
 11
272.049506000000008
 21
143.696013999999991
 31
0.0
  0
CIRCLE
  5
335
100
AcDbEntity
100
AcDbCircle
  8
FORT
 62
7
370
-1
  6
CONTINUOUS
 10
274.0495670000000246
 20
114.5292639999999977
 30
0.0
 40
0.25
  0
LWPOLYLINE
  5
336
  8
HACHURE
 62
5
370
-1
  6
CONTINUOUS
100
AcDbEntity
100
AcDbPolyline
 90
6
 70
1
 10
280.0495670000000246
 20
120.0293470000000013
 10
268.0495670000000246
 20
120.0293470000000013
 10
268.0495670000000246
 20
116.3626799999999974
 10
272.049506000000008
 20
116.3626799999999974
 42
-0.4398970000000023
 10
276.0496279999999842
 20
116.3626800000000401
 10
280.0495670000000246
 20
116.3626799999999974
  0
INSERT
  5
337
100
AcDbEntity
100
AcDbBlockReference
  8
HACHURE
 62
256
370
-1
  6
ByLayer
  2
DESENS-G25
 10
0.0
 20
0.0
 30
0.0
  0
LWPOLYLINE
  5
338
  8
HACHURE
 62
5
370
-1
  6
CONTINUOUS
100
AcDbEntity
100
AcDbPolyline
 90
6
 70
1
 10
280.0495670000000246
 20
143.696013999999991
 10
276.0496279999999842
 20
143.696013999999991
 42
-0.4398970000000011
 10
272.049506000000008
 20
143.6960140000000195
 10
268.0495670000000246
 20
143.696013999999991
 10
268.0495670000000246
 20
140.0293470000000013
 10
280.0495670000000246
 20
140.0293470000000013
  0
INSERT
  5
339
100
AcDbEntity
100
AcDbBlockReference
  8
HACHURE
 62
256
370
-1
  6
ByLayer
  2
DESENS-G26
 10
0.0
 20
0.0
 30
0.0
  0
LINE
  5
33A
100
AcDbEntity
100
AcDbLine
  8
FORT
 62
7
370
-1
  6
CONTINUOUS
 10
268.0495670000000246
 20
147.3628469999999879
 30
0.0
 11
272.049506000000008
 21
147.3628469999999879
 31
0.0
  0
LINE
  5
33B
100
AcDbEntity
100
AcDbLine
  8
FORT
 62
7
370
-1
  6
CONTINUOUS
 10
276.0496279999999842
 20
147.3628469999999879
 30
0.0
 11
280.0495670000000246
 21
147.3628469999999879
 31
0.0
  0
LINE
  5
33C
100
AcDbEntity
100
AcDbLine
  8
FORT
 62
7
370
-1
  6
CONTINUOUS
 10
294.0495670000000246
 20
93.929625999999999
 30
0.0
 11
294.0495670000000246
 21
114.0293470000000013
 31
0.0
  0
LINE
  5
33D
100
AcDbEntity
100
AcDbLine
  8
FORT
 62
7
370
-1
  6
CONTINUOUS
 10
299.0495670000000246
 20
114.0293470000000013
 30
0.0
 11
299.0495670000000246
 21
97.0293470000000013
 31
0.0
  0
LINE
  5
33E
100
AcDbEntity
100
AcDbLine
  8
FORT
 62
7
370
-1
  6
CONTINUOUS
 10
319.0495670000000246
 20
120.0293470000000013
 30
0.0
 11
319.0495670000000246
 21
97.0293470000000013
 31
0.0
  0
LWPOLYLINE
  5
33F
  8
HACHURE
 62
5
370
-1
  6
CONTINUOUS
100
AcDbEntity
100
AcDbPolyline
 90
11
 70
1
 10
347.0492340000000127
 20
125.5293470000000013
 10
336.5492340000000127
 20
125.5293470000000013
 10
336.0492340000000127
 20
126.0293470000000013
 10
330.0492340000000127
 20
126.0293470000000013
 10
330.0492340000000127
 20
85.1128470000000021
 10
331.0492340000000127
 20
84.1128470000000021
 10
335.0492340000000127
 20
84.1128470000000021
 10
335.0492340000000127
 20
78.4126799999999946
 10
341.0492340000000127
 20
78.4126799999999946
 10
341.0492340000000127
 20
80.4126799999999946
 10
347.0492340000000127
 20
80.4126799999999946
  0
INSERT
  5
340
100
AcDbEntity
100
AcDbBlockReference
  8
HACHURE
 62
256
370
-1
  6
ByLayer
  2
DESENS-G27
 10
0.0
 20
0.0
 30
0.0
  0
LINE
  5
341
100
AcDbEntity
100
AcDbLine
  8
FORT
 62
7
370
-1
  6
CONTINUOUS
 10
312.0495670000000246
 20
122.0363590000000045
 30
0.0
 11
312.0495670000000246
 21
107.0293470000000013
 31
0.0
  0
LINE
  5
342
100
AcDbEntity
100
AcDbLine
  8
FORT
 62
7
370
-1
  6
CONTINUOUS
 10
299.0495670000000246
 20
101.7793470000000013
 30
0.0
 11
319.0495670000000246
 21
101.7793470000000013
 31
0.0
  0
LINE
  5
343
100
AcDbEntity
100
AcDbLine
  8
FORT
 62
7
370
-1
  6
CONTINUOUS
 10
299.0495670000000246
 20
97.0293470000000013
 30
0.0
 11
319.0495670000000246
 21
97.0293470000000013
 31
0.0
  0
ARC
  5
344
100
AcDbEntity
  8
FORT
 62
7
370
-1
  6
CONTINUOUS
100
AcDbCircle
 10
293.2995670000000246
 20
97.7793470000000013
 30
0.0
 40
0.75
100
AcDbArc
 50
270.0
 51
0.0
  0
ARC
  5
345
100
AcDbEntity
  8
FORT
 62
7
370
-1
  6
CONTINUOUS
100
AcDbCircle
 10
293.2995670000000246
 20
104.7793470000000013
 30
0.0
 40
0.75
100
AcDbArc
 50
0.0
 51
90.0
  0
CIRCLE
  5
346
100
AcDbEntity
100
AcDbCircle
  8
FORT
 62
7
370
-1
  6
CONTINUOUS
 10
292.0
 20
95.0065160000000049
 30
0.0
 40
0.25
  0
LINE
  5
347
100
AcDbEntity
100
AcDbLine
  8
FORT
 62
7
370
-1
  6
CONTINUOUS
 10
308.6055200000000127
 20
74.6126799999999974
 30
0.0
 11
310.0488960000000134
 21
72.1126799999999974
 31
0.0
  0
LINE
  5
348
100
AcDbEntity
100
AcDbLine
  8
FORT
 62
7
370
-1
  6
CONTINUOUS
 10
308.6055200000000127
 20
74.6126799999999974
 30
0.0
 11
310.0488960000000134
 21
77.1126799999999974
 31
0.0
  0
LINE
  5
349
100
AcDbEntity
100
AcDbLine
  8
FORT
 62
7
370
-1
  6
CONTINUOUS
 10
310.0488960000000134
 20
77.1126799999999974
 30
0.0
 11
310.0488960000000134
 21
72.1126799999999974
 31
0.0
  0
LINE
  5
34A
100
AcDbEntity
100
AcDbLine
  8
FORT
 62
7
370
-1
  6
CONTINUOUS
 10
321.0492340000000127
 20
72.1126799999999974
 30
0.0
 11
321.0492340000000127
 21
77.1126799999999974
 31
0.0
  0
LINE
  5
34B
100
AcDbEntity
100
AcDbLine
  8
FORT
 62
7
370
-1
  6
CONTINUOUS
 10
310.0488960000000134
 20
72.1126799999999974
 30
0.0
 11
321.0492340000000127
 21
72.1126799999999974
 31
0.0
  0
LINE
  5
34C
100
AcDbEntity
100
AcDbLine
  8
FORT
 62
7
370
-1
  6
CONTINUOUS
 10
321.5492340000000127
 20
77.6126799999999974
 30
0.0
 11
341.0492340000000127
 21
77.6126799999999974
 31
0.0
  0
LINE
  5
34D
100
AcDbEntity
100
AcDbLine
  8
FORT
 62
7
370
-1
  6
CONTINUOUS
 10
324.0492340000000127
 20
84.1128470000000021
 30
0.0
 11
335.0492340000000127
 21
84.1128470000000021
 31
0.0
  0
LINE
  5
34E
100
AcDbEntity
100
AcDbLine
  8
FORT
 62
7
370
-1
  6
CONTINUOUS
 10
310.0488960000000134
 20
77.1126799999999974
 30
0.0
 11
321.0492340000000127
 21
77.1126799999999974
 31
0.0
  0
LINE
  5
34F
100
AcDbEntity
100
AcDbLine
  8
FORT
 62
7
370
-1
  6
CONTINUOUS
 10
312.0495670000000246
 20
107.0293470000000013
 30
0.0
 11
319.0495670000000246
 21
107.0293470000000013
 31
0.0
  0
CIRCLE
  5
350
100
AcDbEntity
100
AcDbCircle
  8
FORT
 62
7
370
-1
  6
CONTINUOUS
 10
315.693552000000011
 20
104.3079479999999961
 30
0.0
 40
0.25
  0
LINE
  5
351
100
AcDbEntity
100
AcDbLine
  8
FORT
 62
7
370
-1
  6
CONTINUOUS
 10
321.0492340000000127
 20
77.1126799999999974
 30
0.0
 11
321.5492340000000127
 21
77.6126799999999974
 31
0.0
  0
LINE
  5
352
100
AcDbEntity
100
AcDbLine
  8
FORT
 62
7
370
-1
  6
CONTINUOUS
 10
331.0492340000000127
 20
84.1128470000000021
 30
0.0
 11
330.0492340000000127
 21
85.1128470000000021
 31
0.0
  0
LINE
  5
353
100
AcDbEntity
100
AcDbLine
  8
FORT
 62
7
370
-1
  6
CONTINUOUS
 10
341.0492340000000127
 20
79.6126799999999974
 30
0.0
 11
346.0492340000000127
 21
79.6126799999999974
 31
0.0
  0
ARC
  5
354
100
AcDbEntity
  8
FORT
 62
7
370
-1
  6
CONTINUOUS
100
AcDbCircle
 10
346.0492340000000127
 20
78.6126799999999974
 30
0.0
 40
1.0
100
AcDbArc
 50
0.0
 51
90.0
  0
LINE
  5
355
100
AcDbEntity
100
AcDbLine
  8
FORT
 62
7
370
-1
  6
CONTINUOUS
 10
335.0492340000000127
 20
78.4126799999999946
 30
0.0
 11
341.0492340000000127
 21
78.4126799999999946
 31
0.0
  0
LINE
  5
356
100
AcDbEntity
100
AcDbLine
  8
FORT
 62
7
370
-1
  6
CONTINUOUS
 10
341.0492340000000127
 20
80.4126799999999946
 30
0.0
 11
347.0492340000000127
 21
80.4126799999999946
 31
0.0
  0
LINE
  5
357
100
AcDbEntity
100
AcDbLine
  8
FORT
 62
7
370
-1
  6
CONTINUOUS
 10
335.0492340000000127
 20
84.1128470000000021
 30
0.0
 11
335.0492340000000127
 21
77.6126799999999974
 31
0.0
  0
LINE
  5
358
100
AcDbEntity
100
AcDbLine
  8
FIN
 62
5
370
-1
  6
CONTINUOUS
 10
321.0492340000000127
 20
72.1126799999999974
 30
0.0
 11
339.0492340000000127
 21
72.1126799999999974
 31
0.0
  0
LINE
  5
359
100
AcDbEntity
100
AcDbLine
  8
FIN
 62
5
370
-1
  6
CONTINUOUS
 10
321.0492340000000127
 20
77.1126799999999974
 30
0.0
 11
339.0492340000000127
 21
77.1126799999999974
 31
0.0
  0
LINE
  5
35A
100
AcDbEntity
100
AcDbLine
  8
FIN
 62
5
370
-1
  6
CONTINUOUS
 10
315.0492340000000127
 20
77.6126799999999974
 30
0.0
 11
321.5415120000000115
 21
77.6126799999999974
 31
0.0
  0
ARC
  5
35B
100
AcDbEntity
  8
FORT
 62
7
370
-1
  6
CONTINUOUS
100
AcDbCircle
 10
298.7575669999999946
 20
71.8208470000000005
 30
0.0
 40
3.2916669999999999
100
AcDbArc
 50
11.7096389999999992
 51
90.0
  0
ARC
  5
35C
100
AcDbEntity
  8
FORT
 62
7
370
-1
  6
CONTINUOUS
100
AcDbCircle
 10
304.9654610000000048
 20
102.5293470000000013
 30
0.0
 40
20.0
100
AcDbArc
 50
90.0
 51
118.9550239999999945
  0
CIRCLE
  5
35D
100
AcDbEntity
100
AcDbCircle
  8
FORT
 62
7
370
-1
  6
CONTINUOUS
 10
293.4964929999999868
 20
139.3559370000000115
 30
0.0
 40
0.25
  0
LINE
  5
35E
100
AcDbEntity
100
AcDbLine
  8
FORT
 62
7
370
-1
  6
CONTINUOUS
 10
304.9654610000000048
 20
122.5293470000000013
 30
0.0
 11
321.0495670000000246
 21
122.5293470000000013
 31
0.0
  0
LINE
  5
35F
100
AcDbEntity
100
AcDbLine
  8
FORT
 62
7
370
-1
  6
CONTINUOUS
 10
304.0495670000000246
 20
140.0293470000000013
 30
0.0
 11
319.7995670000000246
 21
140.0293470000000013
 31
0.0
  0
LINE
  5
360
100
AcDbEntity
100
AcDbLine
  8
FIN
 62
5
370
-1
  6
CONTINUOUS
 10
307.0495670000000246
 20
138.7793470000000013
 30
0.0
 11
321.0495670000000246
 21
138.7793470000000013
 31
0.0
  0
LINE
  5
361
100
AcDbEntity
100
AcDbLine
  8
FORT
 62
7
370
-1
  6
CONTINUOUS
 10
304.0495670000000246
 20
136.5293470000000013
 30
0.0
 11
304.0495670000000246
 21
142.5293470000000013
 31
0.0
  0
LINE
  5
362
100
AcDbEntity
100
AcDbLine
  8
FORT
 62
7
370
-1
  6
CONTINUOUS
 10
307.0495670000000246
 20
126.504210999999998
 30
0.0
 11
307.0495670000000246
 21
140.0293470000000013
 31
0.0
  0
ARC
  5
363
100
AcDbEntity
  8
FORT
 62
7
370
-1
  6
CONTINUOUS
100
AcDbCircle
 10
313.0495670000000246
 20
144.0293470000000013
 30
0.0
 40
1.0
100
AcDbArc
 50
90.0
 51
180.0
  0
LINE
  5
364
100
AcDbEntity
100
AcDbLine
  8
FORT
 62
7
370
-1
  6
CONTINUOUS
 10
315.4925670000000082
 20
144.0293470000000013
 30
0.0
 11
315.4925670000000082
 21
145.0293470000000013
 31
0.0
  0
LWPOLYLINE
  5
365
  8
HACHURE
 62
5
370
-1
  6
CONTINUOUS
100
AcDbEntity
100
AcDbPolyline
 90
7
 70
1
 10
313.0495670000000246
 20
144.0293470000000013
 10
315.4925670000000082
 20
144.0293470000000013
 10
315.4925670000000082
 20
145.0293470000000013
 10
313.0495670000000246
 20
145.0293470000000013
 42
0.4142140000192092
 10
312.0495670000000246
 20
144.0293469999344609
 10
312.0495670000000246
 20
140.0293470000000013
 10
313.0495670000000246
 20
140.0293470000000013
  0
INSERT
  5
366
100
AcDbEntity
100
AcDbBlockReference
  8
HACHURE
 62
256
370
-1
  6
ByLayer
  2
DESENS-G28
 10
0.0
 20
0.0
 30
0.0
  0
LINE
  5
367
100
AcDbEntity
100
AcDbLine
  8
FORT
 62
7
370
-1
  6
CONTINUOUS
 10
315.8522919999999772
 20
112.211275999999998
 30
0.0
 11
313.3382419999999797
 21
113.5293470000000013
 31
0.0
  0
LINE
  5
368
100
AcDbEntity
100
AcDbLine
  8
FORT
 62
7
370
-1
  6
CONTINUOUS
 10
314.2042670000000157
 20
114.0293470000000013
 30
0.0
 11
319.0495670000000246
 21
114.0293470000000013
 31
0.0
  0
LINE
  5
369
100
AcDbEntity
100
AcDbLine
  8
FORT
 62
7
370
-1
  6
CONTINUOUS
 10
313.0495670000000246
 20
144.0293470000000013
 30
0.0
 11
319.0495670000000246
 21
144.0293470000000013
 31
0.0
  0
LINE
  5
36A
100
AcDbEntity
100
AcDbLine
  8
FORT
 62
7
370
-1
  6
CONTINUOUS
 10
312.0495670000000246
 20
116.0293470000000013
 30
0.0
 11
319.0495670000000246
 21
116.0293470000000013
 31
0.0
  0
LINE
  5
36B
100
AcDbEntity
100
AcDbLine
  8
FORT
 62
7
370
-1
  6
CONTINUOUS
 10
313.0495670000000246
 20
116.0293470000000013
 30
0.0
 11
314.2042670000000157
 21
114.0293470000000013
 31
0.0
  0
LINE
  5
36C
100
AcDbEntity
100
AcDbLine
  8
FORT
 62
7
370
-1
  6
CONTINUOUS
 10
312.1835419999999885
 20
115.5293470000000013
 30
0.0
 11
313.3382419999999797
 21
113.5293470000000013
 31
0.0
  0
LINE
  5
36D
100
AcDbEntity
100
AcDbLine
  8
FORT
 62
7
370
-1
  6
CONTINUOUS
 10
313.3382419999999797
 20
113.5293470000000013
 30
0.0
 11
314.2042670000000157
 21
114.0293470000000013
 31
0.0
  0
ARC
  5
36E
100
AcDbEntity
  8
FORT
 62
7
370
-1
  6
CONTINUOUS
100
AcDbCircle
 10
313.0495670000000246
 20
116.0293470000000013
 30
0.0
 40
1.0
100
AcDbArc
 50
180.0
 51
210.0
  0
LINE
  5
36F
100
AcDbEntity
100
AcDbLine
  8
FORT
 62
7
370
-1
  6
CONTINUOUS
 10
313.0495670000000246
 20
140.0293470000000013
 30
0.0
 11
313.0495670000000246
 21
144.0293470000000013
 31
0.0
  0
CIRCLE
  5
370
100
AcDbEntity
100
AcDbCircle
  8
FORT
 62
7
370
-1
  6
CONTINUOUS
 10
315.693552000000011
 20
117.5482990000000001
 30
0.0
 40
0.25
  0
LINE
  5
371
100
AcDbEntity
100
AcDbLine
  8
FORT
 62
7
370
-1
  6
CONTINUOUS
 10
316.14387499999998
 20
113.0978539999999981
 30
0.0
 11
313.3382419999999797
 21
113.5293470000000013
 31
0.0
  0
LWPOLYLINE
  5
372
  8
HACHURE
 62
5
370
-1
  6
CONTINUOUS
100
AcDbEntity
100
AcDbPolyline
 90
4
 70
1
 10
319.0495670000000246
 20
120.0293470000000013
 10
313.0495670000000246
 20
120.0293470000000013
 10
313.0495670000000246
 20
116.0293470000000013
 10
319.0495670000000246
 20
116.0293470000000013
  0
INSERT
  5
373
100
AcDbEntity
100
AcDbBlockReference
  8
HACHURE
 62
256
370
-1
  6
ByLayer
  2
DESENS-G29
 10
0.0
 20
0.0
 30
0.0
  0
LWPOLYLINE
  5
374
  8
HACHURE
 62
5
370
-1
  6
CONTINUOUS
100
AcDbEntity
100
AcDbPolyline
 90
4
 70
1
 10
319.0495670000000246
 20
144.0293470000000013
 10
313.0495670000000246
 20
144.0293470000000013
 10
313.0495670000000246
 20
140.0293470000000013
 10
319.0495670000000246
 20
140.0293470000000013
  0
INSERT
  5
375
100
AcDbEntity
100
AcDbBlockReference
  8
HACHURE
 62
256
370
-1
  6
ByLayer
  2
DESENS-G30
 10
0.0
 20
0.0
 30
0.0
  0
LINE
  5
376
100
AcDbEntity
100
AcDbLine
  8
FORT
 62
7
370
-1
  6
CONTINUOUS
 10
319.7995670000000246
 20
140.0293470000000013
 30
0.0
 11
321.0495670000000246
 21
138.7793470000000013
 31
0.0
  0
LINE
  5
377
100
AcDbEntity
100
AcDbLine
  8
FORT
 62
7
370
-1
  6
CONTINUOUS
 10
321.0495670000000246
 20
121.2793470000000013
 30
0.0
 11
321.0495670000000246
 21
138.7793470000000013
 31
0.0
  0
LINE
  5
378
100
AcDbEntity
100
AcDbLine
  8
FORT
 62
7
370
-1
  6
CONTINUOUS
 10
321.0495670000000246
 20
121.2793470000000013
 30
0.0
 11
319.7995670000000246
 21
120.0293470000000013
 31
0.0
  0
LINE
  5
379
100
AcDbEntity
100
AcDbLine
  8
FORT
 62
7
370
-1
  6
CONTINUOUS
 10
319.7995670000000246
 20
126.3290499999999952
 30
0.0
 11
319.7995670000000246
 21
140.0293470000000013
 31
0.0
  0
LINE
  5
37A
100
AcDbEntity
100
AcDbLine
  8
FORT
 62
7
370
-1
  6
CONTINUOUS
 10
330.0492340000000127
 20
130.0293470000000013
 30
0.0
 11
336.0492340000000127
 21
130.0293470000000013
 31
0.0
  0
LINE
  5
37B
100
AcDbEntity
100
AcDbLine
  8
FORT
 62
7
370
-1
  6
CONTINUOUS
 10
330.0492340000000127
 20
126.0293470000000013
 30
0.0
 11
336.0492340000000127
 21
126.0293470000000013
 31
0.0
  0
LINE
  5
37C
100
AcDbEntity
100
AcDbLine
  8
FORT
 62
7
370
-1
  6
CONTINUOUS
 10
350.0492340000000127
 20
125.5293470000000013
 30
0.0
 11
350.0492340000000127
 21
130.5293470000000013
 31
0.0
  0
LINE
  5
37D
100
AcDbEntity
100
AcDbLine
  8
FORT
 62
7
370
-1
  6
CONTINUOUS
 10
336.0492340000000127
 20
130.0293470000000013
 30
0.0
 11
336.0492340000000127
 21
126.0293470000000013
 31
0.0
  0
LINE
  5
37E
100
AcDbEntity
100
AcDbLine
  8
FORT
 62
7
370
-1
  6
CONTINUOUS
 10
336.5492340000000127
 20
125.5293470000000013
 30
0.0
 11
336.5492340000000127
 21
130.5293470000000013
 31
0.0
  0
LINE
  5
37F
100
AcDbEntity
100
AcDbLine
  8
FORT
 62
7
370
-1
  6
CONTINUOUS
 10
336.0492340000000127
 20
130.0293470000000013
 30
0.0
 11
336.5492340000000127
 21
130.5293470000000013
 31
0.0
  0
LINE
  5
380
100
AcDbEntity
100
AcDbLine
  8
FORT
 62
7
370
-1
  6
CONTINUOUS
 10
336.0492340000000127
 20
126.0293470000000013
 30
0.0
 11
336.5492340000000127
 21
125.5293470000000013
 31
0.0
  0
LINE
  5
381
100
AcDbEntity
100
AcDbLine
  8
FORT
 62
7
370
-1
  6
CONTINUOUS
 10
314.2042670000000157
 20
146.0293470000000013
 30
0.0
 11
319.0495670000000246
 21
146.0293470000000013
 31
0.0
  0
LINE
  5
382
100
AcDbEntity
100
AcDbLine
  8
FORT
 62
7
370
-1
  6
CONTINUOUS
 10
313.0495670000000246
 20
145.0293470000000013
 30
0.0
 11
315.4925670000000082
 21
145.0293470000000013
 31
0.0
  0
LINE
  5
383
100
AcDbEntity
100
AcDbLine
  8
FORT
 62
7
370
-1
  6
CONTINUOUS
 10
313.6269169999999917
 20
145.0293470000000013
 30
0.0
 11
314.2042670000000157
 21
146.0293470000000013
 31
0.0
  0
LINE
  5
384
100
AcDbEntity
100
AcDbLine
  8
FIN
 62
5
370
-1
  6
CONTINUOUS
 10
330.0492340000000127
 20
130.5293470000000013
 30
0.0
 11
336.5492340000000127
 21
130.5293470000000013
 31
0.0
  0
LINE
  5
385
100
AcDbEntity
100
AcDbLine
  8
FIN
 62
5
370
-1
  6
CONTINUOUS
 10
330.0492340000000127
 20
125.5293470000000013
 30
0.0
 11
336.5492340000000127
 21
125.5293470000000013
 31
0.0
  0
LINE
  5
386
100
AcDbEntity
100
AcDbLine
  8
FIN
 62
5
370
-1
  6
CONTINUOUS
 10
336.0492340000000127
 20
126.0293470000000013
 30
0.0
 11
350.0492340000000127
 21
126.0293470000000013
 31
0.0
  0
LINE
  5
387
100
AcDbEntity
100
AcDbLine
  8
FIN
 62
5
370
-1
  6
CONTINUOUS
 10
336.0492340000000127
 20
130.0293470000000013
 30
0.0
 11
350.0492340000000127
 21
130.0293470000000013
 31
0.0
  0
LINE
  5
388
100
AcDbEntity
100
AcDbLine
  8
FORT
 62
7
370
-1
  6
CONTINUOUS
 10
313.0495670000000246
 20
120.0293470000000013
 30
0.0
 11
319.7995670000000246
 21
120.0293470000000013
 31
0.0
  0
LINE
  5
389
100
AcDbEntity
100
AcDbLine
  8
FORT
 62
7
370
-1
  6
CONTINUOUS
 10
312.0495670000000246
 20
122.0363590000000045
 30
0.0
 11
313.0495670000000246
 21
122.0363590000000045
 31
0.0
  0
LINE
  5
38A
100
AcDbEntity
100
AcDbLine
  8
FORT
 62
7
370
-1
  6
CONTINUOUS
 10
313.0495670000000246
 20
116.0293470000000013
 30
0.0
 11
313.0495670000000246
 21
122.0363590000000045
 31
0.0
  0
LWPOLYLINE
  5
38B
  8
HACHURE
 62
5
370
-1
  6
CONTINUOUS
100
AcDbEntity
100
AcDbPolyline
 90
4
 70
1
 10
313.0495670000000246
 20
122.0363590000000045
 10
312.0495670000000246
 20
122.0363590000000045
 10
312.0495670000000246
 20
116.0293470000000013
 10
313.0495670000000246
 20
116.0293470000000013
  0
INSERT
  5
38C
100
AcDbEntity
100
AcDbBlockReference
  8
HACHURE
 62
256
370
-1
  6
ByLayer
  2
DESENS-G31
 10
0.0
 20
0.0
 30
0.0
  0
LINE
  5
38D
100
AcDbEntity
100
AcDbLine
  8
FIN
 62
5
370
-1
  6
CONTINUOUS
 10
307.0495670000000246
 20
121.2793470000000013
 30
0.0
 11
312.0495670000000246
 21
121.2793470000000013
 31
0.0
  0
LINE
  5
38E
100
AcDbEntity
100
AcDbLine
  8
FIN
 62
5
370
-1
  6
CONTINUOUS
 10
313.0495670000000246
 20
121.2793470000000013
 30
0.0
 11
321.0495670000000246
 21
121.2793470000000013
 31
0.0
  0
MTEXT
  5
38F
100
AcDbEntity
100
AcDbMText
  8
TEXTE
 62
7
370
-1
  6
CONTINUOUS
 10
384.0
 20
72.0
 30
0.0
 40
5.0
 41
100.0
 71
7
 72
2
  1
15
  7
iso9
 50
0.0
 73
1
 44
1.0
  0
MTEXT
  5
390
100
AcDbEntity
100
AcDbMText
  8
TEXTE
 62
7
370
-1
  6
CONTINUOUS
 10
384.0
 20
92.0
 30
0.0
 40
5.0
 41
100.0
 71
7
 72
2
  1
18
  7
iso9
 50
0.0
 73
1
 44
1.0
  0
LINE
  5
391
100
AcDbEntity
100
AcDbLine
  8
FORT
 62
7
370
-1
  6
CONTINUOUS
 10
357.0492340000000127
 20
137.0293470000000013
 30
0.0
 11
377.9058959999999843
 21
137.0293470000000013
 31
0.0
  0
LINE
  5
392
100
AcDbEntity
100
AcDbLine
  8
FORT
 62
7
370
-1
  6
CONTINUOUS
 10
352.0492340000000127
 20
123.7793470000000013
 30
0.0
 11
356.2992340000000127
 21
123.7793470000000013
 31
0.0
  0
LINE
  5
393
100
AcDbEntity
100
AcDbLine
  8
FORT
 62
7
370
-1
  6
CONTINUOUS
 10
352.0492340000000127
 20
123.0293470000000013
 30
0.0
 11
357.0492340000000127
 21
123.0293470000000013
 31
0.0
  0
LINE
  5
394
100
AcDbEntity
100
AcDbLine
  8
FORT
 62
7
370
-1
  6
CONTINUOUS
 10
352.0492340000000127
 20
132.2793470000000013
 30
0.0
 11
356.2992340000000127
 21
132.2793470000000013
 31
0.0
  0
LINE
  5
395
100
AcDbEntity
100
AcDbLine
  8
FORT
 62
7
370
-1
  6
CONTINUOUS
 10
352.0492340000000127
 20
133.0293470000000013
 30
0.0
 11
357.0492340000000127
 21
133.0293470000000013
 31
0.0
  0
LINE
  5
396
100
AcDbEntity
100
AcDbLine
  8
FORT
 62
7
370
-1
  6
CONTINUOUS
 10
352.0492340000000127
 20
133.0293470000000013
 30
0.0
 11
352.0492340000000127
 21
123.0293470000000013
 31
0.0
  0
ARC
  5
397
100
AcDbEntity
  8
FORT
 62
7
370
-1
  6
CONTINUOUS
100
AcDbCircle
 10
356.2992340000000127
 20
124.5293470000000013
 30
0.0
 40
0.75
100
AcDbArc
 50
270.0
 51
0.0
  0
ARC
  5
398
100
AcDbEntity
  8
FORT
 62
7
370
-1
  6
CONTINUOUS
100
AcDbCircle
 10
356.2992340000000127
 20
131.5293470000000013
 30
0.0
 40
0.75
100
AcDbArc
 50
0.0
 51
90.0
  0
LINE
  5
399
100
AcDbEntity
100
AcDbLine
  8
FIN
 62
5
370
-1
  6
CONTINUOUS
 10
365.1501589999999737
 20
142.8607360000000028
 30
0.0
 11
382.0
 21
130.0
 31
0.0
  0
CIRCLE
  5
39A
100
AcDbEntity
100
AcDbCircle
  8
FORT
 62
7
370
-1
  6
CONTINUOUS
 10
365.1501589999999737
 20
142.8607360000000028
 30
0.0
 40
0.25
  0
MTEXT
  5
39B
100
AcDbEntity
100
AcDbMText
  8
TEXTE
 62
7
370
-1
  6
CONTINUOUS
 10
384.0
 20
112.0
 30
0.0
 40
5.0
 41
100.0
 71
7
 72
2
  1
17
  7
iso9
 50
0.0
 73
1
 44
1.0
  0
MTEXT
  5
39C
100
AcDbEntity
100
AcDbMText
  8
TEXTE
 62
7
370
-1
  6
CONTINUOUS
 10
386.0
 20
132.0
 30
0.0
 40
5.0
 41
100.0
 71
7
 72
2
  1
2
  7
iso9
 50
0.0
 73
1
 44
1.0
  0
LINE
  5
39D
100
AcDbEntity
100
AcDbLine
  8
FIN
 62
5
370
-1
  6
CONTINUOUS
 10
344.6189600000000155
 20
241.7999100000000112
 30
0.0
 11
382.0
 21
260.0
 31
0.0
  0
LINE
  5
39E
100
AcDbEntity
100
AcDbLine
  8
FIN
 62
5
370
-1
  6
CONTINUOUS
 10
342.9055030000000102
 20
230.9480140000000006
 30
0.0
 11
382.0
 21
240.0
 31
0.0
  0
LWPOLYLINE
  5
39F
  8
HACHURE
 62
5
370
-1
  6
CONTINUOUS
100
AcDbEntity
100
AcDbPolyline
 90
6
 70
1
 10
357.0492340000000127
 20
229.0293470000000013
 10
347.0492340000000127
 20
229.0293470000000013
 10
347.0492340000000127
 20
223.22934699999999
 10
352.0492340000000127
 20
223.22934699999999
 10
352.0492340000000127
 20
225.0293470000000013
 10
357.0492340000000127
 20
225.0293470000000013
  0
INSERT
  5
3A0
100
AcDbEntity
100
AcDbBlockReference
  8
HACHURE
 62
256
370
-1
  6
ByLayer
  2
DESENS-G32
 10
0.0
 20
0.0
 30
0.0
  0
LWPOLYLINE
  5
3A1
  8
HACHURE
 62
5
370
-1
  6
CONTINUOUS
100
AcDbEntity
100
AcDbPolyline
 90
9
 70
1
 10
357.0492340000000127
 20
215.0293470000000013
 10
352.0492340000000127
 20
215.0293470000000013
 10
352.0492340000000127
 20
216.8293470000000127
 10
347.0492340000000127
 20
216.8293470000000127
 10
347.0492340000000127
 20
208.9586459999999875
 10
349.2415449999999737
 20
210.8221029999999985
 10
351.872306999999978
 20
210.3836430000000064
 10
353.9549939999999992
 20
212.3567150000000083
 10
357.0492340000000127
 20
212.1374840000000006
  0
INSERT
  5
3A2
100
AcDbEntity
100
AcDbBlockReference
  8
HACHURE
 62
256
370
-1
  6
ByLayer
  2
DESENS-G33
 10
0.0
 20
0.0
 30
0.0
  0
LINE
  5
3A3
100
AcDbEntity
100
AcDbLine
  8
FORT
 62
7
370
-1
  6
CONTINUOUS
 10
336.5492340000000127
 20
217.5293470000000013
 30
0.0
 11
352.0492340000000127
 21
217.5293470000000013
 31
0.0
  0
LINE
  5
3A4
100
AcDbEntity
100
AcDbLine
  8
FORT
 62
7
370
-1
  6
CONTINUOUS
 10
347.0492340000000127
 20
216.8293470000000127
 30
0.0
 11
352.0492340000000127
 21
216.8293470000000127
 31
0.0
  0
LINE
  5
3A5
100
AcDbEntity
100
AcDbLine
  8
FORT
 62
7
370
-1
  6
CONTINUOUS
 10
336.5492340000000127
 20
222.5293470000000013
 30
0.0
 11
352.0492340000000127
 21
222.5293470000000013
 31
0.0
  0
LINE
  5
3A6
100
AcDbEntity
100
AcDbLine
  8
FORT
 62
7
370
-1
  6
CONTINUOUS
 10
347.0492340000000127
 20
223.22934699999999
 30
0.0
 11
352.0492340000000127
 21
223.22934699999999
 31
0.0
  0
LWPOLYLINE
  5
3A7
  8
FIN
 62
5
370
-1
  6
CONTINUOUS
100
AcDbEntity
100
AcDbPolyline
 90
5
 70
0
 10
357.0492340000000127
 20
212.1374840000000006
 10
353.9549939999999992
 20
212.3567150000000083
 10
351.872306999999978
 20
210.3836430000000064
 10
349.2415449999999737
 20
210.8221029999999985
 10
347.0492340000000127
 20
208.9586459999999875
  0
LINE
  5
3A8
100
AcDbEntity
100
AcDbLine
  8
FORT
 62
7
370
-1
  6
CONTINUOUS
 10
347.0492340000000127
 20
229.0293470000000013
 30
0.0
 11
357.0492340000000127
 21
229.0293470000000013
 31
0.0
  0
LINE
  5
3A9
100
AcDbEntity
100
AcDbLine
  8
FIN
 62
5
370
-1
  6
CONTINUOUS
 10
232.0
 20
260.0
 30
0.0
 11
257.434564000000023
 21
205.926922999999988
 31
0.0
  0
LINE
  5
3AA
100
AcDbEntity
100
AcDbLine
  8
FORT
 62
7
370
-1
  6
CONTINUOUS
 10
330.0492340000000127
 20
184.0293470000000013
 30
0.0
 11
330.0492340000000127
 21
229.1125140000000044
 31
0.0
  0
LINE
  5
3AB
100
AcDbEntity
100
AcDbLine
  8
FORT
 62
7
370
-1
  6
CONTINUOUS
 10
324.0492340000000127
 20
183.0293470000000013
 30
0.0
 11
324.0492340000000127
 21
230.1125140000000044
 31
0.0
  0
ARC
  5
3AC
100
AcDbEntity
  8
FORT
 62
7
370
-1
  6
CONTINUOUS
100
AcDbCircle
 10
285.2165669999999977
 20
224.9461799999999982
 30
0.0
 40
14.1666670000000003
100
AcDbArc
 50
90.0
 51
180.0
  0
ARC
  5
3AD
100
AcDbEntity
  8
FORT
 62
7
370
-1
  6
CONTINUOUS
100
AcDbCircle
 10
285.1748999999999796
 20
224.9873469999999998
 30
0.0
 40
4.125
100
AcDbArc
 50
90.0
 51
180.0
  0
LINE
  5
3AE
100
AcDbEntity
100
AcDbLine
  8
FORT
 62
7
370
-1
  6
CONTINUOUS
 10
347.0492340000000127
 20
222.5293470000000013
 30
0.0
 11
347.0492340000000127
 21
248.1128469999999879
 31
0.0
  0
LWPOLYLINE
  5
3AF
  8
HACHURE
 62
5
370
-1
  6
CONTINUOUS
100
AcDbEntity
100
AcDbPolyline
 90
11
 70
1
 10
347.0492340000000127
 20
233.8126800000000003
 10
341.0492340000000127
 20
233.8126800000000003
 10
341.0492340000000127
 20
235.8126800000000003
 10
335.0492340000000127
 20
235.8126800000000003
 10
335.0492340000000127
 20
230.1125140000000044
 10
331.0492340000000127
 20
230.1125140000000044
 10
330.0492340000000127
 20
229.1125140000000044
 10
330.0492340000000127
 20
222.0293470000000013
 10
336.0492340000000127
 20
222.0293470000000013
 10
336.5492340000000127
 20
222.5293470000000013
 10
347.0492340000000127
 20
222.5293470000000013
  0
INSERT
  5
3B0
100
AcDbEntity
100
AcDbBlockReference
  8
HACHURE
 62
256
370
-1
  6
ByLayer
  2
DESENS-G34
 10
0.0
 20
0.0
 30
0.0
  0
LINE
  5
3B1
100
AcDbEntity
100
AcDbLine
  8
FIN
 62
5
370
-1
  6
CONTINUOUS
 10
252.0
 20
260.0
 30
0.0
 11
298.0495670000000246
 21
182.0293470000000013
 31
0.0
  0
LINE
  5
3B2
100
AcDbEntity
100
AcDbLine
  8
FIN
 62
5
370
-1
  6
CONTINUOUS
 10
292.0
 20
260.0
 30
0.0
 11
310.3728929999999764
 21
186.7154329999999902
 31
0.0
  0
LINE
  5
3B3
100
AcDbEntity
100
AcDbLine
  8
FIN
 62
5
370
-1
  6
CONTINUOUS
 10
308.238283000000024
 20
179.8846810000000005
 30
0.0
 11
272.0
 21
260.0
 31
0.0
  0
LINE
  5
3B4
100
AcDbEntity
100
AcDbLine
  8
FORT
 62
7
370
-1
  6
CONTINUOUS
 10
284.0495670000000246
 20
166.1290679999999895
 30
0.0
 11
294.0495670000000246
 21
166.1290679999999895
 31
0.0
  0
LINE
  5
3B5
100
AcDbEntity
100
AcDbLine
  8
FORT
 62
7
370
-1
  6
CONTINUOUS
 10
289.0495670000000246
 20
163.0293470000000013
 30
0.0
 11
293.2995670000000246
 21
163.0293470000000013
 31
0.0
  0
LINE
  5
3B6
100
AcDbEntity
100
AcDbLine
  8
FORT
 62
7
370
-1
  6
CONTINUOUS
 10
289.0495670000000246
 20
163.7793470000000013
 30
0.0
 11
294.0495670000000246
 21
163.7793470000000013
 31
0.0
  0
LINE
  5
3B7
100
AcDbEntity
100
AcDbLine
  8
FORT
 62
7
370
-1
  6
CONTINUOUS
 10
289.0495670000000246
 20
154.5293470000000013
 30
0.0
 11
293.2995670000000246
 21
154.5293470000000013
 31
0.0
  0
LINE
  5
3B8
100
AcDbEntity
100
AcDbLine
  8
FORT
 62
7
370
-1
  6
CONTINUOUS
 10
289.0495670000000246
 20
153.7793470000000013
 30
0.0
 11
294.0495670000000246
 21
153.7793470000000013
 31
0.0
  0
LWPOLYLINE
  5
3B9
  8
HACHURE
 62
5
370
-1
  6
CONTINUOUS
100
AcDbEntity
100
AcDbPolyline
 90
6
 70
1
 10
294.0495670000000246
 20
166.1290679999999895
 10
286.0495670000000246
 20
166.1290679999999895
 10
286.0495670000000246
 20
161.97934699999999
 10
289.0495670000000246
 20
161.97934699999999
 10
289.0495670000000246
 20
163.7793470000000013
 10
294.0495670000000246
 20
163.7793470000000013
  0
INSERT
  5
3BA
100
AcDbEntity
100
AcDbBlockReference
  8
HACHURE
 62
256
370
-1
  6
ByLayer
  2
DESENS-G35
 10
0.0
 20
0.0
 30
0.0
  0
LINE
  5
3BB
100
AcDbEntity
100
AcDbLine
  8
FORT
 62
7
370
-1
  6
CONTINUOUS
 10
271.0498999999999796
 20
169.1543470000000013
 30
0.0
 11
271.0498999999999796
 21
224.9461799999999982
 31
0.0
  0
LINE
  5
3BC
100
AcDbEntity
100
AcDbLine
  8
FORT
 62
7
370
-1
  6
CONTINUOUS
 10
281.0498999999999796
 20
170.0976009999999974
 30
0.0
 11
281.0498999999999796
 21
224.9873469999999998
 31
0.0
  0
LINE
  5
3BD
100
AcDbEntity
100
AcDbLine
  8
FORT
 62
7
370
-1
  6
CONTINUOUS
 10
284.0495670000000246
 20
151.029514000000006
 30
0.0
 11
284.0495670000000246
 21
156.2793470000000013
 31
0.0
  0
LINE
  5
3BE
100
AcDbEntity
100
AcDbLine
  8
FORT
 62
7
370
-1
  6
CONTINUOUS
 10
286.0495670000000246
 20
151.029514000000006
 30
0.0
 11
286.0495670000000246
 21
156.2793470000000013
 31
0.0
  0
LWPOLYLINE
  5
3BF
  8
HACHURE
 62
5
370
-1
  6
CONTINUOUS
100
AcDbEntity
100
AcDbPolyline
 90
4
 70
1
 10
286.0495670000000246
 20
155.5793470000000127
 10
284.0495670000000246
 20
155.5793470000000127
 10
284.0495670000000246
 20
151.029514000000006
 10
286.0495670000000246
 20
151.029514000000006
  0
INSERT
  5
3C0
100
AcDbEntity
100
AcDbBlockReference
  8
HACHURE
 62
256
370
-1
  6
ByLayer
  2
DESENS-G36
 10
0.0
 20
0.0
 30
0.0
  0
LINE
  5
3C1
100
AcDbEntity
100
AcDbLine
  8
FORT
 62
7
370
-1
  6
CONTINUOUS
 10
268.0495670000000246
 20
151.029514000000006
 30
0.0
 11
286.0495670000000246
 21
151.029514000000006
 31
0.0
  0
LINE
  5
3C2
100
AcDbEntity
100
AcDbLine
  8
FORT
 62
7
370
-1
  6
CONTINUOUS
 10
264.0491210000000137
 20
160.7793470000000013
 30
0.0
 11
273.0495670000000246
 21
160.7793470000000013
 31
0.0
  0
LINE
  5
3C3
100
AcDbEntity
100
AcDbLine
  8
FORT
 62
7
370
-1
  6
CONTINUOUS
 10
264.0491210000000137
 20
156.7793470000000013
 30
0.0
 11
273.0495670000000246
 21
156.7793470000000013
 31
0.0
  0
ARC
  5
3C4
100
AcDbEntity
  8
FORT
 62
7
370
-1
  6
CONTINUOUS
100
AcDbCircle
 10
267.8968550000000164
 20
169.1792759999999873
 30
0.0
 40
3.1531440000000002
100
AcDbArc
 50
267.4803079999999795
 51
359.5470090000000027
  0
LINE
  5
3C5
100
AcDbEntity
100
AcDbLine
  8
FORT
 62
7
370
-1
  6
CONTINUOUS
 10
262.8944210000000226
 20
158.7793470000000013
 30
0.0
 11
264.0491210000000137
 21
160.7793470000000013
 31
0.0
  0
LINE
  5
3C6
100
AcDbEntity
100
AcDbLine
  8
FORT
 62
7
370
-1
  6
CONTINUOUS
 10
262.8944210000000226
 20
158.7793470000000013
 30
0.0
 11
264.0491210000000137
 21
156.7793470000000013
 31
0.0
  0
LINE
  5
3C7
100
AcDbEntity
100
AcDbLine
  8
FORT
 62
7
370
-1
  6
CONTINUOUS
 10
264.0491210000000137
 20
156.7793470000000013
 30
0.0
 11
264.0491210000000137
 21
160.7793470000000013
 31
0.0
  0
LINE
  5
3C8
100
AcDbEntity
100
AcDbLine
  8
FORT
 62
7
370
-1
  6
CONTINUOUS
 10
273.5495670000000246
 20
161.2793470000000013
 30
0.0
 11
289.0495670000000246
 21
161.2793470000000013
 31
0.0
  0
LINE
  5
3C9
100
AcDbEntity
100
AcDbLine
  8
FORT
 62
7
370
-1
  6
CONTINUOUS
 10
273.5495670000000246
 20
156.2793470000000013
 30
0.0
 11
289.0495670000000246
 21
156.2793470000000013
 31
0.0
  0
LINE
  5
3CA
100
AcDbEntity
100
AcDbLine
  8
FORT
 62
7
370
-1
  6
CONTINUOUS
 10
273.0495670000000246
 20
160.7793470000000013
 30
0.0
 11
273.5495670000000246
 21
161.2793470000000013
 31
0.0
  0
LINE
  5
3CB
100
AcDbEntity
100
AcDbLine
  8
FORT
 62
7
370
-1
  6
CONTINUOUS
 10
273.0495670000000246
 20
156.7793470000000013
 30
0.0
 11
273.5495670000000246
 21
156.2793470000000013
 31
0.0
  0
LINE
  5
3CC
100
AcDbEntity
100
AcDbLine
  8
FORT
 62
7
370
-1
  6
CONTINUOUS
 10
284.0495670000000246
 20
161.2793470000000013
 30
0.0
 11
284.0495670000000246
 21
166.1290679999999895
 31
0.0
  0
LINE
  5
3CD
100
AcDbEntity
100
AcDbLine
  8
FORT
 62
7
370
-1
  6
CONTINUOUS
 10
286.0495670000000246
 20
161.2793470000000013
 30
0.0
 11
286.0495670000000246
 21
166.1290679999999895
 31
0.0
  0
LINE
  5
3CE
100
AcDbEntity
100
AcDbLine
  8
FORT
 62
7
370
-1
  6
CONTINUOUS
 10
289.0495670000000246
 20
153.7793470000000013
 30
0.0
 11
289.0495670000000246
 21
163.7793470000000013
 31
0.0
  0
LINE
  5
3CF
100
AcDbEntity
100
AcDbLine
  8
FORT
 62
7
370
-1
  6
CONTINUOUS
 10
284.0495670000000246
 20
161.97934699999999
 30
0.0
 11
289.0495670000000246
 21
161.97934699999999
 31
0.0
  0
LINE
  5
3D0
100
AcDbEntity
100
AcDbLine
  8
FORT
 62
7
370
-1
  6
CONTINUOUS
 10
284.0495670000000246
 20
155.5793470000000127
 30
0.0
 11
289.0495670000000246
 21
155.5793470000000127
 31
0.0
  0
LINE
  5
3D1
100
AcDbEntity
100
AcDbLine
  8
FORT
 62
7
370
-1
  6
CONTINUOUS
 10
287.0495670000000246
 20
156.2793470000000013
 30
0.0
 11
287.0495670000000246
 21
161.2793470000000013
 31
0.0
  0
ARC
  5
3D2
100
AcDbEntity
  8
FORT
 62
7
370
-1
  6
CONTINUOUS
100
AcDbCircle
 10
285.1748999999999796
 20
170.0976009999999974
 30
0.0
 40
4.125
100
AcDbArc
 50
180.0
 51
254.1685669999999675
  0
LINE
  5
3D3
100
AcDbEntity
100
AcDbLine
  8
FORT
 62
7
370
-1
  6
CONTINUOUS
 10
268.0492340000000127
 20
156.2793470000000013
 30
0.0
 11
268.0492340000000127
 21
161.2793470000000013
 31
0.0
  0
LINE
  5
3D4
100
AcDbEntity
100
AcDbLine
  8
FORT
 62
7
370
-1
  6
CONTINUOUS
 10
273.0495670000000246
 20
156.7793470000000013
 30
0.0
 11
273.0495670000000246
 21
160.7793470000000013
 31
0.0
  0
LINE
  5
3D5
100
AcDbEntity
100
AcDbLine
  8
FORT
 62
7
370
-1
  6
CONTINUOUS
 10
273.5495670000000246
 20
161.2793470000000013
 30
0.0
 11
273.5495670000000246
 21
156.2793470000000013
 31
0.0
  0
LWPOLYLINE
  5
3D6
  8
HACHURE
 62
5
370
-1
  6
CONTINUOUS
100
AcDbEntity
100
AcDbPolyline
 90
4
 70
1
 10
286.0495670000000246
 20
166.1290679999999895
 10
284.0495670000000246
 20
166.1290679999999895
 10
284.0495670000000246
 20
161.97934699999999
 10
286.0495670000000246
 20
161.97934699999999
  0
INSERT
  5
3D7
100
AcDbEntity
100
AcDbBlockReference
  8
HACHURE
 62
256
370
-1
  6
ByLayer
  2
DESENS-G37
 10
0.0
 20
0.0
 30
0.0
  0
LINE
  5
3D8
100
AcDbEntity
100
AcDbLine
  8
FIN
 62
5
370
-1
  6
CONTINUOUS
 10
268.0492340000000127
 20
161.2793470000000013
 30
0.0
 11
273.5495670000000246
 21
161.2793470000000013
 31
0.0
  0
LINE
  5
3D9
100
AcDbEntity
100
AcDbLine
  8
FIN
 62
5
370
-1
  6
CONTINUOUS
 10
268.0492340000000127
 20
156.2793470000000013
 30
0.0
 11
273.5495670000000246
 21
156.2793470000000013
 31
0.0
  0
LINE
  5
3DA
100
AcDbEntity
100
AcDbLine
  8
FIN
 62
5
370
-1
  6
CONTINUOUS
 10
273.0495670000000246
 20
160.7793470000000013
 30
0.0
 11
287.0495670000000246
 21
160.7793470000000013
 31
0.0
  0
LINE
  5
3DB
100
AcDbEntity
100
AcDbLine
  8
FIN
 62
5
370
-1
  6
CONTINUOUS
 10
273.0495670000000246
 20
156.7793470000000013
 30
0.0
 11
287.0495670000000246
 21
156.7793470000000013
 31
0.0
  0
ARC
  5
3DC
100
AcDbEntity
  8
FORT
 62
7
370
-1
  6
CONTINUOUS
100
AcDbCircle
 10
254.6122719999999902
 20
162.4638050000000078
 30
0.0
 40
3.4373779999999998
100
AcDbArc
 50
272.428120999999976
 51
345.0499520000000189
  0
ARC
  5
3DD
100
AcDbEntity
  8
FORT
 62
7
370
-1
  6
CONTINUOUS
100
AcDbCircle
 10
263.7302050000000122
 20
160.0291799999999967
 30
0.0
 40
6.0
100
AcDbArc
 50
90.0
 51
165.0499519999999904
  0
LINE
  5
3DE
100
AcDbEntity
100
AcDbLine
  8
FORT
 62
7
370
-1
  6
CONTINUOUS
 10
263.7302050000000122
 20
166.0291799999999967
 30
0.0
 11
268.0354750000000195
 21
166.0291799999999967
 31
0.0
  0
CIRCLE
  5
3DF
100
AcDbEntity
100
AcDbCircle
  8
FORT
 62
7
370
-1
  6
CONTINUOUS
 10
257.434564000000023
 20
205.926922999999988
 30
0.0
 40
0.25
  0
LINE
  5
3E0
100
AcDbEntity
100
AcDbLine
  8
FORT
 62
7
370
-1
  6
CONTINUOUS
 10
345.0492340000000127
 20
149.0293470000000013
 30
0.0
 11
345.0492340000000127
 21
199.0293470000000013
 31
0.0
  0
LINE
  5
3E1
100
AcDbEntity
100
AcDbLine
  8
FORT
 62
7
370
-1
  6
CONTINUOUS
 10
344.0492340000000127
 20
198.0293470000000013
 30
0.0
 11
344.0492340000000127
 21
150.0293470000000013
 31
0.0
  0
LINE
  5
3E2
100
AcDbEntity
100
AcDbLine
  8
FORT
 62
7
370
-1
  6
CONTINUOUS
 10
319.0495670000000246
 20
189.0293470000000013
 30
0.0
 11
319.0495670000000246
 21
183.0293470000000013
 31
0.0
  0
CIRCLE
  5
3E3
100
AcDbEntity
100
AcDbCircle
  8
FORT
 62
7
370
-1
  6
CONTINUOUS
 10
310.3728929999999764
 20
186.7154329999999902
 30
0.0
 40
0.25
  0
LINE
  5
3E4
100
AcDbEntity
100
AcDbLine
  8
FORT
 62
7
370
-1
  6
CONTINUOUS
 10
299.0495670000000246
 20
168.0293470000000013
 30
0.0
 11
326.0492340000000127
 21
168.0293470000000013
 31
0.0
  0
LINE
  5
3E5
100
AcDbEntity
100
AcDbLine
  8
FORT
 62
7
370
-1
  6
CONTINUOUS
 10
299.0495670000000246
 20
181.8293470000000127
 30
0.0
 11
326.0492340000000127
 21
181.8293470000000127
 31
0.0
  0
LWPOLYLINE
  5
3E6
  8
HACHURE
 62
5
370
-1
  6
CONTINUOUS
100
AcDbEntity
100
AcDbPolyline
 90
6
 70
1
 10
326.0492340000000127
 20
183.0293470000000013
 10
319.0495670000000246
 20
183.0293470000000013
 10
319.0495670000000246
 20
184.2793470000000013
 10
299.0495670000000246
 20
184.2793470000000013
 10
299.0495670000000246
 20
181.8293470000000127
 10
326.0492340000000127
 20
181.8293470000000127
  0
INSERT
  5
3E7
100
AcDbEntity
100
AcDbBlockReference
  8
HACHURE
 62
256
370
-1
  6
ByLayer
  2
DESENS-G38
 10
0.0
 20
0.0
 30
0.0
  0
LWPOLYLINE
  5
3E8
  8
HACHURE
 62
5
370
-1
  6
CONTINUOUS
100
AcDbEntity
100
AcDbPolyline
 90
6
 70
1
 10
326.0492340000000127
 20
168.0293470000000013
 10
299.0495670000000246
 20
168.0293470000000013
 10
299.0495670000000246
 20
163.7793470000000013
 10
319.0495670000000246
 20
163.7793470000000013
 10
319.0495670000000246
 20
165.0293470000000013
 10
326.0492340000000127
 20
165.0293470000000013
  0
INSERT
  5
3E9
100
AcDbEntity
100
AcDbBlockReference
  8
HACHURE
 62
256
370
-1
  6
ByLayer
  2
DESENS-G39
 10
0.0
 20
0.0
 30
0.0
  0
LWPOLYLINE
  5
3EA
  8
HACHURE
 62
5
370
-1
  6
CONTINUOUS
100
AcDbEntity
100
AcDbPolyline
 90
15
 70
1
 10
319.6845739999999978
 20
178.1989179999999919
 10
320.5140900000000101
 20
180.0293470000000013
 10
317.0495670000000246
 20
180.0293470000000013
 10
317.0495670000000246
 20
177.5293470000000013
 10
301.0495670000000246
 20
177.5293470000000013
 10
301.0495670000000246
 20
180.0293470000000013
 10
299.6576880000000074
 20
180.0293470000000013
 10
300.0724460000000136
 20
178.4359230000000025
 10
299.7169390000000249
 20
176.4213839999999891
 10
301.2574690000000146
 20
174.9993560000000059
 10
304.2200260000000185
 20
175.2363609999999881
 10
307.5973409999999717
 20
174.4660959999999932
 10
312.2189300000000003
 20
175.2363609999999881
 10
316.840518999999972
 20
174.7623519999999928
 10
319.6845739999999978
 20
176.184379000000007
  0
INSERT
  5
3EB
100
AcDbEntity
100
AcDbBlockReference
  8
HACHURE
 62
256
370
-1
  6
ByLayer
  2
DESENS-G40
 10
0.0
 20
0.0
 30
0.0
  0
LINE
  5
3EC
100
AcDbEntity
100
AcDbLine
  8
FORT
 62
7
370
-1
  6
CONTINUOUS
 10
299.0495670000000246
 20
163.7793470000000013
 30
0.0
 11
319.0495670000000246
 21
163.7793470000000013
 31
0.0
  0
LINE
  5
3ED
100
AcDbEntity
100
AcDbLine
  8
FORT
 62
7
370
-1
  6
CONTINUOUS
 10
299.0495670000000246
 20
158.2793470000000013
 30
0.0
 11
319.0495670000000246
 21
158.2793470000000013
 31
0.0
  0
LINE
  5
3EE
100
AcDbEntity
100
AcDbLine
  8
FORT
 62
7
370
-1
  6
CONTINUOUS
 10
299.0495670000000246
 20
159.0293470000000013
 30
0.0
 11
319.0495670000000246
 21
159.0293470000000013
 31
0.0
  0
LINE
  5
3EF
100
AcDbEntity
100
AcDbLine
  8
FORT
 62
7
370
-1
  6
CONTINUOUS
 10
301.0495670000000246
 20
177.5293470000000013
 30
0.0
 11
317.0495670000000246
 21
177.5293470000000013
 31
0.0
  0
LINE
  5
3F0
100
AcDbEntity
100
AcDbLine
  8
FORT
 62
7
370
-1
  6
CONTINUOUS
 10
299.0495670000000246
 20
184.2793470000000013
 30
0.0
 11
319.0495670000000246
 21
184.2793470000000013
 31
0.0
  0
LINE
  5
3F1
100
AcDbEntity
100
AcDbLine
  8
FORT
 62
7
370
-1
  6
CONTINUOUS
 10
301.0495670000000246
 20
181.5293470000000013
 30
0.0
 11
317.0495670000000246
 21
181.5293470000000013
 31
0.0
  0
LWPOLYLINE
  5
3F2
  8
FIN
 62
5
370
-1
  6
CONTINUOUS
100
AcDbEntity
100
AcDbPolyline
 90
11
 70
0
 10
299.6576880000000074
 20
180.0293470000000013
 10
300.0724460000000136
 20
178.4359230000000025
 10
299.7169390000000249
 20
176.4213839999999891
 10
301.2574690000000146
 20
174.9993560000000059
 10
304.2200260000000185
 20
175.2363609999999881
 10
307.5973409999999717
 20
174.4660959999999932
 10
312.2189300000000003
 20
175.2363609999999881
 10
316.840518999999972
 20
174.7623519999999928
 10
319.6845739999999978
 20
176.184379000000007
 10
319.6845739999999978
 20
178.1989179999999919
 10
320.5140900000000101
 20
180.0293470000000013
  0
LINE
  5
3F3
100
AcDbEntity
100
AcDbLine
  8
FORT
 62
7
370
-1
  6
CONTINUOUS
 10
298.0495670000000246
 20
182.0293470000000013
 30
0.0
 11
298.0495670000000246
 21
166.0293470000000013
 31
0.0
  0
LINE
  5
3F4
100
AcDbEntity
100
AcDbLine
  8
FORT
 62
7
370
-1
  6
CONTINUOUS
 10
301.0495670000000246
 20
181.5293470000000013
 30
0.0
 11
301.0495670000000246
 21
177.5293470000000013
 31
0.0
  0
LINE
  5
3F5
100
AcDbEntity
100
AcDbLine
  8
FORT
 62
7
370
-1
  6
CONTINUOUS
 10
296.0495670000000246
 20
179.0293470000000013
 30
0.0
 11
296.0495670000000246
 21
169.0293470000000013
 31
0.0
  0
LINE
  5
3F6
100
AcDbEntity
100
AcDbLine
  8
FORT
 62
7
370
-1
  6
CONTINUOUS
 10
297.0495670000000246
 20
180.0293470000000013
 30
0.0
 11
297.0495670000000246
 21
168.0293470000000013
 31
0.0
  0
LINE
  5
3F7
100
AcDbEntity
100
AcDbLine
  8
FORT
 62
7
370
-1
  6
CONTINUOUS
 10
297.0495670000000246
 20
168.0293470000000013
 30
0.0
 11
298.0495670000000246
 21
168.0293470000000013
 31
0.0
  0
LINE
  5
3F8
100
AcDbEntity
100
AcDbLine
  8
FORT
 62
7
370
-1
  6
CONTINUOUS
 10
296.0495670000000246
 20
169.0293470000000013
 30
0.0
 11
297.0495670000000246
 21
168.0293470000000013
 31
0.0
  0
ARC
  5
3F9
100
AcDbEntity
  8
FORT
 62
7
370
-1
  6
CONTINUOUS
100
AcDbCircle
 10
293.2995670000000246
 20
162.2793470000000013
 30
0.0
 40
0.75
100
AcDbArc
 50
0.0
 51
90.0
  0
ARC
  5
3FA
100
AcDbEntity
  8
FORT
 62
7
370
-1
  6
CONTINUOUS
100
AcDbCircle
 10
293.2995670000000246
 20
155.2793470000000013
 30
0.0
 40
0.75
100
AcDbArc
 50
270.0
 51
0.0
  0
LINE
  5
3FB
100
AcDbEntity
100
AcDbLine
  8
FORT
 62
7
370
-1
  6
CONTINUOUS
 10
298.0495670000000246
 20
169.0293470000000013
 30
0.0
 11
299.0495670000000246
 21
169.0293470000000013
 31
0.0
  0
LINE
  5
3FC
100
AcDbEntity
100
AcDbLine
  8
FORT
 62
7
370
-1
  6
CONTINUOUS
 10
298.0495670000000246
 20
166.0293470000000013
 30
0.0
 11
299.0495670000000246
 21
166.0293470000000013
 31
0.0
  0
LINE
  5
3FD
100
AcDbEntity
100
AcDbLine
  8
FORT
 62
7
370
-1
  6
CONTINUOUS
 10
299.0495670000000246
 20
180.0293470000000013
 30
0.0
 11
301.0495670000000246
 21
180.0293470000000013
 31
0.0
  0
LINE
  5
3FE
100
AcDbEntity
100
AcDbLine
  8
FORT
 62
7
370
-1
  6
CONTINUOUS
 10
297.0495670000000246
 20
180.0293470000000013
 30
0.0
 11
298.0495670000000246
 21
180.0293470000000013
 31
0.0
  0
LINE
  5
3FF
100
AcDbEntity
100
AcDbLine
  8
FORT
 62
7
370
-1
  6
CONTINUOUS
 10
297.0495670000000246
 20
180.0293470000000013
 30
0.0
 11
296.0495670000000246
 21
179.0293470000000013
 31
0.0
  0
LINE
  5
400
100
AcDbEntity
100
AcDbLine
  8
FORT
 62
7
370
-1
  6
CONTINUOUS
 10
298.0495670000000246
 20
179.0293470000000013
 30
0.0
 11
299.0495670000000246
 21
179.0293470000000013
 31
0.0
  0
LWPOLYLINE
  5
401
  8
HACHURE
 62
5
370
-1
  6
CONTINUOUS
100
AcDbEntity
100
AcDbPolyline
 90
4
 70
1
 10
299.0495670000000246
 20
169.0293470000000013
 10
298.0495670000000246
 20
169.0293470000000013
 10
298.0495670000000246
 20
166.0293470000000013
 10
299.0495670000000246
 20
166.0293470000000013
  0
INSERT
  5
402
100
AcDbEntity
100
AcDbBlockReference
  8
HACHURE
 62
256
370
-1
  6
ByLayer
  2
DESENS-G41
 10
0.0
 20
0.0
 30
0.0
  0
LINE
  5
403
100
AcDbEntity
100
AcDbLine
  8
FORT
 62
7
370
-1
  6
CONTINUOUS
 10
298.0495670000000246
 20
182.0293470000000013
 30
0.0
 11
299.0495670000000246
 21
182.0293470000000013
 31
0.0
  0
LINE
  5
404
100
AcDbEntity
100
AcDbLine
  8
FORT
 62
7
370
-1
  6
CONTINUOUS
 10
297.0275439999999776
 20
184.677597999999989
 30
0.0
 11
298.0495670000000246
 21
182.0293470000000013
 31
0.0
  0
LINE
  5
405
100
AcDbEntity
100
AcDbLine
  8
FORT
 62
7
370
-1
  6
CONTINUOUS
 10
296.2239250000000084
 20
184.2030059999999878
 30
0.0
 11
298.0495670000000246
 21
182.0293470000000013
 31
0.0
  0
CIRCLE
  5
406
100
AcDbEntity
100
AcDbCircle
  8
FORT
 62
7
370
-1
  6
CONTINUOUS
 10
308.238283000000024
 20
179.8846810000000005
 30
0.0
 40
0.25
  0
LINE
  5
407
100
AcDbEntity
100
AcDbLine
  8
FORT
 62
7
370
-1
  6
CONTINUOUS
 10
317.0495670000000246
 20
181.5293470000000013
 30
0.0
 11
317.0495670000000246
 21
177.5293470000000013
 31
0.0
  0
LINE
  5
408
100
AcDbEntity
100
AcDbLine
  8
FORT
 62
7
370
-1
  6
CONTINUOUS
 10
326.0492340000000127
 20
164.0293470000000013
 30
0.0
 11
326.0492340000000127
 21
184.0293470000000013
 31
0.0
  0
LINE
  5
409
100
AcDbEntity
100
AcDbLine
  8
FORT
 62
7
370
-1
  6
CONTINUOUS
 10
330.0492340000000127
 20
149.0293470000000013
 30
0.0
 11
347.0492340000000127
 21
149.0293470000000013
 31
0.0
  0
LINE
  5
40A
100
AcDbEntity
100
AcDbLine
  8
FORT
 62
7
370
-1
  6
CONTINUOUS
 10
344.0492340000000127
 20
150.0293470000000013
 30
0.0
 11
345.0492340000000127
 21
149.0293470000000013
 31
0.0
  0
LINE
  5
40B
100
AcDbEntity
100
AcDbLine
  8
FORT
 62
7
370
-1
  6
CONTINUOUS
 10
319.0495670000000246
 20
165.0293470000000013
 30
0.0
 11
326.0492340000000127
 21
165.0293470000000013
 31
0.0
  0
LINE
  5
40C
100
AcDbEntity
100
AcDbLine
  8
FORT
 62
7
370
-1
  6
CONTINUOUS
 10
317.0495670000000246
 20
180.0293470000000013
 30
0.0
 11
326.0492340000000127
 21
180.0293470000000013
 31
0.0
  0
LINE
  5
40D
100
AcDbEntity
100
AcDbLine
  8
FORT
 62
7
370
-1
  6
CONTINUOUS
 10
312.0495670000000246
 20
153.0293470000000013
 30
0.0
 11
319.0495670000000246
 21
153.0293470000000013
 31
0.0
  0
LINE
  5
40E
100
AcDbEntity
100
AcDbLine
  8
FORT
 62
7
370
-1
  6
CONTINUOUS
 10
326.0492340000000127
 20
164.0293470000000013
 30
0.0
 11
344.0492340000000127
 21
164.0293470000000013
 31
0.0
  0
LINE
  5
40F
100
AcDbEntity
100
AcDbLine
  8
FORT
 62
7
370
-1
  6
CONTINUOUS
 10
319.0495670000000246
 20
183.0293470000000013
 30
0.0
 11
326.0492340000000127
 21
183.0293470000000013
 31
0.0
  0
LINE
  5
410
100
AcDbEntity
100
AcDbLine
  8
FORT
 62
7
370
-1
  6
CONTINUOUS
 10
326.0492340000000127
 20
184.0293470000000013
 30
0.0
 11
344.0492340000000127
 21
184.0293470000000013
 31
0.0
  0
LINE
  5
411
100
AcDbEntity
100
AcDbLine
  8
FORT
 62
7
370
-1
  6
CONTINUOUS
 10
299.0495670000000246
 20
189.0293470000000013
 30
0.0
 11
319.0495670000000246
 21
189.0293470000000013
 31
0.0
  0
LWPOLYLINE
  5
412
  8
HACHURE
 62
5
370
-1
  6
CONTINUOUS
100
AcDbEntity
100
AcDbPolyline
 90
6
 70
1
 10
347.0492340000000127
 20
217.5293470000000013
 10
336.5492340000000127
 20
217.5293470000000013
 10
336.0492340000000127
 20
218.0293470000000013
 10
330.0492340000000127
 20
218.0293470000000013
 10
330.0492340000000127
 20
199.0293470000000013
 10
347.0492340000000127
 20
199.0293470000000013
  0
INSERT
  5
413
100
AcDbEntity
100
AcDbBlockReference
  8
HACHURE
 62
256
370
-1
  6
ByLayer
  2
DESENS-G42
 10
0.0
 20
0.0
 30
0.0
  0
LINE
  5
414
100
AcDbEntity
100
AcDbLine
  8
FORT
 62
7
370
-1
  6
CONTINUOUS
 10
350.0492340000000127
 20
217.5293470000000013
 30
0.0
 11
350.0492340000000127
 21
222.5293470000000013
 31
0.0
  0
LINE
  5
415
100
AcDbEntity
100
AcDbLine
  8
FORT
 62
7
370
-1
  6
CONTINUOUS
 10
336.0492340000000127
 20
218.0293470000000013
 30
0.0
 11
336.5492340000000127
 21
217.5293470000000013
 31
0.0
  0
LINE
  5
416
100
AcDbEntity
100
AcDbLine
  8
FORT
 62
7
370
-1
  6
CONTINUOUS
 10
336.5492340000000127
 20
217.5293470000000013
 30
0.0
 11
336.5492340000000127
 21
222.5293470000000013
 31
0.0
  0
LINE
  5
417
100
AcDbEntity
100
AcDbLine
  8
FORT
 62
7
370
-1
  6
CONTINUOUS
 10
330.0492340000000127
 20
199.0293470000000013
 30
0.0
 11
347.0492340000000127
 21
199.0293470000000013
 31
0.0
  0
LINE
  5
418
100
AcDbEntity
100
AcDbLine
  8
FORT
 62
7
370
-1
  6
CONTINUOUS
 10
344.0492340000000127
 20
198.0293470000000013
 30
0.0
 11
345.0492340000000127
 21
199.0293470000000013
 31
0.0
  0
LINE
  5
419
100
AcDbEntity
100
AcDbLine
  8
FORT
 62
7
370
-1
  6
CONTINUOUS
 10
330.0492340000000127
 20
222.0293470000000013
 30
0.0
 11
336.0492340000000127
 21
222.0293470000000013
 31
0.0
  0
LINE
  5
41A
100
AcDbEntity
100
AcDbLine
  8
FORT
 62
7
370
-1
  6
CONTINUOUS
 10
330.0492340000000127
 20
218.0293470000000013
 30
0.0
 11
336.0492340000000127
 21
218.0293470000000013
 31
0.0
  0
LINE
  5
41B
100
AcDbEntity
100
AcDbLine
  8
FORT
 62
7
370
-1
  6
CONTINUOUS
 10
336.0492340000000127
 20
222.0293470000000013
 30
0.0
 11
336.5492340000000127
 21
222.5293470000000013
 31
0.0
  0
LINE
  5
41C
100
AcDbEntity
100
AcDbLine
  8
FORT
 62
7
370
-1
  6
CONTINUOUS
 10
336.0492340000000127
 20
222.0293470000000013
 30
0.0
 11
336.0492340000000127
 21
218.0293470000000013
 31
0.0
  0
LINE
  5
41D
100
AcDbEntity
100
AcDbLine
  8
FIN
 62
5
370
-1
  6
CONTINUOUS
 10
330.0492340000000127
 20
217.5293470000000013
 30
0.0
 11
336.5492340000000127
 21
217.5293470000000013
 31
0.0
  0
LINE
  5
41E
100
AcDbEntity
100
AcDbLine
  8
FIN
 62
5
370
-1
  6
CONTINUOUS
 10
330.0492340000000127
 20
222.5293470000000013
 30
0.0
 11
336.5492340000000127
 21
222.5293470000000013
 31
0.0
  0
LINE
  5
41F
100
AcDbEntity
100
AcDbLine
  8
FIN
 62
5
370
-1
  6
CONTINUOUS
 10
336.0492340000000127
 20
222.0293470000000013
 30
0.0
 11
350.0492340000000127
 21
222.0293470000000013
 31
0.0
  0
LINE
  5
420
100
AcDbEntity
100
AcDbLine
  8
FIN
 62
5
370
-1
  6
CONTINUOUS
 10
336.0492340000000127
 20
218.0293470000000013
 30
0.0
 11
350.0492340000000127
 21
218.0293470000000013
 31
0.0
  0
LINE
  5
421
100
AcDbEntity
100
AcDbLine
  8
FORT
 62
7
370
-1
  6
CONTINUOUS
 10
285.1748999999999796
 20
229.1123469999999998
 30
0.0
 11
324.0492340000000127
 21
229.1123469999999998
 31
0.0
  0
LINE
  5
422
100
AcDbEntity
100
AcDbLine
  8
FORT
 62
7
370
-1
  6
CONTINUOUS
 10
285.2165669999999977
 20
239.1128469999999879
 30
0.0
 11
298.7575669999999946
 21
239.1128469999999879
 31
0.0
  0
MTEXT
  5
423
100
AcDbEntity
100
AcDbMText
  8
TEXTE
 62
7
370
-1
  6
CONTINUOUS
 10
245.0
 20
262.0
 30
0.0
 40
5.0
 41
100.0
 71
7
 72
2
  1
8
  7
iso9
 50
0.0
 73
1
 44
1.0
  0
MTEXT
  5
424
100
AcDbEntity
100
AcDbMText
  8
TEXTE
 62
7
370
-1
  6
CONTINUOUS
 10
265.0
 20
262.0
 30
0.0
 40
5.0
 41
100.0
 71
7
 72
2
  1
7
  7
iso9
 50
0.0
 73
1
 44
1.0
  0
MTEXT
  5
425
100
AcDbEntity
100
AcDbMText
  8
TEXTE
 62
7
370
-1
  6
CONTINUOUS
 10
285.0
 20
262.0
 30
0.0
 40
5.0
 41
100.0
 71
7
 72
2
  1
6
  7
iso9
 50
0.0
 73
1
 44
1.0
  0
LINE
  5
426
100
AcDbEntity
100
AcDbLine
  8
FORT
 62
7
370
-1
  6
CONTINUOUS
 10
308.6055200000000127
 20
239.6126800000000117
 30
0.0
 11
310.0488960000000134
 21
242.1126800000000117
 31
0.0
  0
LINE
  5
427
100
AcDbEntity
100
AcDbLine
  8
FORT
 62
7
370
-1
  6
CONTINUOUS
 10
308.6055200000000127
 20
239.6126800000000117
 30
0.0
 11
310.0488960000000134
 21
237.1126800000000117
 31
0.0
  0
LINE
  5
428
100
AcDbEntity
100
AcDbLine
  8
FORT
 62
7
370
-1
  6
CONTINUOUS
 10
321.5492340000000127
 20
242.6126800000000117
 30
0.0
 11
341.0492340000000127
 21
242.6126800000000117
 31
0.0
  0
LINE
  5
429
100
AcDbEntity
100
AcDbLine
  8
FORT
 62
7
370
-1
  6
CONTINUOUS
 10
321.5492340000000127
 20
236.6126800000000117
 30
0.0
 11
341.0492340000000127
 21
236.6126800000000117
 31
0.0
  0
LINE
  5
42A
100
AcDbEntity
100
AcDbLine
  8
FORT
 62
7
370
-1
  6
CONTINUOUS
 10
324.0492340000000127
 20
230.1125140000000044
 30
0.0
 11
335.0492340000000127
 21
230.1125140000000044
 31
0.0
  0
LINE
  5
42B
100
AcDbEntity
100
AcDbLine
  8
FORT
 62
7
370
-1
  6
CONTINUOUS
 10
310.0488960000000134
 20
242.1126800000000117
 30
0.0
 11
321.0492340000000127
 21
242.1126800000000117
 31
0.0
  0
LINE
  5
42C
100
AcDbEntity
100
AcDbLine
  8
FORT
 62
7
370
-1
  6
CONTINUOUS
 10
310.0488960000000134
 20
237.1126800000000117
 30
0.0
 11
321.0492340000000127
 21
237.1126800000000117
 31
0.0
  0
LINE
  5
42D
100
AcDbEntity
100
AcDbLine
  8
FORT
 62
7
370
-1
  6
CONTINUOUS
 10
310.0488960000000134
 20
242.1126800000000117
 30
0.0
 11
310.0488960000000134
 21
237.1126800000000117
 31
0.0
  0
LINE
  5
42E
100
AcDbEntity
100
AcDbLine
  8
FORT
 62
7
370
-1
  6
CONTINUOUS
 10
315.0492340000000127
 20
236.6126800000000117
 30
0.0
 11
315.0492340000000127
 21
242.6126800000000117
 31
0.0
  0
LINE
  5
42F
100
AcDbEntity
100
AcDbLine
  8
FORT
 62
7
370
-1
  6
CONTINUOUS
 10
321.0492340000000127
 20
242.1126800000000117
 30
0.0
 11
321.5492340000000127
 21
242.6126800000000117
 31
0.0
  0
LINE
  5
430
100
AcDbEntity
100
AcDbLine
  8
FORT
 62
7
370
-1
  6
CONTINUOUS
 10
321.0492340000000127
 20
237.1126800000000117
 30
0.0
 11
321.5492340000000127
 21
236.6126800000000117
 31
0.0
  0
LINE
  5
431
100
AcDbEntity
100
AcDbLine
  8
FORT
 62
7
370
-1
  6
CONTINUOUS
 10
321.0492340000000127
 20
237.1126800000000117
 30
0.0
 11
321.0492340000000127
 21
242.1126800000000117
 31
0.0
  0
LINE
  5
432
100
AcDbEntity
100
AcDbLine
  8
FORT
 62
7
370
-1
  6
CONTINUOUS
 10
321.5492340000000127
 20
236.6126800000000117
 30
0.0
 11
321.5492340000000127
 21
242.6126800000000117
 31
0.0
  0
LINE
  5
433
100
AcDbEntity
100
AcDbLine
  8
FORT
 62
7
370
-1
  6
CONTINUOUS
 10
331.0492340000000127
 20
230.1125140000000044
 30
0.0
 11
330.0492340000000127
 21
229.1125140000000044
 31
0.0
  0
LINE
  5
434
100
AcDbEntity
100
AcDbLine
  8
FORT
 62
7
370
-1
  6
CONTINUOUS
 10
335.0492340000000127
 20
242.6126800000000117
 30
0.0
 11
335.0492340000000127
 21
248.1128469999999879
 31
0.0
  0
LINE
  5
435
100
AcDbEntity
100
AcDbLine
  8
FORT
 62
7
370
-1
  6
CONTINUOUS
 10
335.0492340000000127
 20
230.1125140000000044
 30
0.0
 11
335.0492340000000127
 21
236.6126800000000117
 31
0.0
  0
LINE
  5
436
100
AcDbEntity
100
AcDbLine
  8
FORT
 62
7
370
-1
  6
CONTINUOUS
 10
341.0492340000000127
 20
244.6126800000000117
 30
0.0
 11
346.0492340000000127
 21
244.6126800000000117
 31
0.0
  0
ARC
  5
437
100
AcDbEntity
  8
FORT
 62
7
370
-1
  6
CONTINUOUS
100
AcDbCircle
 10
346.0492340000000127
 20
243.6126800000000117
 30
0.0
 40
1.0
100
AcDbArc
 50
0.0
 51
90.0
  0
LINE
  5
438
100
AcDbEntity
100
AcDbLine
  8
FORT
 62
7
370
-1
  6
CONTINUOUS
 10
335.0492340000000127
 20
243.4126799999999946
 30
0.0
 11
341.0492340000000127
 21
243.4126799999999946
 31
0.0
  0
LINE
  5
439
100
AcDbEntity
100
AcDbLine
  8
FORT
 62
7
370
-1
  6
CONTINUOUS
 10
341.0492340000000127
 20
245.4126799999999946
 30
0.0
 11
347.0492340000000127
 21
245.4126799999999946
 31
0.0
  0
LINE
  5
43A
100
AcDbEntity
100
AcDbLine
  8
FORT
 62
7
370
-1
  6
CONTINUOUS
 10
341.0492340000000127
 20
234.6126800000000117
 30
0.0
 11
346.0492340000000127
 21
234.6126800000000117
 31
0.0
  0
ARC
  5
43B
100
AcDbEntity
  8
FORT
 62
7
370
-1
  6
CONTINUOUS
100
AcDbCircle
 10
346.0492340000000127
 20
235.6126800000000117
 30
0.0
 40
1.0
100
AcDbArc
 50
270.0
 51
0.0
  0
LINE
  5
43C
100
AcDbEntity
100
AcDbLine
  8
FORT
 62
7
370
-1
  6
CONTINUOUS
 10
335.0492340000000127
 20
235.8126800000000003
 30
0.0
 11
341.0492340000000127
 21
235.8126800000000003
 31
0.0
  0
LINE
  5
43D
100
AcDbEntity
100
AcDbLine
  8
FORT
 62
7
370
-1
  6
CONTINUOUS
 10
341.0492340000000127
 20
233.8126800000000003
 30
0.0
 11
347.0492340000000127
 21
233.8126800000000003
 31
0.0
  0
LINE
  5
43E
100
AcDbEntity
100
AcDbLine
  8
FORT
 62
7
370
-1
  6
CONTINUOUS
 10
341.0492340000000127
 20
233.8126800000000003
 30
0.0
 11
341.0492340000000127
 21
245.4126799999999946
 31
0.0
  0
LINE
  5
43F
100
AcDbEntity
100
AcDbLine
  8
FORT
 62
7
370
-1
  6
CONTINUOUS
 10
339.0492340000000127
 20
242.6126800000000117
 30
0.0
 11
339.0492340000000127
 21
236.6126800000000117
 31
0.0
  0
CIRCLE
  5
440
100
AcDbEntity
100
AcDbCircle
  8
FORT
 62
7
370
-1
  6
CONTINUOUS
 10
344.6189600000000155
 20
241.7999100000000112
 30
0.0
 40
0.25
  0
CIRCLE
  5
441
100
AcDbEntity
100
AcDbCircle
  8
FORT
 62
7
370
-1
  6
CONTINUOUS
 10
342.9055030000000102
 20
230.9480140000000006
 30
0.0
 40
0.25
  0
LWPOLYLINE
  5
442
  8
HACHURE
 62
5
370
-1
  6
CONTINUOUS
100
AcDbEntity
100
AcDbPolyline
 90
6
 70
1
 10
347.0492340000000127
 20
248.1128469999999879
 10
335.0492340000000127
 20
248.1128469999999879
 10
335.0492340000000127
 20
243.4126799999999946
 10
341.0492340000000127
 20
243.4126799999999946
 10
341.0492340000000127
 20
245.4126799999999946
 10
347.0492340000000127
 20
245.4126799999999946
  0
INSERT
  5
443
100
AcDbEntity
100
AcDbBlockReference
  8
HACHURE
 62
256
370
-1
  6
ByLayer
  2
DESENS-G43
 10
0.0
 20
0.0
 30
0.0
  0
LINE
  5
444
100
AcDbEntity
100
AcDbLine
  8
FIN
 62
5
370
-1
  6
CONTINUOUS
 10
321.0492340000000127
 20
242.1126800000000117
 30
0.0
 11
339.0492340000000127
 21
242.1126800000000117
 31
0.0
  0
LINE
  5
445
100
AcDbEntity
100
AcDbLine
  8
FIN
 62
5
370
-1
  6
CONTINUOUS
 10
321.0492340000000127
 20
237.1126800000000117
 30
0.0
 11
339.0492340000000127
 21
237.1126800000000117
 31
0.0
  0
LINE
  5
446
100
AcDbEntity
100
AcDbLine
  8
FIN
 62
5
370
-1
  6
CONTINUOUS
 10
315.0492340000000127
 20
242.6126800000000117
 30
0.0
 11
321.5415120000000115
 21
242.6126800000000117
 31
0.0
  0
LINE
  5
447
100
AcDbEntity
100
AcDbLine
  8
FIN
 62
5
370
-1
  6
CONTINUOUS
 10
315.0492340000000127
 20
236.6126800000000117
 30
0.0
 11
321.5492340000000127
 21
236.6126800000000117
 31
0.0
  0
ARC
  5
448
100
AcDbEntity
  8
FORT
 62
7
370
-1
  6
CONTINUOUS
100
AcDbCircle
 10
298.7575669999999946
 20
242.404514000000006
 30
0.0
 40
3.2916669999999999
100
AcDbArc
 50
270.0
 51
348.2903610000000185
  0
ARC
  5
449
100
AcDbEntity
  8
FORT
 62
7
370
-1
  6
CONTINUOUS
100
AcDbCircle
 10
309.8142389999999864
 20
240.1128469999999879
 30
0.0
 40
8.0
100
AcDbArc
 50
90.0
 51
168.2903609999999901
  0
LINE
  5
44A
100
AcDbEntity
100
AcDbLine
  8
FORT
 62
7
370
-1
  6
CONTINUOUS
 10
309.8142389999999864
 20
248.1128469999999879
 30
0.0
 11
347.0492340000000127
 21
248.1128469999999879
 31
0.0
  0
MTEXT
  5
44B
100
AcDbEntity
100
AcDbMText
  8
TEXTE
 62
7
370
-1
  6
CONTINUOUS
 10
307.7484660000000076
 20
269.226272999999992
 30
0.0
 40
5.0
 41
100.0
 71
7
 72
2
  1
A-A
  7
iso9
 50
0.0
 73
1
 44
1.0
  0
MTEXT
  5
44C
100
AcDbEntity
100
AcDbMText
  8
TEXTE
 62
7
370
-1
  6
CONTINUOUS
 10
385.0
 20
222.0
 30
0.0
 40
5.0
 41
100.0
 71
7
 72
2
  1
4
  7
iso9
 50
0.0
 73
1
 44
1.0
  0
LINE
  5
44D
100
AcDbEntity
100
AcDbLine
  8
FIN
 62
5
370
-1
  6
CONTINUOUS
 10
354.3285510000000045
 20
221.8095749999999953
 30
0.0
 11
382.0
 21
220.0
 31
0.0
  0
LINE
  5
44E
100
AcDbEntity
100
AcDbLine
  8
FORT
 62
7
370
-1
  6
CONTINUOUS
 10
352.0492340000000127
 20
225.0293470000000013
 30
0.0
 11
352.0492340000000127
 21
215.0293470000000013
 31
0.0
  0
LINE
  5
44F
100
AcDbEntity
100
AcDbLine
  8
FORT
 62
7
370
-1
  6
CONTINUOUS
 10
352.0492340000000127
 20
215.0293470000000013
 30
0.0
 11
357.0492340000000127
 21
215.0293470000000013
 31
0.0
  0
LINE
  5
450
100
AcDbEntity
100
AcDbLine
  8
FORT
 62
7
370
-1
  6
CONTINUOUS
 10
352.0492340000000127
 20
215.7793470000000013
 30
0.0
 11
356.2992340000000127
 21
215.7793470000000013
 31
0.0
  0
ARC
  5
451
100
AcDbEntity
  8
FORT
 62
7
370
-1
  6
CONTINUOUS
100
AcDbCircle
 10
356.2992340000000127
 20
216.5293470000000013
 30
0.0
 40
0.75
100
AcDbArc
 50
270.0
 51
0.0
  0
ARC
  5
452
100
AcDbEntity
  8
FORT
 62
7
370
-1
  6
CONTINUOUS
100
AcDbCircle
 10
356.2992340000000127
 20
223.5293470000000013
 30
0.0
 40
0.75
100
AcDbArc
 50
0.0
 51
90.0
  0
LINE
  5
453
100
AcDbEntity
100
AcDbLine
  8
FORT
 62
7
370
-1
  6
CONTINUOUS
 10
352.0492340000000127
 20
224.2793470000000013
 30
0.0
 11
356.2992340000000127
 21
224.2793470000000013
 31
0.0
  0
LINE
  5
454
100
AcDbEntity
100
AcDbLine
  8
FORT
 62
7
370
-1
  6
CONTINUOUS
 10
352.0492340000000127
 20
225.0293470000000013
 30
0.0
 11
357.0492340000000127
 21
225.0293470000000013
 31
0.0
  0
CIRCLE
  5
455
100
AcDbEntity
100
AcDbCircle
  8
FORT
 62
7
370
-1
  6
CONTINUOUS
 10
354.3285510000000045
 20
221.8095749999999953
 30
0.0
 40
0.25
  0
LINE
  5
456
100
AcDbEntity
100
AcDbLine
  8
FORT
 62
7
370
-1
  6
CONTINUOUS
 10
357.0492340000000127
 20
211.0293470000000013
 30
0.0
 11
376.1676600000000121
 21
211.0293470000000013
 31
0.0
  0
MTEXT
  5
457
100
AcDbEntity
100
AcDbMText
  8
TEXTE
 62
7
370
-1
  6
CONTINUOUS
 10
385.0
 20
262.0
 30
0.0
 40
5.0
 41
100.0
 71
7
 72
2
  1
5
  7
iso9
 50
0.0
 73
1
 44
1.0
  0
MTEXT
  5
458
100
AcDbEntity
100
AcDbMText
  8
TEXTE
 62
7
370
-1
  6
CONTINUOUS
 10
385.0
 20
242.0
 30
0.0
 40
5.0
 41
100.0
 71
7
 72
2
  1
3
  7
iso9
 50
0.0
 73
1
 44
1.0
  0
LINE
  5
459
100
AcDbEntity
100
AcDbLine
  8
FORT
 62
7
370
-1
  6
CONTINUOUS
 10
220.0
 20
10.0
 30
0.0
 11
220.0
 21
41.0
 31
0.0
  0
LINE
  5
45A
100
AcDbEntity
100
AcDbLine
  8
FORT
 62
7
370
-1
  6
CONTINUOUS
 10
10.0
 20
10.0
 30
0.0
 11
220.0
 21
10.0
 31
0.0
  0
LINE
  5
45B
100
AcDbEntity
100
AcDbLine
  8
FORT
 62
7
370
-1
  6
CONTINUOUS
 10
410.0
 20
41.0
 30
0.0
 11
410.0
 21
287.0
 31
0.0
  0
LINE
  5
45C
100
AcDbEntity
100
AcDbLine
  8
FIN
 62
5
370
-1
  6
CONTINUOUS
 10
220.0
 20
20.5
 30
0.0
 11
410.0
 21
20.5
 31
0.0
  0
LINE
  5
45D
100
AcDbEntity
100
AcDbLine
  8
RENFORCE
 62
256
370
-1
  6
ByLayer
 10
410.0
 20
41.0
 30
0.0
 11
410.0
 21
10.0
 31
0.0
  0
LINE
  5
45E
100
AcDbEntity
100
AcDbLine
  8
RENFORCE
 62
7
370
-1
  6
CONTINUOUS
 10
220.0
 20
10.0
 30
0.0
 11
220.0
 21
41.0
 31
0.0
  0
LINE
  5
45F
100
AcDbEntity
100
AcDbLine
  8
RENFORCE
 62
7
370
-1
  6
CONTINUOUS
 10
220.0
 20
10.0
 30
0.0
 11
410.0
 21
10.0
 31
0.0
  0
LINE
  5
460
100
AcDbEntity
100
AcDbLine
  8
RENFORCE
 62
7
370
-1
  6
CONTINUOUS
 10
220.0
 20
41.0
 30
0.0
 11
410.0
 21
41.0
 31
0.0
  0
LINE
  5
461
100
AcDbEntity
100
AcDbLine
  8
AXE
 62
256
370
-1
  6
ByLayer
 10
151.6467269999999985
 20
130.0293470000000013
 30
0.0
 11
327.0492340000000127
 21
130.0293470000000013
 31
0.0
  0
LINE
  5
462
100
AcDbEntity
100
AcDbLine
  8
AXE
 62
256
370
-1
  6
ByLayer
 10
249.8230869999999868
 20
174.738426000000004
 30
0.0
 11
226.1085970000000032
 21
206.2405929999999898
 31
0.0
  0
LINE
  5
463
100
AcDbEntity
100
AcDbLine
  8
AXE
 62
256
370
-1
  6
ByLayer
 10
160.0495669999999961
 20
134.0222960000000114
 30
0.0
 11
160.0495669999999961
 21
126.0261629999999968
 31
0.0
  0
LINE
  5
464
100
AcDbEntity
100
AcDbLine
  8
AXE
 62
256
370
-1
  6
ByLayer
 10
175.7929430000000082
 20
104.5733469999999983
 30
0.0
 11
211.8159290000000112
 21
104.5733469999999983
 31
0.0
  0
LINE
  5
465
100
AcDbEntity
100
AcDbLine
  8
AXE
 62
256
370
-1
  6
ByLayer
 10
172.0495669999999961
 20
133.9415270000000078
 30
0.0
 11
172.0495669999999961
 21
126.0261629999999968
 31
0.0
  0
LINE
  5
466
100
AcDbEntity
100
AcDbLine
  8
AXE
 62
256
370
-1
  6
ByLayer
 10
175.7929430000000082
 20
155.4853469999999902
 30
0.0
 11
211.8159290000000112
 21
155.4853469999999902
 31
0.0
  0
LINE
  5
467
100
AcDbEntity
100
AcDbLine
  8
AXE
 62
256
370
-1
  6
ByLayer
 10
305.4941239999999993
 20
74.6126799999999974
 30
0.0
 11
350.9751939999999877
 21
74.6126799999999974
 31
0.0
  0
LINE
  5
468
100
AcDbEntity
100
AcDbLine
  8
AXE
 62
256
370
-1
  6
ByLayer
 10
327.0492340000000127
 20
128.0293470000000013
 30
0.0
 11
359.2504920000000084
 21
128.0293470000000013
 31
0.0
  0
LINE
  5
469
100
AcDbEntity
100
AcDbLine
  8
AXE
 62
256
370
-1
  6
ByLayer
 10
260.7891529999999989
 20
101.2793470000000013
 30
0.0
 11
295.7054370000000176
 21
101.2793470000000013
 31
0.0
  0
LINE
  5
46A
100
AcDbEntity
100
AcDbLine
  8
AXE
 62
256
370
-1
  6
ByLayer
 10
244.4465309999999931
 20
98.8450600000000037
 30
0.0
 11
241.5530530000000056
 21
77.6017860000000042
 31
0.0
  0
LINE
  5
46B
100
AcDbEntity
100
AcDbLine
  8
AXE
 62
256
370
-1
  6
ByLayer
 10
287.0495670000000246
 20
134.8208649999999977
 30
0.0
 11
287.0495670000000246
 21
144.2713090000000022
 31
0.0
  0
LINE
  5
46C
100
AcDbEntity
100
AcDbLine
  8
AXE
 62
256
370
-1
  6
ByLayer
 10
296.5495670000000246
 20
99.0293470000000013
 30
0.0
 11
321.5495670000000246
 21
99.0293470000000013
 31
0.0
  0
LINE
  5
46D
100
AcDbEntity
100
AcDbLine
  8
AXE
 62
256
370
-1
  6
ByLayer
 10
301.0495670000000246
 20
144.2713090000000022
 30
0.0
 11
301.0495670000000246
 21
134.8208649999999977
 31
0.0
  0
LINE
  5
46E
100
AcDbEntity
100
AcDbLine
  8
AXE
 62
256
370
-1
  6
ByLayer
 10
291.8240549999999871
 20
174.0293470000000013
 30
0.0
 11
382.4520380000000159
 21
174.0293470000000013
 31
0.0
  0
LINE
  5
46F
100
AcDbEntity
100
AcDbLine
  8
AXE
 62
256
370
-1
  6
ByLayer
 10
305.8195390000000202
 20
157.1126800000000117
 30
0.0
 11
352.9828820000000178
 21
157.1126800000000117
 31
0.0
  0
LINE
  5
470
100
AcDbEntity
100
AcDbLine
  8
AXE
 62
256
370
-1
  6
ByLayer
 10
327.4909860000000208
 20
220.0293470000000013
 30
0.0
 11
359.2504920000000084
 21
220.0293470000000013
 31
0.0
  0
LINE
  5
471
100
AcDbEntity
100
AcDbLine
  8
AXE
 62
256
370
-1
  6
ByLayer
 10
305.4941239999999993
 20
239.6126800000000117
 30
0.0
 11
350.9751939999999877
 21
239.6126800000000117
 31
0.0
  0
LINE
  5
472
100
AcDbEntity
100
AcDbLine
  8
AXE
 62
256
370
-1
  6
ByLayer
 10
260.7891529999999989
 20
158.7793470000000013
 30
0.0
 11
296.5495670000000246
 21
158.7793470000000013
 31
0.0
  0
LINE
  5
473
100
AcDbEntity
100
AcDbLine
  8
AXE
 62
256
370
-1
  6
ByLayer
 10
296.5495670000000246
 20
161.0293470000000013
 30
0.0
 11
321.5495670000000246
 21
161.0293470000000013
 31
0.0
  0
LINE
  5
474
100
AcDbEntity
100
AcDbLine
  8
AXE
 62
256
370
-1
  6
ByLayer
 10
315.0495670000000246
 20
176.2784560000000056
 30
0.0
 11
315.0495670000000246
 21
183.1816750000000127
 31
0.0
  0
LINE
  5
475
100
AcDbEntity
100
AcDbLine
  8
AXE
 62
256
370
-1
  6
ByLayer
 10
303.0495670000000246
 20
183.1816750000000127
 30
0.0
 11
303.0495670000000246
 21
176.2784560000000056
 31
0.0
  0
LINE
  5
476
100
AcDbEntity
100
AcDbLine
  8
AXE
 62
256
370
-1
  6
ByLayer
 10
296.5495670000000246
 20
187.0293470000000013
 30
0.0
 11
321.5495670000000246
 21
187.0293470000000013
 31
0.0
  0
LINE
  5
477
100
AcDbEntity
100
AcDbLine
  8
AXE
 62
256
370
-1
  6
ByLayer
 10
34.5601649999999978
 20
57.5627240000000029
 30
0.0
 11
34.5601649999999978
 21
256.6626370000000179
 31
0.0
  0
LINE
  5
478
100
AcDbEntity
100
AcDbLine
  8
AXE
 62
256
370
-1
  6
ByLayer
 10
97.0835969999999975
 20
121.0147599999999954
 30
0.0
 11
114.930925000000002
 21
110.7106009999999969
 31
0.0
  0
ARC
  5
479
100
AcDbEntity
  8
AXE
 62
256
370
-1
  6
ByLayer
100
AcDbCircle
 10
34.5601649999999978
 20
157.1126800000000117
 30
0.0
 40
82.5
100
AcDbArc
 50
270.0
 51
277.1608400000000074
  0
ARC
  5
47A
100
AcDbEntity
  8
AXE
 62
256
370
-1
  6
ByLayer
100
AcDbCircle
 10
34.5601649999999978
 20
157.1126800000000117
 30
0.0
 40
82.5
100
AcDbArc
 50
322.8391599999999926
 51
337.1608400000000074
  0
ARC
  5
47B
100
AcDbEntity
  8
AXE
 62
256
370
-1
  6
ByLayer
100
AcDbCircle
 10
34.5601649999999978
 20
174.0293470000000013
 30
0.0
 40
46.0
100
AcDbArc
 50
306.8526499999999828
 51
323.8022900000000277
  0
LINE
  5
47C
100
AcDbEntity
100
AcDbLine
  8
AXE
 62
256
370
-1
  6
ByLayer
 10
62.6674950000000024
 20
145.9220180000000084
 30
0.0
 11
71.6528639999999939
 21
136.9366489999999885
 31
0.0
  0
LINE
  5
47D
100
AcDbEntity
100
AcDbLine
  8
AXE
 62
256
370
-1
  6
ByLayer
 10
34.5601649999999978
 20
157.1126800000000117
 30
0.0
 11
134.8234290000000044
 21
157.1126800000000117
 31
0.0
  0
LINE
  5
47E
100
AcDbEntity
100
AcDbLine
  8
AXE
 62
256
370
-1
  6
ByLayer
 10
97.0835969999999975
 20
193.2106009999999969
 30
0.0
 11
114.930925000000002
 21
203.5147599999999954
 31
0.0
  0
LINE
  5
47F
100
AcDbEntity
100
AcDbLine
  8
AXE
 62
256
370
-1
  6
ByLayer
 10
34.5601649999999978
 20
174.0293470000000013
 30
0.0
 11
87.150377000000006
 21
174.0293470000000013
 31
0.0
  0
ARC
  5
480
100
AcDbEntity
  8
AXE
 62
256
370
-1
  6
ByLayer
100
AcDbCircle
 10
34.5601649999999978
 20
174.0293470000000013
 30
0.0
 40
46.0
100
AcDbArc
 50
81.5457229999999953
 51
90.0
  0
ARC
  5
481
100
AcDbEntity
  8
AXE
 62
256
370
-1
  6
ByLayer
100
AcDbCircle
 10
34.5601649999999978
 20
174.0293470000000013
 30
0.0
 40
46.0
100
AcDbArc
 50
350.3219940000000179
 51
8.5814409999999999
  0
LINE
  5
482
100
AcDbEntity
100
AcDbLine
  8
AXE
 62
256
370
-1
  6
ByLayer
 10
62.6674950000000024
 20
202.1366769999999917
 30
0.0
 11
71.6528639999999939
 21
211.1220460000000116
 31
0.0
  0
ARC
  5
483
100
AcDbEntity
  8
AXE
 62
256
370
-1
  6
ByLayer
100
AcDbCircle
 10
34.5601649999999978
 20
174.0293470000000013
 30
0.0
 40
46.0
100
AcDbArc
 50
36.8007640000000009
 51
52.6261129999999966
  0
ARC
  5
484
100
AcDbEntity
  8
AXE
 62
256
370
-1
  6
ByLayer
100
AcDbCircle
 10
34.5601649999999978
 20
157.1126800000000117
 30
0.0
 40
82.5
100
AcDbArc
 50
22.8391599999999997
 51
37.1608400000000003
  0
ARC
  5
485
100
AcDbEntity
  8
AXE
 62
256
370
-1
  6
ByLayer
100
AcDbCircle
 10
34.5601649999999978
 20
157.1126800000000117
 30
0.0
 40
82.5
100
AcDbArc
 50
82.8391600000000068
 51
90.0
  0
LINE
  5
486
100
AcDbEntity
100
AcDbLine
  8
AXE
 62
256
370
-1
  6
ByLayer
 10
92.8499889999999937
 20
28.8331279999999985
 30
0.0
 11
148.1786850000000015
 21
28.8331279999999985
 31
0.0
  0
ARC
  5
487
100
AcDbEntity
  8
AXE
 62
256
370
-1
  6
ByLayer
100
AcDbCircle
 10
140.8499889999999937
 20
28.8331279999999985
 30
0.0
 40
36.0
100
AcDbArc
 50
123.3505619999999965
 51
145.6581799999999873
  0
LINE
  5
488
100
AcDbEntity
100
AcDbLine
  8
AXE
 62
256
370
-1
  6
ByLayer
 10
140.8499889999999937
 20
21.1284300000000016
 30
0.0
 11
140.8499889999999937
 21
76.8331280000000021
 31
0.0
  0
LINE
  5
489
100
AcDbEntity
100
AcDbLine
  8
AXE
 62
256
370
-1
  6
ByLayer
 10
112.1690949999999987
 20
57.5140219999999971
 30
0.0
 11
119.6517149999999958
 21
50.0314019999999999
 31
0.0
  0
LINE
  5
48A
100
AcDbEntity
100
AcDbLine
  8
AXE
 62
256
370
-1
  6
ByLayer
 10
34.5601649999999978
 20
130.0293470000000013
 30
0.0
 11
59.2417939999999987
 21
130.0293470000000013
 31
0.0
  0
ARC
  5
48B
100
AcDbEntity
  8
AXE
 62
256
370
-1
  6
ByLayer
100
AcDbCircle
 10
34.5601649999999978
 20
174.0293470000000013
 30
0.0
 40
46.0
100
AcDbArc
 50
270.0
 51
278.4901239999999802
  0
ARC
  5
48C
100
AcDbEntity
  8
AXE
 62
256
370
-1
  6
ByLayer
100
AcDbCircle
 10
34.5601649999999978
 20
130.0293470000000013
 30
0.0
 40
31.0362690000000008
100
AcDbArc
 50
56.3765959999999993
 51
90.0
  0
MTEXT
  5
48D
100
AcDbEntity
100
AcDbMText
  8
TEXTE
 62
7
370
-1
  6
CONTINUOUS
 10
45.006253000000001
 20
262.4921699999999873
 30
0.0
 40
5.0
 41
100.0
 71
7
 72
2
  1
Les pieces 2, 4, 6, 7, 8 ne
  7
iso9
 50
0.0
 73
1
 44
1.0
  0
MTEXT
  5
48E
100
AcDbEntity
100
AcDbMText
  8
TEXTE
 62
7
370
-1
  6
CONTINUOUS
 10
45.006253000000001
 20
254.9921699999999873
 30
0.0
 40
5.0
 41
100.0
 71
7
 72
2
  1
sont pas representees
  7
iso9
 50
0.0
 73
1
 44
1.0
  0
LINE
  5
48F
100
AcDbEntity
100
AcDbLine
  8
TEXTE
 62
7
370
-1
  6
CONTINUOUS
 10
113.0192054609187124
 20
259.1842759782744565
 30
0.0
 11
114.4080943498075698
 21
260.2953870893855424
 31
0.0
  0
LINE
  5
490
100
AcDbEntity
100
AcDbLine
  8
TEXTE
 62
7
370
-1
  6
CONTINUOUS
 10
94.1303085545374927
 20
259.1842759782744565
 30
0.0
 11
95.51919744342635
 21
260.2953870893855424
 31
0.0
  0
LINE
  5
491
100
AcDbEntity
100
AcDbLine
  8
TEXTE
 62
7
370
-1
  6
CONTINUOUS
 10
67.8404971071942668
 20
266.6842759782744565
 30
0.0
 11
66.4516082183054095
 21
267.7953870893855424
 31
0.0
  0
LINE
  5
492
100
AcDbEntity
100
AcDbLine
  8
FIN
 62
5
370
-1
  6
CONTINUOUS
 10
260.0
 20
10.0
 30
0.0
 11
260.0
 21
41.0
 31
0.0
  0
LINE
  5
493
100
AcDbEntity
100
AcDbLine
  8
FIN
 62
5
370
-1
  6
CONTINUOUS
 10
220.0
 20
31.0
 30
0.0
 11
260.0
 21
31.0
 31
0.0
  0
LINE
  5
494
100
AcDbEntity
100
AcDbLine
  8
AXE
 62
256
370
-1
  6
ByLayer
 10
223.0
 20
26.0
 30
0.0
 11
257.0
 21
26.0
 31
0.0
  0
CIRCLE
  5
495
100
AcDbEntity
100
AcDbCircle
  8
FORT
 62
256
370
-1
  6
ByLayer
 10
249.4912073672424526
 20
26.0
 30
0.0
 40
3.0
  0
CIRCLE
  5
496
100
AcDbEntity
100
AcDbCircle
  8
FORT
 62
256
370
-1
  6
ByLayer
 10
249.4912073672424526
 20
26.0
 30
0.0
 40
1.4142135623730951
  0
LINE
  5
497
100
AcDbEntity
100
AcDbLine
  8
AXE
 62
256
370
-1
  6
ByLayer
 10
249.4912073672424526
 20
30.0
 30
0.0
 11
249.4912073672424526
 21
22.0
 31
0.0
  0
LINE
  5
498
100
AcDbEntity
100
AcDbLine
  8
FORT
 62
256
370
-1
  6
ByLayer
 10
227.4912073672424526
 20
27.4142135623730958
 30
0.0
 11
227.4912073672424526
 21
24.5857864376269042
 31
0.0
  0
LINE
  5
499
100
AcDbEntity
100
AcDbLine
  8
FORT
 62
256
370
-1
  6
ByLayer
 10
239.4912073672424526
 20
29.0
 30
0.0
 11
239.4912073672424526
 21
23.0
 31
0.0
  0
LINE
  5
49A
100
AcDbEntity
100
AcDbLine
  8
FORT
 62
256
370
-1
  6
ByLayer
 10
239.4912073672424526
 20
29.0
 30
0.0
 11
227.4912073672424526
 21
27.4142135623730958
 31
0.0
  0
LINE
  5
49B
100
AcDbEntity
100
AcDbLine
  8
FORT
 62
256
370
-1
  6
ByLayer
 10
239.4912073672424526
 20
23.0
 30
0.0
 11
227.4912073672424526
 21
24.5857864376269042
 31
0.0
  0
MTEXT
  5
49C
100
AcDbEntity
100
AcDbMText
  8
TEXTE
 62
7
370
-1
  6
CONTINUOUS
 10
228.1562251182301395
 20
33.1411799968141665
 30
0.0
 40
5.0
 41
100.0
 71
7
 72
2
  1
Ech. 1:1
  7
iso9
 50
0.0
 73
1
 44
1.0
  0
MTEXT
  5
49D
100
AcDbEntity
100
AcDbMText
  8
TEXTE
 62
7
370
70
  6
CONTINUOUS
 10
234.396719111858431
 20
11.9279769999999985
 30
0.0
 40
7.0
 41
100.0
 71
7
 72
2
  1
A3
  7
iso9
 50
0.0
 73
1
 44
1.0
  0
MTEXT
  5
49E
100
AcDbEntity
100
AcDbMText
  8
TEXTE
 62
7
370
70
  6
CONTINUOUS
 10
290.5599475309734316
 20
27.0
 30
0.0
 40
7.0
 41
100.0
 71
7
 72
2
  1
MOTO-REDUCTEUR
  7
iso9
 50
0.0
 73
1
 44
1.0
  0
LINE
  5
49F
100
AcDbEntity
100
AcDbLine
  8
INTERROMPU
 62
256
370
-1
  6
ByLayer
 10
299.0495670000000246
 20
163.0293470000000013
 30
0.0
 11
319.0495670000000246
 21
163.0293470000000013
 31
0.0
  0
LINE
  5
4A0
100
AcDbEntity
100
AcDbLine
  8
INTERROMPU
 62
256
370
-1
  6
ByLayer
 10
307.0495670000000246
 20
126.504210999999998
 30
0.0
 11
307.0495670000000246
 21
120.0293470000000013
 31
0.0
  0
LINE
  5
4A1
100
AcDbEntity
100
AcDbLine
  8
INTERROMPU
 62
256
370
-1
  6
ByLayer
 10
319.7995670000000246
 20
126.3290499999999952
 30
0.0
 11
319.7995670000000246
 21
120.0293470000000013
 31
0.0
  0
LINE
  5
4A2
100
AcDbEntity
100
AcDbLine
  8
FIN
 62
256
370
-1
  6
ByLayer
 10
222.0
 20
50.0
 30
0.0
 11
232.0
 21
50.0
 31
0.0
  0
LINE
  5
4A3
100
AcDbEntity
100
AcDbLine
  8
FIN
 62
256
370
-1
  6
ByLayer
 10
232.0
 20
260.0
 30
0.0
 11
222.0
 21
260.0
 31
0.0
  0
LINE
  5
4A4
100
AcDbEntity
100
AcDbLine
  8
FIN
 62
256
370
-1
  6
ByLayer
 10
172.0
 20
50.0
 30
0.0
 11
162.0
 21
50.0
 31
0.0
  0
LINE
  5
4A5
100
AcDbEntity
100
AcDbLine
  8
FIN
 62
256
370
-1
  6
ByLayer
 10
202.0
 20
50.0
 30
0.0
 11
212.0
 21
50.0
 31
0.0
  0
LINE
  5
4A6
100
AcDbEntity
100
AcDbLine
  8
FIN
 62
256
370
-1
  6
ByLayer
 10
292.0
 20
50.0
 30
0.0
 11
282.0
 21
50.0
 31
0.0
  0
LINE
  5
4A7
100
AcDbEntity
100
AcDbLine
  8
FIN
 62
256
370
-1
  6
ByLayer
 10
252.0
 20
50.0
 30
0.0
 11
242.0
 21
50.0
 31
0.0
  0
LINE
  5
4A8
100
AcDbEntity
100
AcDbLine
  8
FIN
 62
256
370
-1
  6
ByLayer
 10
272.0
 20
50.0
 30
0.0
 11
262.0
 21
50.0
 31
0.0
  0
LINE
  5
4A9
100
AcDbEntity
100
AcDbLine
  8
FIN
 62
256
370
-1
  6
ByLayer
 10
312.0
 20
50.0
 30
0.0
 11
302.0
 21
50.0
 31
0.0
  0
LINE
  5
4AA
100
AcDbEntity
100
AcDbLine
  8
FIN
 62
256
370
-1
  6
ByLayer
 10
382.0
 20
70.0
 30
0.0
 11
392.0
 21
70.0
 31
0.0
  0
LINE
  5
4AB
100
AcDbEntity
100
AcDbLine
  8
FIN
 62
256
370
-1
  6
ByLayer
 10
382.0
 20
90.0
 30
0.0
 11
392.0
 21
90.0
 31
0.0
  0
LINE
  5
4AC
100
AcDbEntity
100
AcDbLine
  8
FIN
 62
256
370
-1
  6
ByLayer
 10
382.0
 20
110.0
 30
0.0
 11
392.0
 21
110.0
 31
0.0
  0
LINE
  5
4AD
100
AcDbEntity
100
AcDbLine
  8
FIN
 62
256
370
-1
  6
ByLayer
 10
382.0
 20
130.0
 30
0.0
 11
392.0
 21
130.0
 31
0.0
  0
LINE
  5
4AE
100
AcDbEntity
100
AcDbLine
  8
FIN
 62
256
370
-1
  6
ByLayer
 10
292.0
 20
260.0
 30
0.0
 11
282.0
 21
260.0
 31
0.0
  0
LINE
  5
4AF
100
AcDbEntity
100
AcDbLine
  8
FIN
 62
256
370
-1
  6
ByLayer
 10
252.0
 20
260.0
 30
0.0
 11
242.0
 21
260.0
 31
0.0
  0
LINE
  5
4B0
100
AcDbEntity
100
AcDbLine
  8
FIN
 62
256
370
-1
  6
ByLayer
 10
272.0
 20
260.0
 30
0.0
 11
262.0
 21
260.0
 31
0.0
  0
LINE
  5
4B1
100
AcDbEntity
100
AcDbLine
  8
FIN
 62
256
370
-1
  6
ByLayer
 10
392.0
 20
220.0
 30
0.0
 11
382.0
 21
220.0
 31
0.0
  0
LINE
  5
4B2
100
AcDbEntity
100
AcDbLine
  8
FIN
 62
256
370
-1
  6
ByLayer
 10
392.0
 20
240.0
 30
0.0
 11
382.0
 21
240.0
 31
0.0
  0
LINE
  5
4B3
100
AcDbEntity
100
AcDbLine
  8
FIN
 62
256
370
-1
  6
ByLayer
 10
382.0
 20
260.0
 30
0.0
 11
392.0
 21
260.0
 31
0.0
  0
LWPOLYLINE
  5
4B4
  8
FIN
 62
5
370
-1
  6
CONTINUOUS
100
AcDbEntity
100
AcDbPolyline
 90
10
 70
0
 10
376.1676600000000121
 20
211.0293470000000013
 10
373.9926315910481662
 20
202.0027576483230689
 42
0.0986455539750078
 10
373.6039507488168852
 20
192.2410035443362517
 10
374.7639956094785703
 20
184.9063045339186431
 42
-0.058201728596386
 10
374.999356316141359
 20
179.1105575456487315
 10
374.2569018897484625
 20
169.3195484612138273
 42
0.0852604516517164
 10
375.054969050331124
 20
160.8927411801357721
 10
376.6672478751650601
 20
154.9407790254779798
 42
-0.0583620414277322
 10
377.5246000609008661
 20
149.1879212983235163
 10
377.9058959999999843
 20
137.0293470000000013
  0
LINE
  5
4B5
100
AcDbEntity
100
AcDbLine
  8
HACHURE
 62
256
370
-1
  6
ByLayer
 10
248.7261140000000239
 20
95.7960570000000189
 30
0.0
 11
237.8957240000000297
 21
88.2125369999999975
 31
0.0
  0
LINE
  5
4B6
100
AcDbEntity
100
AcDbLine
  8
HACHURE
 62
256
370
-1
  6
ByLayer
 10
241.1743260000000078
 20
81.2058389999999832
 30
0.0
 11
247.6508599999999944
 21
85.7407569999999879
 31
0.0
  0
LINE
  5
4B7
100
AcDbEntity
100
AcDbLine
  8
HACHURE
 62
256
370
-1
  6
ByLayer
 10
237.441995999999989
 20
84.7940329999999847
 30
0.0
 11
248.5845899999999915
 21
92.5961620000000067
 31
0.0
  0
LINE
  5
4B8
100
AcDbEntity
100
AcDbLine
  8
HACHURE
 62
256
370
-1
  6
ByLayer
 10
246.3013229999999965
 20
81.6950010000000049
 30
0.0
 11
245.6432220000000086
 21
81.2341940000000022
 31
0.0
  0
LINE
  5
4B9
100
AcDbEntity
100
AcDbLine
  8
HACHURE
 62
5
370
-1
  6
CONTINUOUS
 10
239.1214109999999948
 20
97.2134230000000059
 30
0.0
 11
237.4680030000000102
 21
85.074473999999995
 31
0.0
  0
ARC
  5
4BA
100
AcDbEntity
  8
HACHURE
 62
5
370
-1
  6
CONTINUOUS
100
AcDbCircle
 10
240.7708371964464789
 20
84.6246028686183962
 30
0.0
 40
3.3333313312760744
100
AcDbArc
 50
172.2436109717211821
 51
262.2436965802949089
  0
LINE
  5
4BB
100
AcDbEntity
100
AcDbLine
  8
HACHURE
 62
5
370
-1
  6
CONTINUOUS
 10
240.3209709999999859
 20
81.3217680000000058
 30
0.0
 11
243.6238079999999968
 21
80.8718999999999966
 31
0.0
  0
ARC
  5
4BC
100
AcDbEntity
  8
HACHURE
 62
5
370
-1
  6
CONTINUOUS
100
AcDbCircle
 10
244.0736791313808283
 20
84.174733196447221
 30
0.0
 40
3.3333303404258738
100
AcDbArc
 50
262.2436086519179526
 51
352.2436942604917931
  0
LINE
  5
4BD
100
AcDbEntity
100
AcDbLine
  8
HACHURE
 62
5
370
-1
  6
CONTINUOUS
 10
247.3765129999999886
 20
83.7248670000000033
 30
0.0
 11
249.0299200000000042
 21
95.8638159999999999
 31
0.0
  0
LINE
  5
4BE
100
AcDbEntity
100
AcDbLine
  8
FIN
 62
5
370
-1
  6
CONTINUOUS
 10
239.1214109999999948
 20
97.2134230000000059
 30
0.0
 11
240.8690218320660676
 21
97.5070440280890693
 31
0.0
  0
ARC
  5
4BF
100
AcDbEntity
  8
FIN
 62
5
370
-1
  6
CONTINUOUS
100
AcDbCircle
 10
241.5317838936997248
 20
93.562332828310403
 30
0.0
 40
4.0
100
AcDbArc
 50
47.8060766317655421
 51
99.5373502518341269
  0
LINE
  5
4C0
100
AcDbEntity
100
AcDbLine
  8
HACHURE
 62
5
370
-1
  6
CONTINUOUS
 10
249.0299200000000042
 20
95.8638159999999999
 30
0.0
 11
247.7721376623074434
 21
95.5844792396280241
 31
0.0
  0
ARC
  5
4C1
100
AcDbEntity
  8
FIN
 62
256
370
-1
  6
ByLayer
100
AcDbCircle
 10
246.9049200365844854
 20
99.4893394918822906
 30
0.0
 40
4.0
100
AcDbArc
 50
227.8060766317652508
 51
282.5214094253315125
  0
LINE
  5
4C2
100
AcDbEntity
100
AcDbLine
  8
HACHURE
 62
256
370
-1
  6
ByLayer
 10
242.288625108317774
 20
97.4900791765176677
 30
0.0
 11
238.8291450000000111
 21
95.0677249999999816
 31
0.0
  0
LINE
  5
4C3
100
AcDbEntity
100
AcDbLine
  8
HACHURE
 62
256
370
-1
  6
ByLayer
 10
244.7880269999999712
 20
189.7504159999999729
 30
0.0
 11
236.5916239999999959
 21
184.0112320000000068
 31
0.0
  0
LINE
  5
4C4
100
AcDbEntity
100
AcDbLine
  8
HACHURE
 62
256
370
-1
  6
ByLayer
 10
241.1775789999999802
 20
177.9199600000000032
 30
0.0
 11
246.9302879999999618
 21
181.9480509999999924
 31
0.0
  0
LINE
  5
4C5
100
AcDbEntity
100
AcDbLine
  8
HACHURE
 62
256
370
-1
  6
ByLayer
 10
247.0599330000000293
 20
182.0388299999999902
 30
0.0
 11
249.3733700000000226
 21
183.6587150000000008
 31
0.0
  0
LINE
  5
4C6
100
AcDbEntity
100
AcDbLine
  8
HACHURE
 62
256
370
-1
  6
ByLayer
 10
246.3163319999999885
 20
187.7200530000000072
 30
0.0
 11
238.1199290000000133
 21
181.9808690000000126
 31
0.0
  0
LINE
  5
4C7
100
AcDbEntity
100
AcDbLine
  8
AXE
 62
256
370
-1
  6
ByLayer
 10
250.3796869999999899
 20
182.3229139999999973
 30
0.0
 11
236.1053110000000004
 21
201.2848989999999958
 31
0.0
  0
LINE
  5
4C8
100
AcDbEntity
100
AcDbLine
  8
HACHURE
 62
256
370
-1
  6
ByLayer
 10
236.1053110000000004
 20
201.2848989999999958
 30
0.0
 11
250.3796869999999899
 21
182.3229139999999973
 31
0.0
  0
LINE
  5
4C9
100
AcDbEntity
100
AcDbLine
  8
HACHURE
 62
256
370
-1
  6
ByLayer
 10
243.8665770000000066
 20
176.7023240000000044
 30
0.0
 11
245.2244377525324524
 21
177.6531085645947883
 31
0.0
  0
ARC
  5
4CA
100
AcDbEntity
  8
HACHURE
 62
256
370
-1
  6
ByLayer
100
AcDbCircle
 10
242.3537708639565551
 20
180.4386554794454298
 30
0.0
 40
4.0
100
AcDbArc
 50
284.9303550399922074
 51
344.3508639721829354
  0
LINE
  5
4CB
100
AcDbEntity
100
AcDbLine
  8
HACHURE
 62
256
370
-1
  6
ByLayer
 10
250.3796869999999899
 20
182.3229139999999973
 30
0.0
 11
249.7161104932289106
 21
182.2661184441020907
 31
0.0
  0
ARC
  5
4CC
100
AcDbEntity
  8
HACHURE
 62
256
370
-1
  6
ByLayer
100
AcDbCircle
 10
250.0572235912825363
 20
178.2806897526893124
 30
0.0
 40
4.0
100
AcDbArc
 50
94.8920269271516048
 51
164.3508639721830491
  0
LINE
  5
4CD
100
AcDbEntity
100
AcDbLine
  8
HACHURE
 62
256
370
-1
  6
ByLayer
 10
235.5335599999999943
 20
201.8751520000000426
 30
0.0
 11
227.587885999999969
 21
196.3115319999999997
 31
0.0
  0
LINE
  5
4CE
100
AcDbEntity
100
AcDbLine
  8
HACHURE
 62
256
370
-1
  6
ByLayer
 10
232.0062800000000038
 20
190.1029320000000382
 30
0.0
 11
240.2026830000000075
 21
195.8421160000000327
 31
0.0
  0
LINE
  5
4CF
100
AcDbEntity
100
AcDbLine
  8
HACHURE
 62
256
370
-1
  6
ByLayer
 10
237.1450340000000097
 20
199.9030250000000137
 30
0.0
 11
228.9486300000000085
 21
194.1638419999999883
 31
0.0
  0
LINE
  5
4D0
100
AcDbEntity
100
AcDbLine
  8
HACHURE
 62
256
370
-1
  6
ByLayer
 10
233.5345849999999928
 20
188.0725700000000131
 30
0.0
 11
241.7309879999999964
 21
193.8117530000000102
 31
0.0
  0
ARC
  5
4D1
100
AcDbEntity
  8
HACHURE
 62
256
370
-1
  6
ByLayer
100
AcDbCircle
 10
233.4422139918347057
 20
199.2801519872334097
 30
0.0
 40
3.3333311056802399
100
AcDbArc
 50
36.9719886252868477
 51
126.9720742338610648
  0
LINE
  5
4D2
100
AcDbEntity
100
AcDbLine
  8
HACHURE
 62
256
370
-1
  6
ByLayer
 10
231.4374630000000082
 20
201.9432459999999878
 30
0.0
 11
228.7743659999999863
 21
199.938494999999989
 31
0.0
  0
ARC
  5
4D3
100
AcDbEntity
  8
HACHURE
 62
256
370
-1
  6
ByLayer
100
AcDbCircle
 10
230.7791130127673398
 20
197.2753989918339528
 30
0.0
 40
3.3333303067517179
100
AcDbArc
 50
126.9719989630248591
 51
216.9720845715986286
  0
LINE
  5
4D4
100
AcDbEntity
100
AcDbLine
  8
HACHURE
 62
256
370
-1
  6
ByLayer
 10
228.1160199999999918
 20
195.2706479999999942
 30
0.0
 11
242.3903960000000097
 21
176.3086619999999982
 31
0.0
  0
LINE
  5
4D5
100
AcDbEntity
100
AcDbLine
  8
HACHURE
 62
256
370
-1
  6
ByLayer
 10
242.3903960000000097
 20
176.3086619999999982
 30
0.0
 11
243.3843498185106
 21
176.5736966157018344
 31
0.0
  0
ENDSEC
  0
SECTION
  2
OBJECTS
  0
DICTIONARY
  5
C
100
AcDbDictionary
280
0
281
1
  3
ACAD_GROUP
350
D
  3
ACAD_LAYOUT
350
1A
  3
ACAD_MLINESTYLE
350
17
  3
ACAD_PLOTSETTINGS
350
19
  3
ACAD_PLOTSTYLENAME
350
E
  3
AcDbVariableDictionary
350
4D6
  0
DICTIONARY
  5
D
100
AcDbDictionary
280
0
281
1
  0
ACDBDICTIONARYWDFLT
  5
E
100
AcDbDictionary
281
1
  3
Normal
350
F
100
AcDbDictionaryWithDefault
340
F
  0
ACDBPLACEHOLDER
  5
F
  0
DICTIONARY
  5
17
100
AcDbDictionary
280
0
281
1
  3
Standard
350
18
  0
MLINESTYLE
  5
18
100
AcDbMlineStyle
  2
STANDARD
 70
0
  3

 62
256
 51
90.0
 52
90.0
 71
2
 49
0.5
 62
256
  6
BYLAYER
 49
-0.5
 62
256
  6
BYLAYER
  0
DICTIONARY
  5
19
100
AcDbDictionary
280
0
281
1
  0
DICTIONARY
  5
1A
100
AcDbDictionary
281
1
  3
Layout1
350
1E
  3
Layout2
350
26
  3
Model
350
22
  0
LAYOUT
  5
1E
100
AcDbPlotSettings
  1

  2
C:\Program Files\AutoCAD 2002\plotters\DWF ePlot (optimized for plotting).pc3
  4

  6

 40
0.0
 41
0.0
 42
0.0
 43
0.0
 44
0.0
 45
0.0
 46
0.0
 47
0.0
 48
0.0
 49
0.0
140
0.0
141
0.0
142
1.0
143
1.0
 70
688
 72
0
 73
0
 74
5
  7

 75
16
147
1.0
148
0.0
149
0.0
100
AcDbLayout
  1
Layout1
 70
1
 71
1
 10
0.0
 20
0.0
 11
420.0
 21
297.0
 12
0.0
 22
0.0
 32
0.0
 14
100000000000000000000.0
 24
100000000000000000000.0
 34
100000000000000000000.0
 15
-100000000000000000000.0
 25
-100000000000000000000.0
 35
-100000000000000000000.0
146
0.0
 13
0.0
 23
0.0
 33
0.0
 16
1.0
 26
0.0
 36
0.0
 17
0.0
 27
1.0
 37
0.0
 76
0
330
1B
  0
LAYOUT
  5
22
100
AcDbPlotSettings
  1

  2
C:\Program Files\AutoCAD 2002\plotters\DWF ePlot (optimized for plotting).pc3
  4

  6

 40
0.0
 41
0.0
 42
0.0
 43
0.0
 44
0.0
 45
0.0
 46
0.0
 47
0.0
 48
0.0
 49
0.0
140
0.0
141
0.0
142
1.0
143
1.0
 70
1712
 72
0
 73
0
 74
0
  7

 75
0
147
1.0
148
0.0
149
0.0
100
AcDbLayout
  1
Model
 70
1
 71
0
 10
0.0
 20
0.0
 11
12.0
 21
9.0
 12
0.0
 22
0.0
 32
0.0
 14
0.0
 24
0.0
 34
0.0
 15
0.0
 25
0.0
 35
0.0
146
0.0
 13
0.0
 23
0.0
 33
0.0
 16
1.0
 26
0.0
 36
0.0
 17
0.0
 27
1.0
 37
0.0
 76
0
330
1F
  0
LAYOUT
  5
26
100
AcDbPlotSettings
  1

  2
C:\Program Files\AutoCAD 2002\plotters\DWF ePlot (optimized for plotting).pc3
  4

  6

 40
0.0
 41
0.0
 42
0.0
 43
0.0
 44
0.0
 45
0.0
 46
0.0
 47
0.0
 48
0.0
 49
0.0
140
0.0
141
0.0
142
1.0
143
1.0
 70
688
 72
0
 73
0
 74
5
  7

 75
16
147
1.0
148
0.0
149
0.0
100
AcDbLayout
  1
Layout2
 70
1
 71
2
 10
0.0
 20
0.0
 11
12.0
 21
9.0
 12
0.0
 22
0.0
 32
0.0
 14
0.0
 24
0.0
 34
0.0
 15
0.0
 25
0.0
 35
0.0
146
0.0
 13
0.0
 23
0.0
 33
0.0
 16
1.0
 26
0.0
 36
0.0
 17
0.0
 27
1.0
 37
0.0
 76
0
330
23
  0
DICTIONARY
  5
4D6
100
AcDbDictionary
281
1
  3
DIMASSOC
350
4D8
  3
HIDETEXT
350
4D7
  0
DICTIONARYVAR
  5
4D7
100
DictionaryVariables
280
0
  1
2
  0
DICTIONARYVAR
  5
4D8
100
DictionaryVariables
280
0
  1
1
  0
ENDSEC
  0
EOF
