999
dxflib 2.0.4.8
  0
SECTION
  2
HEADER
  9
$ACADVER
  1
AC1015
  9
$HANDSEED
  5
FFFF
  9
$USERR4
 40
0.0
  9
$AXISUNIT
 10
0.0
 20
0.0
 30
0.0
  9
$DIMTAD
 70
0
  9
$USERR5
 40
0.0
  9
$ATTREQ
 70
1
  9
$CHAMFERA
 40
10.0
  9
$VIEWDIR
 10
0.0
 20
0.0
 30
1.0
  9
$MENU
  1
acad
  9
$CLAYER
  8
FORT
  9
$SNAPBASE
 10
0.0
 20
0.0
 30
0.0
  9
$VIEWSIZE
 40
9.0
  9
$CHAMFERB
 40
10.0
  9
$DIMASZ
 40
0.18
  9
$TRACEWID
 40
0.05
  9
$REGENMODE
 70
1
  9
$ORTHOMODE
 70
1
  9
$GRIDUNIT
 10
1.0
 20
1.0
  9
$EXTMIN
 10
0.0
 20
0.0
 30
0.0
  9
$ANGBASE
 50
0.0
  9
$USRTIMER
 70
1
  9
$SKETCHINC
 40
0.1
  9
$DIMALT
 70
0
  9
$DIMSHO
 70
1
  9
$SNAPSTYLE
 70
0
  9
$DIMGAP
 40
0.625
  9
$SPLFRAME
 70
0
  9
$AXISMODE
 70
0
  9
$DIMTSZ
 40
0.0
  9
$LIMMIN
 10
-13.751322
 20
-4.592784
  9
$SPLINESEGS
 70
10
  9
$BLIPMODE
 70
1
  9
$AUPREC
 70
0
  9
$LUNITS
 70
2
  9
$USERI1
 70
0
  9
$SKPOLY
 70
0
  9
$ELEVATION
 40
0.0
  9
$DIMCEN
 40
0.09
  9
$DIMRND
 40
0.0
  9
$INSBASE
 10
0.0
 20
0.0
 30
0.0
  9
$USERI2
 70
0
  9
$DIMEXO
 40
0.0625
  9
$TEXTSIZE
 40
0.2
  9
$DRAGMODE
 70
2
  9
$FILLMODE
 70
1
  9
$EXTMAX
 10
210.0
 20
297.0
 30
0.0
  9
$INSUNITS
 70
4
  9
$USERI3
 70
0
  9
$ANGDIR
 70
0
  9
$TDUSRTIMER
 40
0.0
  9
$DIMZIN
 70
0
  9
$DIMDLE
 40
0.0
  9
$DIMSCALE
 40
1.0
  9
$VIEWCTR
 10
6.0
 20
4.5
  9
$USERI4
 70
0
  9
$OSMODE
 70
0
  9
$QTEXTMODE
 70
0
  9
$LIMMAX
 10
476.5491240000000062
 20
301.5927839999999946
  9
$USERI5
 70
0
  9
$PDMODE
 70
0
  9
$FASTZOOM
 70
1
  9
$LIMCHECK
 70
0
  9
$THICKNESS
 40
0.0
  9
$DIMSE1
 70
0
  9
$DIMLIM
 70
0
  9
$DIMTXT
 40
0.18
  9
$ATTMODE
 70
1
  9
$GRIDMODE
 70
0
  9
$TDINDWG
 40
0.0
  9
$LUPREC
 70
4
  9
$DIMLFAC
 40
1.0
  9
$DIMSE2
 70
0
  9
$DIMTOH
 70
1
  9
$CELTYPE
  6
CONTINUOUS
  9
$DIMSTYLE
  2
Standard
  9
$PLINEWID
 40
0.0
  9
$DIMASO
 70
1
  9
$DIMTM
 40
0.0
  9
$DIMDLI
 40
0.38
  9
$CECOLOR
 62
7
  9
$SNAPANG
 50
0.0
  9
$SNAPMODE
 70
0
  9
$TDUPDATE
 40
0.0
  9
$FILLETRAD
 40
10.0
  9
$DIMALTD
 70
2
  9
$DIMTIH
 70
1
  9
$LTSCALE
 40
1.0
  9
$PLIMMAX
 10
210.0
 20
297.0
  9
$PLIMMIN
 10
0.0
 20
0.0
  9
$USERR1
 40
0.0
  9
$ATTDIA
 70
0
  9
$PDSIZE
 40
0.0
  9
$DIMEXE
 40
0.18
  9
$USERR2
 40
0.0
  9
$COORDS
 70
2
  9
$TDCREATE
 40
0.0
  9
$DIMALTF
 40
25.3999999999999986
  9
$DIMTOL
 70
0
  9
$DIMTP
 40
0.0
  9
$TEXTSTYLE
  7
STANDARD
  9
$SNAPISOPAIR
 70
0
  9
$SNAPUNIT
 10
1.0
 20
1.0
 30
0.0
  9
$USERR3
 40
0.0
  9
$AUNITS
 70
0
  0
ENDSEC
  0
SECTION
  2
TABLES
  0
TABLE
  2
VPORT
  5
8
100
AcDbSymbolTable
 70
1
  0
VPORT
  5
30
100
AcDbSymbolTableRecord
100
AcDbViewportTableRecord
  2
*Active
 70
0
 10
0.0
 20
0.0
 11
1.0
 21
1.0
 12
286.3055555555554861
 22
148.5
 13
0.0
 23
0.0
 14
10.0
 24
10.0
 15
10.0
 25
10.0
 16
0.0
 26
0.0
 36
1.0
 17
0.0
 27
0.0
 37
0.0
 40
297.0
 41
1.92798353909465
 42
50.0
 43
0.0
 44
0.0
 50
0.0
 51
0.0
 71
0
 72
100
 73
1
 74
3
 75
1
 76
1
 77
0
 78
0
281
0
 65
1
110
0.0
120
0.0
130
0.0
111
1.0
121
0.0
131
0.0
112
0.0
122
1.0
132
0.0
 79
0
146
0.0
  0
ENDTAB
  0
TABLE
  2
LTYPE
  5
5
100
AcDbSymbolTable
 70
21
  0
LTYPE
  5
14
100
AcDbSymbolTableRecord
100
AcDbLinetypeTableRecord
  2
ByBlock
 70
0
  3

 72
65
 73
0
 40
0.0
  0
LTYPE
  5
15
100
AcDbSymbolTableRecord
100
AcDbLinetypeTableRecord
  2
ByLayer
 70
0
  3

 72
65
 73
0
 40
0.0
  0
LTYPE
  5
16
100
AcDbSymbolTableRecord
100
AcDbLinetypeTableRecord
  2
CONTINUOUS
 70
0
  3
Solid line
 72
65
 73
0
 40
0.0
  0
LTYPE
  5
31
100
AcDbSymbolTableRecord
100
AcDbLinetypeTableRecord
  2
DOT
 70
0
  3
Dot . . . . . . . . . . . . . . . . . . . . . .
 72
65
 73
2
 40
6.3499999999999996
 49
0.0
 74
0
 49
-6.3499999999999996
 74
0
  0
LTYPE
  5
32
100
AcDbSymbolTableRecord
100
AcDbLinetypeTableRecord
  2
DOT2
 70
0
  3
Dot (.5x) .....................................
 72
65
 73
2
 40
3.1749999999999998
 49
0.0
 74
0
 49
-3.1749999999999998
 74
0
  0
LTYPE
  5
33
100
AcDbSymbolTableRecord
100
AcDbLinetypeTableRecord
  2
DOTX2
 70
0
  3
Dot (2x) .  .  .  .  .  .  .  .  .  .  .  .  .
 72
65
 73
2
 40
12.6999999999999993
 49
0.0
 74
0
 49
-12.6999999999999993
 74
0
  0
LTYPE
  5
34
100
AcDbSymbolTableRecord
100
AcDbLinetypeTableRecord
  2
DASHED
 70
0
  3
Dashed __ __ __ __ __ __ __ __ __ __ __ __ __ _
 72
65
 73
2
 40
19.0500000000000007
 49
12.6999999999999993
 74
0
 49
-6.3499999999999996
 74
0
  0
LTYPE
  5
35
100
AcDbSymbolTableRecord
100
AcDbLinetypeTableRecord
  2
DASHED2
 70
0
  3
Dashed (.5x) _ _ _ _ _ _ _ _ _ _ _ _ _ _ _ _ _
 72
65
 73
2
 40
9.5250000000000004
 49
6.3499999999999996
 74
0
 49
-3.1749999999999998
 74
0
  0
LTYPE
  5
36
100
AcDbSymbolTableRecord
100
AcDbLinetypeTableRecord
  2
DASHEDX2
 70
0
  3
Dashed (2x) ____  ____  ____  ____  ____  ___
 72
65
 73
2
 40
38.1000000000000014
 49
25.3999999999999986
 74
0
 49
-12.6999999999999993
 74
0
  0
LTYPE
  5
37
100
AcDbSymbolTableRecord
100
AcDbLinetypeTableRecord
  2
DASHDOT
 70
0
  3
Dash dot __ . __ . __ . __ . __ . __ . __ . __
 72
65
 73
4
 40
25.3999999999999986
 49
12.6999999999999993
 74
0
 49
-6.3499999999999996
 74
0
 49
0.0
 74
0
 49
-6.3499999999999996
 74
0
  0
LTYPE
  5
38
100
AcDbSymbolTableRecord
100
AcDbLinetypeTableRecord
  2
DASHDOT2
 70
0
  3
Dash dot (.5x) _._._._._._._._._._._._._._._.
 72
65
 73
4
 40
12.6999999999999993
 49
6.3499999999999996
 74
0
 49
-3.1749999999999998
 74
0
 49
0.0
 74
0
 49
-3.1749999999999998
 74
0
  0
LTYPE
  5
39
100
AcDbSymbolTableRecord
100
AcDbLinetypeTableRecord
  2
DASHDOTX2
 70
0
  3
Dash dot (2x) ____  .  ____  .  ____  .  ___
 72
65
 73
4
 40
50.7999999999999972
 49
25.3999999999999986
 74
0
 49
-12.6999999999999993
 74
0
 49
0.0
 74
0
 49
-12.6999999999999993
 74
0
  0
LTYPE
  5
3A
100
AcDbSymbolTableRecord
100
AcDbLinetypeTableRecord
  2
DIVIDE
 70
0
  3
Divide ____ . . ____ . . ____ . . ____ . . ____
 72
65
 73
6
 40
31.75
 49
12.6999999999999993
 74
0
 49
-6.3499999999999996
 74
0
 49
0.0
 74
0
 49
-6.3499999999999996
 74
0
 49
0.0
 74
0
 49
-6.3499999999999996
 74
0
  0
LTYPE
  5
3B
100
AcDbSymbolTableRecord
100
AcDbLinetypeTableRecord
  2
DIVIDE2
 70
0
  3
Divide (.5x) __..__..__..__..__..__..__..__.._
 72
65
 73
6
 40
15.875
 49
6.3499999999999996
 74
0
 49
-3.1749999999999998
 74
0
 49
0.0
 74
0
 49
-3.1749999999999998
 74
0
 49
0.0
 74
0
 49
-3.1749999999999998
 74
0
  0
LTYPE
  5
3C
100
AcDbSymbolTableRecord
100
AcDbLinetypeTableRecord
  2
DIVIDEX2
 70
0
  3
Divide (2x) ________  .  .  ________  .  .  _
 72
65
 73
6
 40
63.5
 49
25.3999999999999986
 74
0
 49
-12.6999999999999993
 74
0
 49
0.0
 74
0
 49
-12.6999999999999993
 74
0
 49
0.0
 74
0
 49
-12.6999999999999993
 74
0
  0
LTYPE
  5
3D
100
AcDbSymbolTableRecord
100
AcDbLinetypeTableRecord
  2
CENTER
 70
0
  3
Center ____ _ ____ _ ____ _ ____ _ ____ _ ____
 72
65
 73
4
 40
50.7999999999999972
 49
31.75
 74
0
 49
-6.3499999999999996
 74
0
 49
6.3499999999999996
 74
0
 49
-6.3499999999999996
 74
0
  0
LTYPE
  5
3E
100
AcDbSymbolTableRecord
100
AcDbLinetypeTableRecord
  2
CENTER2
 70
0
  3
Center (.5x) ___ _ ___ _ ___ _ ___ _ ___ _ ___
 72
65
 73
4
 40
28.5749999999999993
 49
19.0500000000000007
 74
0
 49
-3.1749999999999998
 74
0
 49
3.1749999999999998
 74
0
 49
-3.1749999999999998
 74
0
  0
LTYPE
  5
3F
100
AcDbSymbolTableRecord
100
AcDbLinetypeTableRecord
  2
CENTERX2
 70
0
  3
Center (2x) ________  __  ________  __  _____
 72
65
 73
4
 40
101.5999999999999943
 49
63.5
 74
0
 49
-12.6999999999999993
 74
0
 49
12.6999999999999993
 74
0
 49
-12.6999999999999993
 74
0
  0
LTYPE
  5
40
100
AcDbSymbolTableRecord
100
AcDbLinetypeTableRecord
  2
BORDER
 70
0
  3
Border __ __ . __ __ . __ __ . __ __ . __ __ .
 72
65
 73
6
 40
44.4500000000000028
 49
12.6999999999999993
 74
0
 49
-6.3499999999999996
 74
0
 49
12.6999999999999993
 74
0
 49
-6.3499999999999996
 74
0
 49
0.0
 74
0
 49
-6.3499999999999996
 74
0
  0
LTYPE
  5
41
100
AcDbSymbolTableRecord
100
AcDbLinetypeTableRecord
  2
BORDER2
 70
0
  3
Border (.5x) __.__.__.__.__.__.__.__.__.__.__.
 72
65
 73
6
 40
22.2250000000000014
 49
6.3499999999999996
 74
0
 49
-3.1749999999999998
 74
0
 49
6.3499999999999996
 74
0
 49
-3.1749999999999998
 74
0
 49
0.0
 74
0
 49
-3.1749999999999998
 74
0
  0
LTYPE
  5
42
100
AcDbSymbolTableRecord
100
AcDbLinetypeTableRecord
  2
BORDERX2
 70
0
  3
Border (2x) ____  ____  .  ____  ____  .  ___
 72
65
 73
6
 40
88.9000000000000057
 49
25.3999999999999986
 74
0
 49
-12.6999999999999993
 74
0
 49
25.3999999999999986
 74
0
 49
-12.6999999999999993
 74
0
 49
0.0
 74
0
 49
-12.6999999999999993
 74
0
  0
ENDTAB
  0
TABLE
  2
LAYER
  5
2
100
AcDbSymbolTable
 70
6
  0
LAYER
  5
10
100
AcDbSymbolTableRecord
100
AcDbLayerTableRecord
  2
0
 70
0
 62
7
  6
CONTINUOUS
390
F
  0
LAYER
  5
43
100
AcDbSymbolTableRecord
100
AcDbLayerTableRecord
  2
FORT
 70
0
 62
7
  6
CONTINUOUS
370
50
390
F
  0
LAYER
  5
44
100
AcDbSymbolTableRecord
100
AcDbLayerTableRecord
  2
FIN
 70
0
 62
5
  6
CONTINUOUS
370
20
390
F
  0
LAYER
  5
45
100
AcDbSymbolTableRecord
100
AcDbLayerTableRecord
  2
TEXTE
 70
0
 62
7
  6
CONTINUOUS
370
35
390
F
  0
LAYER
  5
46
100
AcDbSymbolTableRecord
100
AcDbLayerTableRecord
  2
HACHURE
 70
0
 62
7
  6
CONTINUOUS
390
F
  0
LAYER
  5
47
100
AcDbSymbolTableRecord
100
AcDbLayerTableRecord
  2
RENFORCE
 70
0
 62
7
  6
CONTINUOUS
370
70
390
F
  0
ENDTAB
  0
TABLE
  2
STYLE
  5
3
100
AcDbSymbolTable
 70
1
  0
STYLE
  5
11
100
AcDbSymbolTableRecord
100
AcDbTextStyleTableRecord
  2
Standard
 70
0
 40
0.0
 41
0.75
 50
0.0
 71
0
 42
2.5
  3
txt
  4

  0
ENDTAB
  0
TABLE
  2
VIEW
  5
6
100
AcDbSymbolTable
 70
0
  0
ENDTAB
  0
TABLE
  2
UCS
  5
7
100
AcDbSymbolTable
 70
0
  0
ENDTAB
  0
TABLE
  2
APPID
  5
9
100
AcDbSymbolTable
 70
1
  0
APPID
  5
12
100
AcDbSymbolTableRecord
100
AcDbRegAppTableRecord
  2
ACAD
 70
0
  0
ENDTAB
  0
TABLE
  2
DIMSTYLE
  5
A
100
AcDbSymbolTable
 70
1
100
AcDbDimStyleTable
 71
0
  0
DIMSTYLE
105
27
100
AcDbSymbolTableRecord
100
AcDbDimStyleTableRecord
  2
Standard
 41
0.18
 42
0.0625
 43
3.75
 44
0.18
 70
0
 73
0
 74
0
 77
1
 78
8
140
0.18
141
2.5
143
0.03937007874016
147
0.625
171
3
172
1
271
2
272
2
274
3
278
44
283
0
284
8
340
11
  0
ENDTAB
  0
TABLE
  2
BLOCK_RECORD
  5
1
100
AcDbSymbolTable
 70
1
  0
BLOCK_RECORD
  5
1F
100
AcDbSymbolTableRecord
100
AcDbBlockTableRecord
  2
*Model_Space
340
22
  0
BLOCK_RECORD
  5
1B
100
AcDbSymbolTableRecord
100
AcDbBlockTableRecord
  2
*Paper_Space
340
1E
  0
BLOCK_RECORD
  5
23
100
AcDbSymbolTableRecord
100
AcDbBlockTableRecord
  2
*Paper_Space0
340
26
  0
ENDTAB
  0
ENDSEC
  0
SECTION
  2
BLOCKS
  0
BLOCK
  5
20
100
AcDbEntity
  8
0
100
AcDbBlockBegin
  2
*Model_Space
 70
0
 10
0.0
 20
0.0
 30
0.0
  3
*Model_Space
  1

  0
ENDBLK
  5
21
100
AcDbEntity
  8
0
100
AcDbBlockEnd
  0
BLOCK
  5
1C
100
AcDbEntity
 67
1
  8
0
100
AcDbBlockBegin
  2
*Paper_Space
 70
0
 10
0.0
 20
0.0
 30
0.0
  3
*Paper_Space
  1

  0
ENDBLK
  5
1D
100
AcDbEntity
 67
1
  8
0
100
AcDbBlockEnd
  0
BLOCK
  5
24
100
AcDbEntity
  8
0
100
AcDbBlockBegin
  2
*Paper_Space0
 70
0
 10
0.0
 20
0.0
 30
0.0
  3
*Paper_Space0
  1

  0
ENDBLK
  5
25
100
AcDbEntity
  8
0
100
AcDbBlockEnd
  0
ENDSEC
  0
SECTION
  2
ENTITIES
  0
LINE
  5
48
100
AcDbEntity
100
AcDbLine
  8
FIN
 62
5
370
-1
  6
CONTINUOUS
 10
10.0
 20
59.0
 30
0.0
 11
200.0
 21
59.0
 31
0.0
  0
LINE
  5
49
100
AcDbEntity
100
AcDbLine
  8
FIN
 62
5
370
-1
  6
CONTINUOUS
 10
10.0
 20
68.0
 30
0.0
 11
200.0
 21
68.0
 31
0.0
  0
LINE
  5
4A
100
AcDbEntity
100
AcDbLine
  8
FIN
 62
5
370
-1
  6
CONTINUOUS
 10
10.0
 20
86.0
 30
0.0
 11
200.0
 21
86.0
 31
0.0
  0
LINE
  5
4B
100
AcDbEntity
100
AcDbLine
  8
FIN
 62
5
370
-1
  6
CONTINUOUS
 10
10.0
 20
77.0
 30
0.0
 11
200.0
 21
77.0
 31
0.0
  0
LINE
  5
4C
100
AcDbEntity
100
AcDbLine
  8
FIN
 62
5
370
-1
  6
CONTINUOUS
 10
10.0
 20
122.0
 30
0.0
 11
200.0
 21
122.0
 31
0.0
  0
LINE
  5
4D
100
AcDbEntity
100
AcDbLine
  8
FIN
 62
5
370
-1
  6
CONTINUOUS
 10
10.0
 20
113.0
 30
0.0
 11
200.0
 21
113.0
 31
0.0
  0
LINE
  5
4E
100
AcDbEntity
100
AcDbLine
  8
FIN
 62
5
370
-1
  6
CONTINUOUS
 10
10.0
 20
104.0
 30
0.0
 11
200.0
 21
104.0
 31
0.0
  0
LINE
  5
4F
100
AcDbEntity
100
AcDbLine
  8
FIN
 62
5
370
-1
  6
CONTINUOUS
 10
10.0
 20
95.0
 30
0.0
 11
200.0
 21
95.0
 31
0.0
  0
LINE
  5
50
100
AcDbEntity
100
AcDbLine
  8
FIN
 62
5
370
-1
  6
CONTINUOUS
 10
10.0
 20
140.0
 30
0.0
 11
200.0
 21
140.0
 31
0.0
  0
LINE
  5
51
100
AcDbEntity
100
AcDbLine
  8
FIN
 62
5
370
-1
  6
CONTINUOUS
 10
10.0
 20
131.0
 30
0.0
 11
200.0
 21
131.0
 31
0.0
  0
LINE
  5
52
100
AcDbEntity
100
AcDbLine
  8
FORT
 62
7
370
-1
  6
CONTINUOUS
 10
10.0
 20
287.0
 30
0.0
 11
200.0
 21
287.0
 31
0.0
  0
LINE
  5
53
100
AcDbEntity
100
AcDbLine
  8
FIN
 62
5
370
-1
  6
CONTINUOUS
 10
10.0
 20
149.0
 30
0.0
 11
200.0
 21
149.0
 31
0.0
  0
LINE
  5
54
100
AcDbEntity
100
AcDbLine
  8
FIN
 62
5
370
-1
  6
CONTINUOUS
 10
10.0
 20
194.0
 30
0.0
 11
200.0
 21
194.0
 31
0.0
  0
LINE
  5
55
100
AcDbEntity
100
AcDbLine
  8
FIN
 62
5
370
-1
  6
CONTINUOUS
 10
10.0
 20
185.0
 30
0.0
 11
200.0
 21
185.0
 31
0.0
  0
LINE
  5
56
100
AcDbEntity
100
AcDbLine
  8
FIN
 62
5
370
-1
  6
CONTINUOUS
 10
10.0
 20
176.0
 30
0.0
 11
200.0
 21
176.0
 31
0.0
  0
LINE
  5
57
100
AcDbEntity
100
AcDbLine
  8
FIN
 62
5
370
-1
  6
CONTINUOUS
 10
10.0
 20
167.0
 30
0.0
 11
200.0
 21
167.0
 31
0.0
  0
LINE
  5
58
100
AcDbEntity
100
AcDbLine
  8
FIN
 62
5
370
-1
  6
CONTINUOUS
 10
10.0
 20
158.0
 30
0.0
 11
200.0
 21
158.0
 31
0.0
  0
LINE
  5
59
100
AcDbEntity
100
AcDbLine
  8
FIN
 62
5
370
-1
  6
CONTINUOUS
 10
10.0
 20
203.0
 30
0.0
 11
200.0
 21
203.0
 31
0.0
  0
LINE
  5
5A
100
AcDbEntity
100
AcDbLine
  8
FIN
 62
5
370
-1
  6
CONTINUOUS
 10
40.0
 20
10.0
 30
0.0
 11
40.0
 21
41.0
 31
0.0
  0
LINE
  5
5B
100
AcDbEntity
100
AcDbLine
  8
FIN
 62
5
370
-1
  6
CONTINUOUS
 10
10.0
 20
20.5
 30
0.0
 11
200.0
 21
20.5
 31
0.0
  0
LINE
  5
5C
100
AcDbEntity
100
AcDbLine
  8
FORT
 62
7
370
-1
  6
CONTINUOUS
 10
200.0
 20
41.0
 30
0.0
 11
200.0
 21
287.0
 31
0.0
  0
LINE
  5
5D
100
AcDbEntity
100
AcDbLine
  8
FORT
 62
7
370
-1
  6
CONTINUOUS
 10
10.0
 20
41.0
 30
0.0
 11
10.0
 21
287.0
 31
0.0
  0
LINE
  5
5E
100
AcDbEntity
100
AcDbLine
  8
RENFORCE
 62
256
370
-1
  6
ByLayer
 10
10.0
 20
10.0
 30
0.0
 11
200.0
 21
10.0
 31
0.0
  0
LINE
  5
5F
100
AcDbEntity
100
AcDbLine
  8
RENFORCE
 62
256
370
-1
  6
ByLayer
 10
10.0
 20
10.0
 30
0.0
 11
10.0
 21
41.0
 31
0.0
  0
LINE
  5
60
100
AcDbEntity
100
AcDbLine
  8
RENFORCE
 62
256
370
-1
  6
ByLayer
 10
10.0
 20
41.0
 30
0.0
 11
200.0
 21
41.0
 31
0.0
  0
MTEXT
  5
61
100
AcDbEntity
100
AcDbMText
  8
TEXTE
 62
7
370
70
  6
CONTINUOUS
 10
21.0037869999999991
 20
11.9279770000000003
 30
0.0
 40
7.0
 41
100.0
 71
7
 72
2
  1
A4
  7
ISO9
 50
0.0
 73
0
 44
1.0
  0
LINE
  5
62
100
AcDbEntity
100
AcDbLine
  8
RENFORCE
 62
256
370
70
  6
ByLayer
 10
200.0
 20
10.0
 30
0.0
 11
200.0
 21
41.0
 31
0.0
  0
MTEXT
  5
63
100
AcDbEntity
100
AcDbMText
  8
TEXTE
 62
7
370
50
  6
CONTINUOUS
 10
12.0
 20
43.0
 30
0.0
 40
5.0
 41
100.0
 71
7
 72
2
  1
REP.
  7
ISO9
 50
0.0
 73
0
 44
1.0
  0
MTEXT
  5
64
100
AcDbEntity
100
AcDbMText
  8
TEXTE
 62
7
370
50
  6
CONTINUOUS
 10
57.4193939999999969
 20
43.1000000000000014
 30
0.0
 40
5.0
 41
100.0
 71
7
 72
2
  1
DESIGNATION
  7
ISO9
 50
0.0
 73
0
 44
1.0
  0
MTEXT
  5
65
100
AcDbEntity
100
AcDbMText
  8
TEXTE
 62
7
370
-1
  6
CONTINUOUS
 10
45.0
 20
115.0
 30
0.0
 40
3.5
 41
100.0
 71
7
 72
2
  1
Anneau\~elastique\~pour\~arbre
  7
ISO9
 50
0.0
 73
0
 44
1.0
  0
MTEXT
  5
66
100
AcDbEntity
100
AcDbMText
  8
TEXTE
 62
7
370
50
  6
CONTINUOUS
 10
30.4056892035398292
 20
43.0
 30
0.0
 40
5.0
 41
100.0
 71
7
 72
2
  1
NB.
  7
ISO9
 50
0.0
 73
0
 44
1.0
  0
MTEXT
  5
67
100
AcDbEntity
100
AcDbMText
  8
TEXTE
 62
7
370
-1
  6
CONTINUOUS
 10
32.4056892035398292
 20
52.0
 30
0.0
 40
3.5
 41
100.0
 71
7
 72
2
  1
1
  7
ISO9
 50
0.0
 73
0
 44
1.0
  0
MTEXT
  5
68
100
AcDbEntity
100
AcDbMText
  8
TEXTE
 62
7
370
-1
  6
CONTINUOUS
 10
32.4056892035398292
 20
61.0
 30
0.0
 40
3.5
 41
100.0
 71
7
 72
2
  1
1
  7
ISO9
 50
0.0
 73
0
 44
1.0
  0
MTEXT
  5
69
100
AcDbEntity
100
AcDbMText
  8
TEXTE
 62
7
370
-1
  6
CONTINUOUS
 10
32.4056892035398292
 20
70.0
 30
0.0
 40
3.5
 41
100.0
 71
7
 72
2
  1
1
  7
ISO9
 50
0.0
 73
0
 44
1.0
  0
MTEXT
  5
6A
100
AcDbEntity
100
AcDbMText
  8
TEXTE
 62
7
370
-1
  6
CONTINUOUS
 10
32.4056892035398292
 20
88.0
 30
0.0
 40
3.5
 41
100.0
 71
7
 72
2
  1
6
  7
ISO9
 50
0.0
 73
0
 44
1.0
  0
MTEXT
  5
6B
100
AcDbEntity
100
AcDbMText
  8
TEXTE
 62
7
370
-1
  6
CONTINUOUS
 10
32.4056892035398292
 20
97.0
 30
0.0
 40
3.5
 41
100.0
 71
7
 72
2
  1
1
  7
ISO9
 50
0.0
 73
0
 44
1.0
  0
MTEXT
  5
6C
100
AcDbEntity
100
AcDbMText
  8
TEXTE
 62
7
370
-1
  6
CONTINUOUS
 10
32.4056892035398292
 20
106.0
 30
0.0
 40
3.5
 41
100.0
 71
7
 72
2
  1
1
  7
ISO9
 50
0.0
 73
0
 44
1.0
  0
MTEXT
  5
6D
100
AcDbEntity
100
AcDbMText
  8
TEXTE
 62
7
370
-1
  6
CONTINUOUS
 10
32.4056892035398292
 20
115.0
 30
0.0
 40
3.5
 41
100.0
 71
7
 72
2
  1
1
  7
ISO9
 50
0.0
 73
0
 44
1.0
  0
MTEXT
  5
6E
100
AcDbEntity
100
AcDbMText
  8
TEXTE
 62
7
370
-1
  6
CONTINUOUS
 10
32.4056892035398292
 20
124.0
 30
0.0
 40
3.5
 41
100.0
 71
7
 72
2
  1
1
  7
ISO9
 50
0.0
 73
0
 44
1.0
  0
MTEXT
  5
6F
100
AcDbEntity
100
AcDbMText
  8
TEXTE
 62
7
370
-1
  6
CONTINUOUS
 10
32.4056892035398292
 20
133.0
 30
0.0
 40
3.5
 41
100.0
 71
7
 72
2
  1
1
  7
ISO9
 50
0.0
 73
0
 44
1.0
  0
MTEXT
  5
70
100
AcDbEntity
100
AcDbMText
  8
TEXTE
 62
7
370
-1
  6
CONTINUOUS
 10
32.4056892035398292
 20
142.0
 30
0.0
 40
3.5
 41
100.0
 71
7
 72
2
  1
1
  7
ISO9
 50
0.0
 73
0
 44
1.0
  0
MTEXT
  5
71
100
AcDbEntity
100
AcDbMText
  8
TEXTE
 62
7
370
-1
  6
CONTINUOUS
 10
32.4056892035398292
 20
151.0
 30
0.0
 40
3.5
 41
100.0
 71
7
 72
2
  1
1
  7
ISO9
 50
0.0
 73
0
 44
1.0
  0
MTEXT
  5
72
100
AcDbEntity
100
AcDbMText
  8
TEXTE
 62
7
370
-1
  6
CONTINUOUS
 10
32.4056892035398292
 20
160.0
 30
0.0
 40
3.5
 41
100.0
 71
7
 72
2
  1
1
  7
ISO9
 50
0.0
 73
0
 44
1.0
  0
MTEXT
  5
73
100
AcDbEntity
100
AcDbMText
  8
TEXTE
 62
7
370
-1
  6
CONTINUOUS
 10
32.4056892035398292
 20
169.0
 30
0.0
 40
3.5
 41
100.0
 71
7
 72
2
  1
1
  7
ISO9
 50
0.0
 73
0
 44
1.0
  0
MTEXT
  5
74
100
AcDbEntity
100
AcDbMText
  8
TEXTE
 62
7
370
-1
  6
CONTINUOUS
 10
32.4056892035398292
 20
178.0
 30
0.0
 40
3.5
 41
100.0
 71
7
 72
2
  1
1
  7
ISO9
 50
0.0
 73
0
 44
1.0
  0
MTEXT
  5
75
100
AcDbEntity
100
AcDbMText
  8
TEXTE
 62
7
370
-1
  6
CONTINUOUS
 10
32.4056892035398292
 20
187.0
 30
0.0
 40
3.5
 41
100.0
 71
7
 72
2
  1
1
  7
ISO9
 50
0.0
 73
0
 44
1.0
  0
MTEXT
  5
76
100
AcDbEntity
100
AcDbMText
  8
TEXTE
 62
7
370
-1
  6
CONTINUOUS
 10
32.4056892035398292
 20
196.0
 30
0.0
 40
3.5
 41
100.0
 71
7
 72
2
  1
1
  7
ISO9
 50
0.0
 73
0
 44
1.0
  0
MTEXT
  5
77
100
AcDbEntity
100
AcDbMText
  8
TEXTE
 62
7
370
-1
  6
CONTINUOUS
 10
32.4056892035398292
 20
205.0
 30
0.0
 40
3.5
 41
100.0
 71
7
 72
2
  1
1
  7
ISO9
 50
0.0
 73
0
 44
1.0
  0
MTEXT
  5
78
100
AcDbEntity
100
AcDbMText
  8
TEXTE
 62
7
370
-1
  6
CONTINUOUS
 10
44.7606312099114874
 20
52.0
 30
0.0
 40
3.5
 41
100.0
 71
7
 72
2
  1
Corps
  7
ISO9
 50
0.0
 73
0
 44
1.0
  0
MTEXT
  5
79
100
AcDbEntity
100
AcDbMText
  8
TEXTE
 62
7
370
-1
  6
CONTINUOUS
 10
44.7606312099114874
 20
70.0
 30
0.0
 40
3.5
 41
100.0
 71
7
 72
2
  1
Flasque
  7
ISO9
 50
0.0
 73
0
 44
1.0
  0
MTEXT
  5
7A
100
AcDbEntity
100
AcDbMText
  8
TEXTE
 62
7
370
-1
  6
CONTINUOUS
 10
44.7606312099114874
 20
79.0
 30
0.0
 40
3.5
 41
100.0
 71
7
 72
2
  1
Vis\~C\~HC,\~M5-16
  7
ISO9
 50
0.0
 73
0
 44
1.0
  0
MTEXT
  5
7B
100
AcDbEntity
100
AcDbMText
  8
TEXTE
 62
7
370
-1
  6
CONTINUOUS
 10
44.7606312099114874
 20
88.0
 30
0.0
 40
3.5
 41
100.0
 71
7
 72
2
  1
Vis\~C\~HC,\~M6-20
  7
ISO9
 50
0.0
 73
0
 44
1.0
  0
MTEXT
  5
7C
100
AcDbEntity
100
AcDbMText
  8
TEXTE
 62
7
370
-1
  6
CONTINUOUS
 10
44.7606312099114874
 20
97.0
 30
0.0
 40
3.5
 41
100.0
 71
7
 72
2
  1
Pignon
  7
ISO9
 50
0.0
 73
0
 44
1.0
  0
MTEXT
  5
7D
100
AcDbEntity
100
AcDbMText
  8
TEXTE
 62
7
370
-1
  6
CONTINUOUS
 10
44.7606312099114874
 20
106.0
 30
0.0
 40
3.5
 41
100.0
 71
7
 72
2
  1
Clavette\~du\~pignon
  7
ISO9
 50
0.0
 73
0
 44
1.0
  0
MTEXT
  5
7E
100
AcDbEntity
100
AcDbMText
  8
TEXTE
 62
7
370
-1
  6
CONTINUOUS
 10
44.7606312099114874
 20
124.0
 30
0.0
 40
3.5
 41
100.0
 71
7
 72
2
  1
Axe
  7
ISO9
 50
0.0
 73
0
 44
1.0
  0
MTEXT
  5
7F
100
AcDbEntity
100
AcDbMText
  8
TEXTE
 62
7
370
-1
  6
CONTINUOUS
 10
44.7606312099114874
 20
133.0
 30
0.0
 40
3.5
 41
100.0
 71
7
 72
2
  1
Roulement\~15\~BC\~02
  7
ISO9
 50
0.0
 73
0
 44
1.0
  0
MTEXT
  5
80
100
AcDbEntity
100
AcDbMText
  8
TEXTE
 62
7
370
-1
  6
CONTINUOUS
 10
44.7606312099114874
 20
142.0
 30
0.0
 40
3.5
 41
100.0
 71
7
 72
2
  1
Roulement\~20\~BC\~10
  7
ISO9
 50
0.0
 73
0
 44
1.0
  0
MTEXT
  5
81
100
AcDbEntity
100
AcDbMText
  8
TEXTE
 62
7
370
-1
  6
CONTINUOUS
 10
44.7606312099114874
 20
151.0
 30
0.0
 40
3.5
 41
100.0
 71
7
 72
2
  1
Circlips\~13x1,3
  7
ISO9
 50
0.0
 73
0
 44
1.0
  0
MTEXT
  5
82
100
AcDbEntity
100
AcDbMText
  8
TEXTE
 62
7
370
-1
  6
CONTINUOUS
 10
44.7606312099114874
 20
160.0
 30
0.0
 40
3.5
 41
100.0
 71
7
 72
2
  1
Chapeau
  7
ISO9
 50
0.0
 73
0
 44
1.0
  0
MTEXT
  5
83
100
AcDbEntity
100
AcDbMText
  8
TEXTE
 62
7
370
-1
  6
CONTINUOUS
 10
44.7606312099114874
 20
169.0
 30
0.0
 40
3.5
 41
100.0
 71
7
 72
2
  1
Cale
  7
ISO9
 50
0.0
 73
0
 44
1.0
  0
MTEXT
  5
84
100
AcDbEntity
100
AcDbMText
  8
TEXTE
 62
7
370
-1
  6
CONTINUOUS
 10
44.7606312099114874
 20
187.0
 30
0.0
 40
3.5
 41
100.0
 71
7
 72
2
  1
Clavette
  7
ISO9
 50
0.0
 73
0
 44
1.0
  0
MTEXT
  5
85
100
AcDbEntity
100
AcDbMText
  8
TEXTE
 62
7
370
-1
  6
CONTINUOUS
 10
44.7606312099114874
 20
205.0
 30
0.0
 40
3.5
 41
100.0
 71
7
 72
2
  1
Rondelle\~frein
  7
ISO9
 50
0.0
 73
0
 44
1.0
  0
MTEXT
  5
86
100
AcDbEntity
100
AcDbMText
  8
TEXTE
 62
7
370
-1
  6
CONTINUOUS
 10
44.7606312099114874
 20
61.0
 30
0.0
 40
3.5
 41
100.0
 71
7
 72
2
  1
Moteur\~electrique
  7
ISO9
 50
0.0
 73
0
 44
1.0
  0
LINE
  5
87
100
AcDbEntity
100
AcDbLine
  8
TEXTE
 62
256
370
35
  6
ByLayer
 10
63.9543667064209629
 20
63.9268787389203794
 30
0.0
 11
65.0914307916168582
 21
64.6428079777474522
 31
0.0
  0
LINE
  5
88
100
AcDbEntity
100
AcDbLine
  8
TEXTE
 62
256
370
35
  6
ByLayer
 10
64.7321444841987557
 20
117.9268787389203794
 30
0.0
 11
65.8692085693946581
 21
118.6428079777474522
 31
0.0
  0
MTEXT
  5
89
100
AcDbEntity
100
AcDbMText
  8
TEXTE
 62
7
370
-1
  6
CONTINUOUS
 10
45.0403102099114889
 20
177.8652850000000001
 30
0.0
 40
3.5
 41
100.0
 71
7
 72
2
  1
Roue\~dentee
  7
ISO9
 50
0.0
 73
0
 44
1.0
  0
LINE
  5
8A
100
AcDbEntity
100
AcDbLine
  8
TEXTE
 62
256
370
35
  6
ByLayer
 10
69.6784901508654286
 20
180.7921637389203795
 30
0.0
 11
70.815554236061331
 21
181.5080929777474523
 31
0.0
  0
MTEXT
  5
8B
100
AcDbEntity
100
AcDbMText
  8
TEXTE
 62
7
370
-1
  6
CONTINUOUS
 10
44.7606312099114874
 20
196.0
 30
0.0
 40
3.5
 41
100.0
 71
7
 72
2
  1
Ecrou\~a\~encoches
  7
ISO9
 50
0.0
 73
0
 44
1.0
  0
LINE
  5
8C
100
AcDbEntity
100
AcDbLine
  8
TEXTE
 62
256
370
35
  6
ByLayer
 10
61.7652767704293169
 20
198.9268787389203794
 30
0.0
 11
60.6282126852334144
 21
199.6428079777474522
 31
0.0
  0
MTEXT
  5
8D
100
AcDbEntity
100
AcDbMText
  8
TEXTE
 62
7
370
-1
  6
CONTINUOUS
 10
31.1899834540177032
 20
79.0
 30
0.0
 40
3.5
 41
100.0
 71
7
 72
2
  1
12
  7
ISO9
 50
0.0
 73
0
 44
1.0
  0
MTEXT
  5
8E
100
AcDbEntity
100
AcDbMText
  8
TEXTE
 62
7
370
-1
  6
CONTINUOUS
 10
157.7823296187610254
 20
97.0
 30
0.0
 40
3.5
 41
100.0
 71
7
 72
2
  1
m\~=\~2
  7
ISO9
 50
0.0
 73
0
 44
1.0
  0
MTEXT
  5
8F
100
AcDbEntity
100
AcDbMText
  8
TEXTE
 62
7
370
-1
  6
CONTINUOUS
 10
157.7823296187610254
 20
106.0
 30
0.0
 40
3.5
 41
100.0
 71
7
 72
2
  1
Forme\~A,\~4x4x16
  7
ISO9
 50
0.0
 73
0
 44
1.0
  0
MTEXT
  5
90
100
AcDbEntity
100
AcDbMText
  8
TEXTE
 62
7
370
-1
  6
CONTINUOUS
 10
157.7823296187610254
 20
187.0
 30
0.0
 40
3.5
 41
100.0
 71
7
 72
2
  1
Forme\~A,\~6x6x20
  7
ISO9
 50
0.0
 73
0
 44
1.0
  0
MTEXT
  5
91
100
AcDbEntity
100
AcDbMText
  8
TEXTE
 62
7
370
-1
  6
CONTINUOUS
 10
157.7823296187610254
 20
196.0
 30
0.0
 40
3.5
 41
100.0
 71
7
 72
2
  1
KM,\~M20
  7
ISO9
 50
0.0
 73
0
 44
1.0
  0
MTEXT
  5
92
100
AcDbEntity
100
AcDbMText
  8
TEXTE
 62
7
370
-1
  6
CONTINUOUS
 10
157.7823296187610254
 20
205.0
 30
0.0
 40
3.5
 41
100.0
 71
7
 72
2
  1
MB\~20
  7
ISO9
 50
0.0
 73
0
 44
1.0
  0
MTEXT
  5
93
100
AcDbEntity
100
AcDbMText
  8
TEXTE
 62
7
370
-1
  6
CONTINUOUS
 10
157.7823296187610254
 20
115.0
 30
0.0
 40
3.5
 41
100.0
 71
7
 72
2
  1
11x1,2
  7
ISO9
 50
0.0
 73
0
 44
1.0
  0
MTEXT
  5
94
100
AcDbEntity
100
AcDbMText
  8
TEXTE
 62
7
370
50
  6
CONTINUOUS
 10
170.3294707433628048
 20
43.0
 30
0.0
 40
5.0
 41
100.0
 71
7
 72
2
  1
OBS.
  7
ISO9
 50
0.0
 73
0
 44
1.0
  0
MTEXT
  5
95
100
AcDbEntity
100
AcDbMText
  8
TEXTE
 62
7
370
70
  6
CONTINUOUS
 10
76.9854806991150724
 20
27.0
 30
0.0
 40
7.0
 41
100.0
 71
7
 72
2
  1
MOTO-REDUCTEUR
  7
ISO9
 50
0.0
 73
0
 44
1.0
  0
MTEXT
  5
96
100
AcDbEntity
100
AcDbMText
  8
TEXTE
 62
7
370
50
  6
CONTINUOUS
 10
99.7811912831858479
 20
12.6947080000000003
 30
0.0
 40
5.0
 41
100.0
 71
7
 72
2
  1
Nomenclature
  7
ISO9
 50
0.0
 73
0
 44
1.0
  0
LINE
  5
97
100
AcDbEntity
100
AcDbLine
  8
FIN
 62
256
370
-1
  6
ByLayer
 10
10.0
 20
50.0
 30
0.0
 11
200.0
 21
50.0
 31
0.0
  0
LINE
  5
98
100
AcDbEntity
100
AcDbLine
  8
FIN
 62
256
370
-1
  6
ByLayer
 10
41.4056892035398292
 20
41.0
 30
0.0
 11
41.4056892035398292
 21
212.0
 31
0.0
  0
LINE
  5
99
100
AcDbEntity
100
AcDbLine
  8
FIN
 62
256
370
-1
  6
ByLayer
 10
26.4056892035398292
 20
41.0
 30
0.0
 11
26.4056892035398292
 21
212.0
 31
0.0
  0
LINE
  5
9A
100
AcDbEntity
100
AcDbLine
  8
FIN
 62
256
370
-1
  6
ByLayer
 10
155.4592366123893612
 20
41.0
 30
0.0
 11
155.4592366123893612
 21
212.0
 31
0.0
  0
MTEXT
  5
9B
100
AcDbEntity
100
AcDbMText
  8
TEXTE
 62
7
370
-1
  6
CONTINUOUS
 10
157.7823296187610254
 20
178.0
 30
0.0
 40
3.5
 41
100.0
 71
7
 72
2
  1
m\~=\~2
  7
ISO9
 50
0.0
 73
0
 44
1.0
  0
MTEXT
  5
9C
100
AcDbEntity
100
AcDbMText
  8
TEXTE
 62
7
370
-1
  6
CONTINUOUS
 10
16.9413097345132968
 20
52.0
 30
0.0
 40
3.5
 41
100.0
 71
7
 72
2
  1
1
  7
ISO9
 50
0.0
 73
0
 44
1.0
  0
MTEXT
  5
9D
100
AcDbEntity
100
AcDbMText
  8
TEXTE
 62
7
370
-1
  6
CONTINUOUS
 10
16.9413097345132968
 20
61.0
 30
0.0
 40
3.5
 41
100.0
 71
7
 72
2
  1
2
  7
ISO9
 50
0.0
 73
0
 44
1.0
  0
MTEXT
  5
9E
100
AcDbEntity
100
AcDbMText
  8
TEXTE
 62
7
370
-1
  6
CONTINUOUS
 10
16.9413097345132968
 20
70.0
 30
0.0
 40
3.5
 41
100.0
 71
7
 72
2
  1
3
  7
ISO9
 50
0.0
 73
0
 44
1.0
  0
MTEXT
  5
9F
100
AcDbEntity
100
AcDbMText
  8
TEXTE
 62
7
370
-1
  6
CONTINUOUS
 10
16.9413097345132968
 20
79.0
 30
0.0
 40
3.5
 41
100.0
 71
7
 72
2
  1
4
  7
ISO9
 50
0.0
 73
0
 44
1.0
  0
MTEXT
  5
A0
100
AcDbEntity
100
AcDbMText
  8
TEXTE
 62
7
370
-1
  6
CONTINUOUS
 10
16.9413097345132968
 20
88.0
 30
0.0
 40
3.5
 41
100.0
 71
7
 72
2
  1
5
  7
ISO9
 50
0.0
 73
0
 44
1.0
  0
MTEXT
  5
A1
100
AcDbEntity
100
AcDbMText
  8
TEXTE
 62
7
370
-1
  6
CONTINUOUS
 10
16.9413097345132968
 20
97.0
 30
0.0
 40
3.5
 41
100.0
 71
7
 72
2
  1
6
  7
ISO9
 50
0.0
 73
0
 44
1.0
  0
MTEXT
  5
A2
100
AcDbEntity
100
AcDbMText
  8
TEXTE
 62
7
370
-1
  6
CONTINUOUS
 10
16.9413097345132968
 20
106.0
 30
0.0
 40
3.5
 41
100.0
 71
7
 72
2
  1
7
  7
ISO9
 50
0.0
 73
0
 44
1.0
  0
MTEXT
  5
A3
100
AcDbEntity
100
AcDbMText
  8
TEXTE
 62
7
370
-1
  6
CONTINUOUS
 10
16.9413097345132968
 20
115.0
 30
0.0
 40
3.5
 41
100.0
 71
7
 72
2
  1
8
  7
ISO9
 50
0.0
 73
0
 44
1.0
  0
MTEXT
  5
A4
100
AcDbEntity
100
AcDbMText
  8
TEXTE
 62
7
370
-1
  6
CONTINUOUS
 10
16.9413097345132968
 20
124.0
 30
0.0
 40
3.5
 41
100.0
 71
7
 72
2
  1
9
  7
ISO9
 50
0.0
 73
0
 44
1.0
  0
MTEXT
  5
A5
100
AcDbEntity
100
AcDbMText
  8
TEXTE
 62
7
370
-1
  6
CONTINUOUS
 10
15.5993329319646268
 20
133.0
 30
0.0
 40
3.5
 41
100.0
 71
7
 72
2
  1
10
  7
ISO9
 50
0.0
 73
0
 44
1.0
  0
MTEXT
  5
A6
100
AcDbEntity
100
AcDbMText
  8
TEXTE
 62
7
370
-1
  6
CONTINUOUS
 10
15.5993329319646268
 20
142.0
 30
0.0
 40
3.5
 41
100.0
 71
7
 72
2
  1
11
  7
ISO9
 50
0.0
 73
0
 44
1.0
  0
MTEXT
  5
A7
100
AcDbEntity
100
AcDbMText
  8
TEXTE
 62
7
370
-1
  6
CONTINUOUS
 10
15.5993329319646268
 20
151.0
 30
0.0
 40
3.5
 41
100.0
 71
7
 72
2
  1
12
  7
ISO9
 50
0.0
 73
0
 44
1.0
  0
MTEXT
  5
A8
100
AcDbEntity
100
AcDbMText
  8
TEXTE
 62
7
370
-1
  6
CONTINUOUS
 10
15.5993329319646268
 20
160.0
 30
0.0
 40
3.5
 41
100.0
 71
7
 72
2
  1
13
  7
ISO9
 50
0.0
 73
0
 44
1.0
  0
MTEXT
  5
A9
100
AcDbEntity
100
AcDbMText
  8
TEXTE
 62
7
370
-1
  6
CONTINUOUS
 10
15.5993329319646268
 20
169.0
 30
0.0
 40
3.5
 41
100.0
 71
7
 72
2
  1
14
  7
ISO9
 50
0.0
 73
0
 44
1.0
  0
MTEXT
  5
AA
100
AcDbEntity
100
AcDbMText
  8
TEXTE
 62
7
370
-1
  6
CONTINUOUS
 10
15.5993329319646268
 20
178.0
 30
0.0
 40
3.5
 41
100.0
 71
7
 72
2
  1
15
  7
ISO9
 50
0.0
 73
0
 44
1.0
  0
MTEXT
  5
AB
100
AcDbEntity
100
AcDbMText
  8
TEXTE
 62
7
370
-1
  6
CONTINUOUS
 10
15.5993329319646268
 20
187.0
 30
0.0
 40
3.5
 41
100.0
 71
7
 72
2
  1
16
  7
ISO9
 50
0.0
 73
0
 44
1.0
  0
MTEXT
  5
AC
100
AcDbEntity
100
AcDbMText
  8
TEXTE
 62
7
370
-1
  6
CONTINUOUS
 10
15.5993329319646268
 20
196.0
 30
0.0
 40
3.5
 41
100.0
 71
7
 72
2
  1
17
  7
ISO9
 50
0.0
 73
0
 44
1.0
  0
MTEXT
  5
AD
100
AcDbEntity
100
AcDbMText
  8
TEXTE
 62
7
370
-1
  6
CONTINUOUS
 10
15.5993329319646268
 20
205.0
 30
0.0
 40
3.5
 41
100.0
 71
7
 72
2
  1
18
  7
ISO9
 50
0.0
 73
0
 44
1.0
  0
MTEXT
  5
AE
100
AcDbEntity
100
AcDbMText
  8
TEXTE
 62
7
370
-1
  6
CONTINUOUS
 10
122.0757866700884477
 20
70.0
 30
0.0
 40
3.5
 41
100.0
 71
7
 72
2
  1
S\~235
  7
ISO9
 50
0.0
 73
0
 44
1.0
  0
MTEXT
  5
AF
100
AcDbEntity
100
AcDbMText
  8
TEXTE
 62
7
370
-1
  6
CONTINUOUS
 10
121.0757866700884477
 20
97.0
 30
0.0
 40
3.5
 41
100.0
 71
7
 72
2
  1
35\~Cr\~Mo\~4
  7
ISO9
 50
0.0
 73
0
 44
1.0
  0
MTEXT
  5
B0
100
AcDbEntity
100
AcDbMText
  8
TEXTE
 62
7
370
-1
  6
CONTINUOUS
 10
121.0757866700884477
 20
106.0
 30
0.0
 40
3.5
 41
100.0
 71
7
 72
2
  1
C\~40
  7
ISO9
 50
0.0
 73
0
 44
1.0
  0
MTEXT
  5
B1
100
AcDbEntity
100
AcDbMText
  8
TEXTE
 62
7
370
-1
  6
CONTINUOUS
 10
121.0757866700884477
 20
124.0
 30
0.0
 40
3.5
 41
100.0
 71
7
 72
2
  1
S\~235
  7
ISO9
 50
0.0
 73
0
 44
1.0
  0
MTEXT
  5
B2
100
AcDbEntity
100
AcDbMText
  8
TEXTE
 62
7
370
-1
  6
CONTINUOUS
 10
121.0757866700884477
 20
160.0
 30
0.0
 40
3.5
 41
100.0
 71
7
 72
2
  1
S\~235
  7
ISO9
 50
0.0
 73
0
 44
1.0
  0
MTEXT
  5
B3
100
AcDbEntity
100
AcDbMText
  8
TEXTE
 62
7
370
-1
  6
CONTINUOUS
 10
121.0757866700884477
 20
169.0
 30
0.0
 40
3.5
 41
100.0
 71
7
 72
2
  1
S\~235
  7
ISO9
 50
0.0
 73
0
 44
1.0
  0
MTEXT
  5
B4
100
AcDbEntity
100
AcDbMText
  8
TEXTE
 62
7
370
-1
  6
CONTINUOUS
 10
121.0757866700884477
 20
178.0
 30
0.0
 40
3.5
 41
100.0
 71
7
 72
2
  1
35\~Cr\~Mo\~4
  7
ISO9
 50
0.0
 73
0
 44
1.0
  0
MTEXT
  5
B5
100
AcDbEntity
100
AcDbMText
  8
TEXTE
 62
7
370
-1
  6
CONTINUOUS
 10
121.0757866700884477
 20
187.0
 30
0.0
 40
3.5
 41
100.0
 71
7
 72
2
  1
C\~40
  7
ISO9
 50
0.0
 73
0
 44
1.0
  0
MTEXT
  5
B6
100
AcDbEntity
100
AcDbMText
  8
TEXTE
 62
7
370
-1
  6
CONTINUOUS
 10
122.0757866700884477
 20
52.0
 30
0.0
 40
3.5
 41
100.0
 71
7
 72
2
  1
EN\~AB-43000
  7
ISO9
 50
0.0
 73
0
 44
1.0
  0
MTEXT
  5
B7
100
AcDbEntity
100
AcDbMText
  8
TEXTE
 62
7
370
50
  6
CONTINUOUS
 10
123.4435806920353969
 20
43.0
 30
0.0
 40
5.0
 41
100.0
 71
7
 72
2
  1
MATIERE
  7
ISO9
 50
0.0
 73
0
 44
1.0
  0
LINE
  5
B8
100
AcDbEntity
100
AcDbLine
  8
FIN
 62
256
370
-1
  6
ByLayer
 10
118.7208446637167896
 20
41.0
 30
0.0
 11
118.7208446637167896
 21
212.0
 31
0.0
  0
ENDSEC
  0
SECTION
  2
OBJECTS
  0
DICTIONARY
  5
C
100
AcDbDictionary
280
0
281
1
  3
ACAD_GROUP
350
D
  3
ACAD_LAYOUT
350
1A
  3
ACAD_MLINESTYLE
350
17
  3
ACAD_PLOTSETTINGS
350
19
  3
ACAD_PLOTSTYLENAME
350
E
  3
AcDbVariableDictionary
350
B9
  0
DICTIONARY
  5
D
100
AcDbDictionary
280
0
281
1
  0
ACDBDICTIONARYWDFLT
  5
E
100
AcDbDictionary
281
1
  3
Normal
350
F
100
AcDbDictionaryWithDefault
340
F
  0
ACDBPLACEHOLDER
  5
F
  0
DICTIONARY
  5
17
100
AcDbDictionary
280
0
281
1
  3
Standard
350
18
  0
MLINESTYLE
  5
18
100
AcDbMlineStyle
  2
STANDARD
 70
0
  3

 62
256
 51
90.0
 52
90.0
 71
2
 49
0.5
 62
256
  6
BYLAYER
 49
-0.5
 62
256
  6
BYLAYER
  0
DICTIONARY
  5
19
100
AcDbDictionary
280
0
281
1
  0
DICTIONARY
  5
1A
100
AcDbDictionary
281
1
  3
Layout1
350
1E
  3
Layout2
350
26
  3
Model
350
22
  0
LAYOUT
  5
1E
100
AcDbPlotSettings
  1

  2
C:\Program Files\AutoCAD 2002\plotters\DWF ePlot (optimized for plotting).pc3
  4

  6

 40
0.0
 41
0.0
 42
0.0
 43
0.0
 44
0.0
 45
0.0
 46
0.0
 47
0.0
 48
0.0
 49
0.0
140
0.0
141
0.0
142
1.0
143
1.0
 70
688
 72
0
 73
0
 74
5
  7

 75
16
147
1.0
148
0.0
149
0.0
100
AcDbLayout
  1
Layout1
 70
1
 71
1
 10
0.0
 20
0.0
 11
420.0
 21
297.0
 12
0.0
 22
0.0
 32
0.0
 14
100000000000000000000.0
 24
100000000000000000000.0
 34
100000000000000000000.0
 15
-100000000000000000000.0
 25
-100000000000000000000.0
 35
-100000000000000000000.0
146
0.0
 13
0.0
 23
0.0
 33
0.0
 16
1.0
 26
0.0
 36
0.0
 17
0.0
 27
1.0
 37
0.0
 76
0
330
1B
  0
LAYOUT
  5
22
100
AcDbPlotSettings
  1

  2
C:\Program Files\AutoCAD 2002\plotters\DWF ePlot (optimized for plotting).pc3
  4

  6

 40
0.0
 41
0.0
 42
0.0
 43
0.0
 44
0.0
 45
0.0
 46
0.0
 47
0.0
 48
0.0
 49
0.0
140
0.0
141
0.0
142
1.0
143
1.0
 70
1712
 72
0
 73
0
 74
0
  7

 75
0
147
1.0
148
0.0
149
0.0
100
AcDbLayout
  1
Model
 70
1
 71
0
 10
0.0
 20
0.0
 11
12.0
 21
9.0
 12
0.0
 22
0.0
 32
0.0
 14
0.0
 24
0.0
 34
0.0
 15
0.0
 25
0.0
 35
0.0
146
0.0
 13
0.0
 23
0.0
 33
0.0
 16
1.0
 26
0.0
 36
0.0
 17
0.0
 27
1.0
 37
0.0
 76
0
330
1F
  0
LAYOUT
  5
26
100
AcDbPlotSettings
  1

  2
C:\Program Files\AutoCAD 2002\plotters\DWF ePlot (optimized for plotting).pc3
  4

  6

 40
0.0
 41
0.0
 42
0.0
 43
0.0
 44
0.0
 45
0.0
 46
0.0
 47
0.0
 48
0.0
 49
0.0
140
0.0
141
0.0
142
1.0
143
1.0
 70
688
 72
0
 73
0
 74
5
  7

 75
16
147
1.0
148
0.0
149
0.0
100
AcDbLayout
  1
Layout2
 70
1
 71
2
 10
0.0
 20
0.0
 11
12.0
 21
9.0
 12
0.0
 22
0.0
 32
0.0
 14
0.0
 24
0.0
 34
0.0
 15
0.0
 25
0.0
 35
0.0
146
0.0
 13
0.0
 23
0.0
 33
0.0
 16
1.0
 26
0.0
 36
0.0
 17
0.0
 27
1.0
 37
0.0
 76
0
330
23
  0
DICTIONARY
  5
B9
100
AcDbDictionary
281
1
  3
DIMASSOC
350
BB
  3
HIDETEXT
350
BA
  0
DICTIONARYVAR
  5
BA
100
DictionaryVariables
280
0
  1
2
  0
DICTIONARYVAR
  5
BB
100
DictionaryVariables
280
0
  1
1
  0
ENDSEC
  0
EOF
