999
dxflib 2.0.4.8
  0
SECTION
  2
HEADER
  9
$ACADVER
  1
AC1015
  9
$HANDSEED
  5
FFFF
  9
$USERR4
 40
0.0
  9
$AXISUNIT
 10
0.0
 20
0.0
 30
0.0
  9
$DIMTAD
 70
0
  9
$USERR5
 40
0.0
  9
$ATTREQ
 70
1
  9
$CHAMFERA
 40
10.0
  9
$VIEWDIR
 10
0.0
 20
0.0
 30
1.0
  9
$MENU
  1
acad
  9
$CLAYER
  8
FORT
  9
$SNAPBASE
 10
0.0
 20
0.0
 30
0.0
  9
$VIEWSIZE
 40
9.0
  9
$DIMASZ
 40
0.18
  9
$GRIDUNIT
 10
0.0
 20
0.0
  9
$DIMADEC
 70
0
  9
$CHAMFERB
 40
10.0
  9
$TRACEWID
 40
0.05
  9
$REGENMODE
 70
1
  9
$ORTHOMODE
 70
0
  9
$EXTMIN
 10
0.0
 20
0.0
 30
0.0
  9
$DIMGAP
 40
0.625
  9
$ANGBASE
 50
0.0
  9
$USRTIMER
 70
1
  9
$SKETCHINC
 40
0.1
  9
$DIMALT
 70
0
  9
$DIMSHO
 70
1
  9
$SNAPSTYLE
 70
0
  9
$SPLFRAME
 70
0
  9
$AXISMODE
 70
0
  9
$DIMTSZ
 40
0.0
  9
$LIMMIN
 10
0.0
 20
-4.592784
  9
$SPLINESEGS
 70
10
  9
$AUPREC
 70
0
  9
$LUNITS
 70
2
  9
$BLIPMODE
 70
1
  9
$USERI1
 70
0
  9
$SKPOLY
 70
0
  9
$ELEVATION
 40
0.0
  9
$DIMCEN
 40
0.09
  9
$DIMRND
 40
0.0
  9
$INSBASE
 10
0.0
 20
0.0
 30
0.0
  9
$DIMEXO
 40
0.0625
  9
$INSUNITS
 70
4
  9
$USERI2
 70
0
  9
$TEXTSIZE
 40
0.2
  9
$DRAGMODE
 70
2
  9
$FILLMODE
 70
1
  9
$EXTMAX
 10
210.0
 20
297.0
 30
0.0
  9
$USERI3
 70
0
  9
$ANGDIR
 70
0
  9
$TDUSRTIMER
 40
0.0
  9
$DIMZIN
 70
0
  9
$DIMDLE
 40
0.0
  9
$DIMSCALE
 40
1.0
  9
$VIEWCTR
 10
6.0
 20
4.5
  9
$DIMLUNIT
 70
2
  9
$USERI4
 70
0
  9
$OSMODE
 70
0
  9
$QTEXTMODE
 70
0
  9
$LIMMAX
 10
490.6569349999999758
 20
301.5927839999999946
  9
$DIMTXT
 40
0.18
  9
$GRIDMODE
 70
1
  9
$USERI5
 70
0
  9
$PDMODE
 70
0
  9
$FASTZOOM
 70
1
  9
$LIMCHECK
 70
0
  9
$THICKNESS
 40
0.0
  9
$DIMSE1
 70
0
  9
$DIMLIM
 70
0
  9
$ATTMODE
 70
1
  9
$LUPREC
 70
4
  9
$TDINDWG
 40
0.0
  9
$DIMLFAC
 40
1.0
  9
$DIMSE2
 70
0
  9
$DIMTOH
 70
1
  9
$CELTYPE
  6
CONTINUOUS
  9
$DIMSTYLE
  2
Standard
  9
$PLINEWID
 40
0.0
  9
$DIMASO
 70
1
  9
$DIMTM
 40
0.0
  9
$DIMDLI
 40
0.38
  9
$CECOLOR
 62
5
  9
$SNAPANG
 50
0.0
  9
$SNAPMODE
 70
0
  9
$PLIMMAX
 10
420.0
 20
297.0
  9
$PLIMMIN
 10
0.0
 20
0.0
  9
$TDUPDATE
 40
0.0
  9
$FILLETRAD
 40
10.0
  9
$DIMALTD
 70
2
  9
$DIMTIH
 70
1
  9
$LTSCALE
 40
0.3
  9
$PINSBASE
 10
-1.5
 20
0.0
 30
0.0
  9
$DIMEXE
 40
0.18
  9
$USERR1
 40
0.0
  9
$ATTDIA
 70
0
  9
$PDSIZE
 40
0.0
  9
$DIMAUNIT
 70
0
  9
$USERR2
 40
0.0
  9
$COORDS
 70
2
  9
$TDCREATE
 40
0.0
  9
$DIMALTF
 40
25.3999999999999986
  9
$DIMTOL
 70
0
  9
$DIMTP
 40
0.0
  9
$TEXTSTYLE
  7
STANDARD
  9
$SNAPISOPAIR
 70
0
  9
$SNAPUNIT
 10
1.0
 20
1.0
 30
0.0
  9
$AUNITS
 70
0
  9
$USERR3
 40
0.0
  0
ENDSEC
  0
SECTION
  2
TABLES
  0
TABLE
  2
VPORT
  5
8
100
AcDbSymbolTable
 70
1
  0
VPORT
  5
30
100
AcDbSymbolTableRecord
100
AcDbViewportTableRecord
  2
*Active
 70
0
 10
0.0
 20
0.0
 11
1.0
 21
1.0
 12
286.3055555555554861
 22
148.5
 13
0.0
 23
0.0
 14
10.0
 24
10.0
 15
10.0
 25
10.0
 16
0.0
 26
0.0
 36
1.0
 17
0.0
 27
0.0
 37
0.0
 40
297.0
 41
1.92798353909465
 42
50.0
 43
0.0
 44
0.0
 50
0.0
 51
0.0
 71
0
 72
100
 73
1
 74
3
 75
1
 76
1
 77
0
 78
0
281
0
 65
1
110
0.0
120
0.0
130
0.0
111
1.0
121
0.0
131
0.0
112
0.0
122
1.0
132
0.0
 79
0
146
0.0
  0
ENDTAB
  0
TABLE
  2
LTYPE
  5
5
100
AcDbSymbolTable
 70
21
  0
LTYPE
  5
14
100
AcDbSymbolTableRecord
100
AcDbLinetypeTableRecord
  2
ByBlock
 70
0
  3

 72
65
 73
0
 40
0.0
  0
LTYPE
  5
15
100
AcDbSymbolTableRecord
100
AcDbLinetypeTableRecord
  2
ByLayer
 70
0
  3

 72
65
 73
0
 40
0.0
  0
LTYPE
  5
16
100
AcDbSymbolTableRecord
100
AcDbLinetypeTableRecord
  2
CONTINUOUS
 70
0
  3
Solid line
 72
65
 73
0
 40
0.0
  0
LTYPE
  5
31
100
AcDbSymbolTableRecord
100
AcDbLinetypeTableRecord
  2
DOT
 70
0
  3
Dot . . . . . . . . . . . . . . . . . . . . . .
 72
65
 73
2
 40
6.3499999999999996
 49
0.0
 74
0
 49
-6.3499999999999996
 74
0
  0
LTYPE
  5
32
100
AcDbSymbolTableRecord
100
AcDbLinetypeTableRecord
  2
DOT2
 70
0
  3
Dot (.5x) .....................................
 72
65
 73
2
 40
3.1749999999999998
 49
0.0
 74
0
 49
-3.1749999999999998
 74
0
  0
LTYPE
  5
33
100
AcDbSymbolTableRecord
100
AcDbLinetypeTableRecord
  2
DOTX2
 70
0
  3
Dot (2x) .  .  .  .  .  .  .  .  .  .  .  .  .
 72
65
 73
2
 40
12.6999999999999993
 49
0.0
 74
0
 49
-12.6999999999999993
 74
0
  0
LTYPE
  5
34
100
AcDbSymbolTableRecord
100
AcDbLinetypeTableRecord
  2
DASHED
 70
0
  3
Dashed __ __ __ __ __ __ __ __ __ __ __ __ __ _
 72
65
 73
2
 40
19.0500000000000007
 49
12.6999999999999993
 74
0
 49
-6.3499999999999996
 74
0
  0
LTYPE
  5
35
100
AcDbSymbolTableRecord
100
AcDbLinetypeTableRecord
  2
DASHED2
 70
0
  3
Dashed (.5x) _ _ _ _ _ _ _ _ _ _ _ _ _ _ _ _ _
 72
65
 73
2
 40
9.5250000000000004
 49
6.3499999999999996
 74
0
 49
-3.1749999999999998
 74
0
  0
LTYPE
  5
36
100
AcDbSymbolTableRecord
100
AcDbLinetypeTableRecord
  2
DASHEDX2
 70
0
  3
Dashed (2x) ____  ____  ____  ____  ____  ___
 72
65
 73
2
 40
38.1000000000000014
 49
25.3999999999999986
 74
0
 49
-12.6999999999999993
 74
0
  0
LTYPE
  5
37
100
AcDbSymbolTableRecord
100
AcDbLinetypeTableRecord
  2
DASHDOT
 70
0
  3
Dash dot __ . __ . __ . __ . __ . __ . __ . __
 72
65
 73
4
 40
25.3999999999999986
 49
12.6999999999999993
 74
0
 49
-6.3499999999999996
 74
0
 49
0.0
 74
0
 49
-6.3499999999999996
 74
0
  0
LTYPE
  5
38
100
AcDbSymbolTableRecord
100
AcDbLinetypeTableRecord
  2
DASHDOT2
 70
0
  3
Dash dot (.5x) _._._._._._._._._._._._._._._.
 72
65
 73
4
 40
12.6999999999999993
 49
6.3499999999999996
 74
0
 49
-3.1749999999999998
 74
0
 49
0.0
 74
0
 49
-3.1749999999999998
 74
0
  0
LTYPE
  5
39
100
AcDbSymbolTableRecord
100
AcDbLinetypeTableRecord
  2
DASHDOTX2
 70
0
  3
Dash dot (2x) ____  .  ____  .  ____  .  ___
 72
65
 73
4
 40
50.7999999999999972
 49
25.3999999999999986
 74
0
 49
-12.6999999999999993
 74
0
 49
0.0
 74
0
 49
-12.6999999999999993
 74
0
  0
LTYPE
  5
3A
100
AcDbSymbolTableRecord
100
AcDbLinetypeTableRecord
  2
DIVIDE
 70
0
  3
Divide ____ . . ____ . . ____ . . ____ . . ____
 72
65
 73
6
 40
31.75
 49
12.6999999999999993
 74
0
 49
-6.3499999999999996
 74
0
 49
0.0
 74
0
 49
-6.3499999999999996
 74
0
 49
0.0
 74
0
 49
-6.3499999999999996
 74
0
  0
LTYPE
  5
3B
100
AcDbSymbolTableRecord
100
AcDbLinetypeTableRecord
  2
DIVIDE2
 70
0
  3
Divide (.5x) __..__..__..__..__..__..__..__.._
 72
65
 73
6
 40
15.875
 49
6.3499999999999996
 74
0
 49
-3.1749999999999998
 74
0
 49
0.0
 74
0
 49
-3.1749999999999998
 74
0
 49
0.0
 74
0
 49
-3.1749999999999998
 74
0
  0
LTYPE
  5
3C
100
AcDbSymbolTableRecord
100
AcDbLinetypeTableRecord
  2
DIVIDEX2
 70
0
  3
Divide (2x) ________  .  .  ________  .  .  _
 72
65
 73
6
 40
63.5
 49
25.3999999999999986
 74
0
 49
-12.6999999999999993
 74
0
 49
0.0
 74
0
 49
-12.6999999999999993
 74
0
 49
0.0
 74
0
 49
-12.6999999999999993
 74
0
  0
LTYPE
  5
3D
100
AcDbSymbolTableRecord
100
AcDbLinetypeTableRecord
  2
CENTER
 70
0
  3
Center ____ _ ____ _ ____ _ ____ _ ____ _ ____
 72
65
 73
4
 40
50.7999999999999972
 49
31.75
 74
0
 49
-6.3499999999999996
 74
0
 49
6.3499999999999996
 74
0
 49
-6.3499999999999996
 74
0
  0
LTYPE
  5
3E
100
AcDbSymbolTableRecord
100
AcDbLinetypeTableRecord
  2
CENTER2
 70
0
  3
Center (.5x) ___ _ ___ _ ___ _ ___ _ ___ _ ___
 72
65
 73
4
 40
28.5749999999999993
 49
19.0500000000000007
 74
0
 49
-3.1749999999999998
 74
0
 49
3.1749999999999998
 74
0
 49
-3.1749999999999998
 74
0
  0
LTYPE
  5
3F
100
AcDbSymbolTableRecord
100
AcDbLinetypeTableRecord
  2
CENTERX2
 70
0
  3
Center (2x) ________  __  ________  __  _____
 72
65
 73
4
 40
101.5999999999999943
 49
63.5
 74
0
 49
-12.6999999999999993
 74
0
 49
12.6999999999999993
 74
0
 49
-12.6999999999999993
 74
0
  0
LTYPE
  5
40
100
AcDbSymbolTableRecord
100
AcDbLinetypeTableRecord
  2
BORDER
 70
0
  3
Border __ __ . __ __ . __ __ . __ __ . __ __ .
 72
65
 73
6
 40
44.4500000000000028
 49
12.6999999999999993
 74
0
 49
-6.3499999999999996
 74
0
 49
12.6999999999999993
 74
0
 49
-6.3499999999999996
 74
0
 49
0.0
 74
0
 49
-6.3499999999999996
 74
0
  0
LTYPE
  5
41
100
AcDbSymbolTableRecord
100
AcDbLinetypeTableRecord
  2
BORDER2
 70
0
  3
Border (.5x) __.__.__.__.__.__.__.__.__.__.__.
 72
65
 73
6
 40
22.2250000000000014
 49
6.3499999999999996
 74
0
 49
-3.1749999999999998
 74
0
 49
6.3499999999999996
 74
0
 49
-3.1749999999999998
 74
0
 49
0.0
 74
0
 49
-3.1749999999999998
 74
0
  0
LTYPE
  5
42
100
AcDbSymbolTableRecord
100
AcDbLinetypeTableRecord
  2
BORDERX2
 70
0
  3
Border (2x) ____  ____  .  ____  ____  .  ___
 72
65
 73
6
 40
88.9000000000000057
 49
25.3999999999999986
 74
0
 49
-12.6999999999999993
 74
0
 49
25.3999999999999986
 74
0
 49
-12.6999999999999993
 74
0
 49
0.0
 74
0
 49
-12.6999999999999993
 74
0
  0
ENDTAB
  0
TABLE
  2
LAYER
  5
2
100
AcDbSymbolTable
 70
8
  0
LAYER
  5
10
100
AcDbSymbolTableRecord
100
AcDbLayerTableRecord
  2
0
 70
0
 62
7
  6
CONTINUOUS
390
F
  0
LAYER
  5
43
100
AcDbSymbolTableRecord
100
AcDbLayerTableRecord
  2
FORT
 70
0
 62
7
  6
CONTINUOUS
370
50
390
F
  0
LAYER
  5
44
100
AcDbSymbolTableRecord
100
AcDbLayerTableRecord
  2
INTERROMPU
 70
0
 62
5
  6
DASHED
370
20
390
F
  0
LAYER
  5
45
100
AcDbSymbolTableRecord
100
AcDbLayerTableRecord
  2
AXE
 70
0
 62
3
  6
CENTERX2
370
25
390
F
  0
LAYER
  5
46
100
AcDbSymbolTableRecord
100
AcDbLayerTableRecord
  2
FIN
 70
0
 62
5
  6
CONTINUOUS
370
20
390
F
  0
LAYER
  5
47
100
AcDbSymbolTableRecord
100
AcDbLayerTableRecord
  2
HACHURE
 70
0
 62
7
  6
CONTINUOUS
370
20
390
F
  0
LAYER
  5
48
100
AcDbSymbolTableRecord
100
AcDbLayerTableRecord
  2
TEXTE
 70
0
 62
7
  6
CONTINUOUS
370
60
390
F
  0
LAYER
  5
49
100
AcDbSymbolTableRecord
100
AcDbLayerTableRecord
  2
RENFORCE
 70
0
 62
7
  6
CONTINUOUS
370
90
390
F
  0
ENDTAB
  0
TABLE
  2
STYLE
  5
3
100
AcDbSymbolTable
 70
1
  0
STYLE
  5
11
100
AcDbSymbolTableRecord
100
AcDbTextStyleTableRecord
  2
Standard
 70
0
 40
0.0
 41
0.75
 50
0.0
 71
0
 42
2.5
  3
txt
  4

  0
ENDTAB
  0
TABLE
  2
VIEW
  5
6
100
AcDbSymbolTable
 70
0
  0
ENDTAB
  0
TABLE
  2
UCS
  5
7
100
AcDbSymbolTable
 70
0
  0
ENDTAB
  0
TABLE
  2
APPID
  5
9
100
AcDbSymbolTable
 70
1
  0
APPID
  5
12
100
AcDbSymbolTableRecord
100
AcDbRegAppTableRecord
  2
ACAD
 70
0
  0
ENDTAB
  0
TABLE
  2
DIMSTYLE
  5
A
100
AcDbSymbolTable
 70
1
100
AcDbDimStyleTable
 71
0
  0
DIMSTYLE
105
27
100
AcDbSymbolTableRecord
100
AcDbDimStyleTableRecord
  2
Standard
 41
0.18
 42
0.0625
 43
3.75
 44
0.18
 70
0
 73
0
 74
0
 77
1
 78
8
140
0.18
141
2.5
143
0.03937007874016
147
0.625
171
3
172
1
271
2
272
2
274
3
278
44
283
0
284
8
340
11
  0
ENDTAB
  0
TABLE
  2
BLOCK_RECORD
  5
1
100
AcDbSymbolTable
 70
1
  0
BLOCK_RECORD
  5
1F
100
AcDbSymbolTableRecord
100
AcDbBlockTableRecord
  2
*Model_Space
340
22
  0
BLOCK_RECORD
  5
1B
100
AcDbSymbolTableRecord
100
AcDbBlockTableRecord
  2
*Paper_Space
340
1E
  0
BLOCK_RECORD
  5
23
100
AcDbSymbolTableRecord
100
AcDbBlockTableRecord
  2
*Paper_Space0
340
26
  0
BLOCK_RECORD
  5
4A
100
AcDbSymbolTableRecord
100
AcDbBlockTableRecord
  2
DESENS-G1
340
0
  0
BLOCK_RECORD
  5
4B
100
AcDbSymbolTableRecord
100
AcDbBlockTableRecord
  2
DESENS-G2
340
0
  0
BLOCK_RECORD
  5
4C
100
AcDbSymbolTableRecord
100
AcDbBlockTableRecord
  2
DESENS-G3
340
0
  0
BLOCK_RECORD
  5
4D
100
AcDbSymbolTableRecord
100
AcDbBlockTableRecord
  2
DESENS-G4
340
0
  0
BLOCK_RECORD
  5
4E
100
AcDbSymbolTableRecord
100
AcDbBlockTableRecord
  2
DESENS-G5
340
0
  0
BLOCK_RECORD
  5
4F
100
AcDbSymbolTableRecord
100
AcDbBlockTableRecord
  2
DESENS-G6
340
0
  0
BLOCK_RECORD
  5
50
100
AcDbSymbolTableRecord
100
AcDbBlockTableRecord
  2
DESENS-G7
340
0
  0
BLOCK_RECORD
  5
51
100
AcDbSymbolTableRecord
100
AcDbBlockTableRecord
  2
DESENS-G8
340
0
  0
BLOCK_RECORD
  5
52
100
AcDbSymbolTableRecord
100
AcDbBlockTableRecord
  2
DESENS-G9
340
0
  0
BLOCK_RECORD
  5
53
100
AcDbSymbolTableRecord
100
AcDbBlockTableRecord
  2
DESENS-G10
340
0
  0
BLOCK_RECORD
  5
54
100
AcDbSymbolTableRecord
100
AcDbBlockTableRecord
  2
DESENS-G11
340
0
  0
BLOCK_RECORD
  5
55
100
AcDbSymbolTableRecord
100
AcDbBlockTableRecord
  2
DESENS-G12
340
0
  0
BLOCK_RECORD
  5
56
100
AcDbSymbolTableRecord
100
AcDbBlockTableRecord
  2
DESENS-G13
340
0
  0
BLOCK_RECORD
  5
57
100
AcDbSymbolTableRecord
100
AcDbBlockTableRecord
  2
DESENS-G14
340
0
  0
BLOCK_RECORD
  5
58
100
AcDbSymbolTableRecord
100
AcDbBlockTableRecord
  2
DESENS-G15
340
0
  0
BLOCK_RECORD
  5
59
100
AcDbSymbolTableRecord
100
AcDbBlockTableRecord
  2
DESENS-G16
340
0
  0
BLOCK_RECORD
  5
5A
100
AcDbSymbolTableRecord
100
AcDbBlockTableRecord
  2
DESENS-G17
340
0
  0
BLOCK_RECORD
  5
5B
100
AcDbSymbolTableRecord
100
AcDbBlockTableRecord
  2
DESENS-G18
340
0
  0
BLOCK_RECORD
  5
5C
100
AcDbSymbolTableRecord
100
AcDbBlockTableRecord
  2
DESENS-G19
340
0
  0
BLOCK_RECORD
  5
5D
100
AcDbSymbolTableRecord
100
AcDbBlockTableRecord
  2
DESENS-G20
340
0
  0
BLOCK_RECORD
  5
5E
100
AcDbSymbolTableRecord
100
AcDbBlockTableRecord
  2
DESENS-G21
340
0
  0
BLOCK_RECORD
  5
5F
100
AcDbSymbolTableRecord
100
AcDbBlockTableRecord
  2
DESENS-G22
340
0
  0
BLOCK_RECORD
  5
60
100
AcDbSymbolTableRecord
100
AcDbBlockTableRecord
  2
DESENS-G23
340
0
  0
BLOCK_RECORD
  5
61
100
AcDbSymbolTableRecord
100
AcDbBlockTableRecord
  2
DESENS-G24
340
0
  0
BLOCK_RECORD
  5
62
100
AcDbSymbolTableRecord
100
AcDbBlockTableRecord
  2
DESENS-G25
340
0
  0
BLOCK_RECORD
  5
63
100
AcDbSymbolTableRecord
100
AcDbBlockTableRecord
  2
DESENS-G26
340
0
  0
BLOCK_RECORD
  5
64
100
AcDbSymbolTableRecord
100
AcDbBlockTableRecord
  2
DESENS-G27
340
0
  0
BLOCK_RECORD
  5
65
100
AcDbSymbolTableRecord
100
AcDbBlockTableRecord
  2
DESENS-G28
340
0
  0
BLOCK_RECORD
  5
66
100
AcDbSymbolTableRecord
100
AcDbBlockTableRecord
  2
DESENS-G29
340
0
  0
BLOCK_RECORD
  5
67
100
AcDbSymbolTableRecord
100
AcDbBlockTableRecord
  2
DESENS-G30
340
0
  0
BLOCK_RECORD
  5
68
100
AcDbSymbolTableRecord
100
AcDbBlockTableRecord
  2
DESENS-G31
340
0
  0
BLOCK_RECORD
  5
69
100
AcDbSymbolTableRecord
100
AcDbBlockTableRecord
  2
DESENS-G32
340
0
  0
BLOCK_RECORD
  5
6A
100
AcDbSymbolTableRecord
100
AcDbBlockTableRecord
  2
DESENS-G33
340
0
  0
BLOCK_RECORD
  5
6B
100
AcDbSymbolTableRecord
100
AcDbBlockTableRecord
  2
DESENS-G34
340
0
  0
BLOCK_RECORD
  5
6C
100
AcDbSymbolTableRecord
100
AcDbBlockTableRecord
  2
DESENS-G35
340
0
  0
BLOCK_RECORD
  5
6D
100
AcDbSymbolTableRecord
100
AcDbBlockTableRecord
  2
DESENS-G36
340
0
  0
BLOCK_RECORD
  5
6E
100
AcDbSymbolTableRecord
100
AcDbBlockTableRecord
  2
DESENS-G37
340
0
  0
BLOCK_RECORD
  5
6F
100
AcDbSymbolTableRecord
100
AcDbBlockTableRecord
  2
DESENS-G38
340
0
  0
BLOCK_RECORD
  5
70
100
AcDbSymbolTableRecord
100
AcDbBlockTableRecord
  2
DESENS-G39
340
0
  0
BLOCK_RECORD
  5
71
100
AcDbSymbolTableRecord
100
AcDbBlockTableRecord
  2
DESENS-G40
340
0
  0
BLOCK_RECORD
  5
72
100
AcDbSymbolTableRecord
100
AcDbBlockTableRecord
  2
DESENS-G41
340
0
  0
BLOCK_RECORD
  5
73
100
AcDbSymbolTableRecord
100
AcDbBlockTableRecord
  2
DESENS-G42
340
0
  0
BLOCK_RECORD
  5
74
100
AcDbSymbolTableRecord
100
AcDbBlockTableRecord
  2
DESENS-G43
340
0
  0
BLOCK_RECORD
  5
75
100
AcDbSymbolTableRecord
100
AcDbBlockTableRecord
  2
DESENS-G44
340
0
  0
BLOCK_RECORD
  5
76
100
AcDbSymbolTableRecord
100
AcDbBlockTableRecord
  2
DESENS-G45
340
0
  0
BLOCK_RECORD
  5
77
100
AcDbSymbolTableRecord
100
AcDbBlockTableRecord
  2
DESENS-G46
340
0
  0
BLOCK_RECORD
  5
78
100
AcDbSymbolTableRecord
100
AcDbBlockTableRecord
  2
DESENS-G47
340
0
  0
BLOCK_RECORD
  5
79
100
AcDbSymbolTableRecord
100
AcDbBlockTableRecord
  2
DESENS-G48
340
0
  0
BLOCK_RECORD
  5
7A
100
AcDbSymbolTableRecord
100
AcDbBlockTableRecord
  2
DESENS-G49
340
0
  0
BLOCK_RECORD
  5
7B
100
AcDbSymbolTableRecord
100
AcDbBlockTableRecord
  2
DESENS-G50
340
0
  0
BLOCK_RECORD
  5
7C
100
AcDbSymbolTableRecord
100
AcDbBlockTableRecord
  2
DESENS-G51
340
0
  0
BLOCK_RECORD
  5
7D
100
AcDbSymbolTableRecord
100
AcDbBlockTableRecord
  2
DESENS-G52
340
0
  0
BLOCK_RECORD
  5
7E
100
AcDbSymbolTableRecord
100
AcDbBlockTableRecord
  2
DESENS-G53
340
0
  0
BLOCK_RECORD
  5
7F
100
AcDbSymbolTableRecord
100
AcDbBlockTableRecord
  2
DESENS-G54
340
0
  0
BLOCK_RECORD
  5
80
100
AcDbSymbolTableRecord
100
AcDbBlockTableRecord
  2
DESENS-G55
340
0
  0
ENDTAB
  0
ENDSEC
  0
SECTION
  2
BLOCKS
  0
BLOCK
  5
20
100
AcDbEntity
  8
0
100
AcDbBlockBegin
  2
*Model_Space
 70
0
 10
0.0
 20
0.0
 30
0.0
  3
*Model_Space
  1

  0
ENDBLK
  5
21
100
AcDbEntity
  8
0
100
AcDbBlockEnd
  0
BLOCK
  5
1C
100
AcDbEntity
 67
1
  8
0
100
AcDbBlockBegin
  2
*Paper_Space
 70
0
 10
0.0
 20
0.0
 30
0.0
  3
*Paper_Space
  1

  0
ENDBLK
  5
1D
100
AcDbEntity
 67
1
  8
0
100
AcDbBlockEnd
  0
BLOCK
  5
24
100
AcDbEntity
  8
0
100
AcDbBlockBegin
  2
*Paper_Space0
 70
0
 10
0.0
 20
0.0
 30
0.0
  3
*Paper_Space0
  1

  0
ENDBLK
  5
25
100
AcDbEntity
  8
0
100
AcDbBlockEnd
  0
BLOCK
  5
81
100
AcDbEntity
  8
0
100
AcDbBlockBegin
  2
DESENS-G1
 70
0
 10
0.0
 20
0.0
 30
0.0
  3
DESENS-G1
  1

  0
LINE
  5
82
100
AcDbEntity
100
AcDbLine
  8
HACHURE
 62
5
370
-1
  6
CONTINUOUS
 10
209.3416970000000106
 20
164.4399879999999996
 30
0.0
 11
207.3264430000000118
 21
162.4247340000000008
 31
0.0
  0
LINE
  5
83
100
AcDbEntity
100
AcDbLine
  8
HACHURE
 62
5
370
-1
  6
CONTINUOUS
 10
210.831040999999999
 20
161.439202999999992
 30
0.0
 11
213.8318250000000091
 21
164.4399879999999996
 31
0.0
  0
LINE
  5
84
100
AcDbEntity
100
AcDbLine
  8
HACHURE
 62
5
370
-1
  6
CONTINUOUS
 10
218.3219530000000077
 20
164.4399879999999996
 30
0.0
 11
215.3211689999999976
 21
161.439202999999992
 31
0.0
  0
LINE
  5
85
100
AcDbEntity
100
AcDbLine
  8
HACHURE
 62
5
370
-1
  6
CONTINUOUS
 10
220.3254220000000032
 20
161.9533289999999965
 30
0.0
 11
222.8120810000000063
 21
164.4399879999999996
 31
0.0
  0
LINE
  5
86
100
AcDbEntity
100
AcDbLine
  8
HACHURE
 62
5
370
-1
  6
CONTINUOUS
 10
227.3022090000000048
 20
164.4399879999999996
 30
0.0
 11
223.3011630000000025
 21
160.4389419999999973
 31
0.0
  0
LINE
  5
87
100
AcDbEntity
100
AcDbLine
  8
HACHURE
 62
5
370
-1
  6
CONTINUOUS
 10
227.7912910000000011
 20
160.4389419999999973
 30
0.0
 11
231.7923370000000034
 21
164.4399879999999996
 31
0.0
  0
LINE
  5
88
100
AcDbEntity
100
AcDbLine
  8
HACHURE
 62
5
370
-1
  6
CONTINUOUS
 10
236.282465000000002
 20
164.4399879999999996
 30
0.0
 11
232.2814189999999996
 21
160.4389419999999973
 31
0.0
  0
LINE
  5
89
100
AcDbEntity
100
AcDbLine
  8
HACHURE
 62
5
370
-1
  6
CONTINUOUS
 10
236.7715469999999982
 20
160.4389419999999973
 30
0.0
 11
240.7725930000000005
 21
164.4399879999999996
 31
0.0
  0
LINE
  5
8A
100
AcDbEntity
100
AcDbLine
  8
HACHURE
 62
5
370
-1
  6
CONTINUOUS
 10
245.2627209999999991
 20
164.4399879999999996
 30
0.0
 11
241.2616749999999968
 21
160.4389419999999973
 31
0.0
  0
LINE
  5
8B
100
AcDbEntity
100
AcDbLine
  8
HACHURE
 62
5
370
-1
  6
CONTINUOUS
 10
245.7518039999999928
 20
160.4389419999999973
 30
0.0
 11
249.7528489999999977
 21
164.4399879999999996
 31
0.0
  0
LINE
  5
8C
100
AcDbEntity
100
AcDbLine
  8
HACHURE
 62
5
370
-1
  6
CONTINUOUS
 10
254.2429769999999962
 20
164.4399879999999996
 30
0.0
 11
250.2419319999999914
 21
160.4389419999999973
 31
0.0
  0
LINE
  5
8D
100
AcDbEntity
100
AcDbLine
  8
HACHURE
 62
5
370
-1
  6
CONTINUOUS
 10
254.7320599999999899
 20
160.4389419999999973
 30
0.0
 11
258.7331060000000207
 21
164.4399879999999996
 31
0.0
  0
LINE
  5
8E
100
AcDbEntity
100
AcDbLine
  8
HACHURE
 62
5
370
-1
  6
CONTINUOUS
 10
263.2232339999999908
 20
164.4399879999999996
 30
0.0
 11
260.3240959999999973
 21
161.540850000000006
 31
0.0
  0
LINE
  5
8F
100
AcDbEntity
100
AcDbLine
  8
HACHURE
 62
5
370
-1
  6
CONTINUOUS
 10
264.7140499999999861
 20
161.4406769999999938
 30
0.0
 11
267.7133620000000178
 21
164.4399879999999996
 31
0.0
  0
LINE
  5
90
100
AcDbEntity
100
AcDbLine
  8
HACHURE
 62
5
370
-1
  6
CONTINUOUS
 10
271.3240260000000035
 20
163.5605239999999867
 30
0.0
 11
269.2041780000000131
 21
161.4406769999999938
 31
0.0
  0
ENDBLK
  5
91
100
AcDbEntity
  8
0
100
AcDbBlockEnd
  0
BLOCK
  5
92
100
AcDbEntity
  8
0
100
AcDbBlockBegin
  2
DESENS-G2
 70
0
 10
0.0
 20
0.0
 30
0.0
  3
DESENS-G2
  1

  0
LINE
  5
93
100
AcDbEntity
100
AcDbLine
  8
HACHURE
 62
5
370
-1
  6
CONTINUOUS
 10
237.3256399999999928
 20
160.2995789999999943
 30
0.0
 11
233.3256880000000137
 21
157.4987830000000031
 31
0.0
  0
LINE
  5
94
100
AcDbEntity
100
AcDbLine
  8
HACHURE
 62
5
370
-1
  6
CONTINUOUS
 10
233.7779500000000041
 20
153.9393650000000093
 30
0.0
 11
238.6337729999999908
 21
157.3394480000000044
 31
0.0
  0
LINE
  5
95
100
AcDbEntity
100
AcDbLine
  8
HACHURE
 62
5
370
-1
  6
CONTINUOUS
 10
242.3259030000000109
 20
159.9247059999999863
 30
0.0
 11
243.0607939999999871
 21
160.4392819999999915
 31
0.0
  0
LINE
  5
96
100
AcDbEntity
100
AcDbLine
  8
HACHURE
 62
5
370
-1
  6
CONTINUOUS
 10
246.0842360000000042
 20
158.6807399999999859
 30
0.0
 11
235.3257189999999923
 21
151.1475460000000055
 31
0.0
  0
LINE
  5
97
100
AcDbEntity
100
AcDbLine
  8
HACHURE
 62
5
370
-1
  6
CONTINUOUS
 10
235.0282970000000091
 20
150.9392880000000048
 30
0.0
 11
233.3259160000000065
 21
149.7472689999999886
 31
0.0
  0
LINE
  5
98
100
AcDbEntity
100
AcDbLine
  8
HACHURE
 62
5
370
-1
  6
CONTINUOUS
 10
235.3263019999999983
 20
147.2718580000000088
 30
0.0
 11
246.3257380000000012
 21
154.9737460000000056
 31
0.0
  0
LINE
  5
99
100
AcDbEntity
100
AcDbLine
  8
HACHURE
 62
5
370
-1
  6
CONTINUOUS
 10
246.3259740000000022
 20
151.0978159999999946
 30
0.0
 11
242.5295020000000079
 21
148.4394979999999862
 31
0.0
  0
LINE
  5
9A
100
AcDbEntity
100
AcDbLine
  8
HACHURE
 62
5
370
-1
  6
CONTINUOUS
 10
240.3258710000000065
 20
146.8964990000000057
 30
0.0
 11
238.244607000000002
 21
145.4391819999999882
 31
0.0
  0
LINE
  5
9B
100
AcDbEntity
100
AcDbLine
  8
HACHURE
 62
5
370
-1
  6
CONTINUOUS
 10
237.3257059999999967
 20
158.3613200000000063
 30
0.0
 11
236.5259240000000034
 21
157.801306000000011
 31
0.0
  0
LINE
  5
9C
100
AcDbEntity
100
AcDbLine
  8
HACHURE
 62
5
370
-1
  6
CONTINUOUS
 10
235.8757219999999961
 20
157.3460289999999873
 30
0.0
 11
234.57531800000001
 21
156.4354769999999917
 31
0.0
  0
LINE
  5
9D
100
AcDbEntity
100
AcDbLine
  8
HACHURE
 62
5
370
-1
  6
CONTINUOUS
 10
233.9251160000000027
 20
155.9802009999999939
 30
0.0
 11
233.3257539999999892
 21
155.5605229999999892
 31
0.0
  0
LINE
  5
9E
100
AcDbEntity
100
AcDbLine
  8
HACHURE
 62
5
370
-1
  6
CONTINUOUS
 10
235.325792000000007
 20
153.0848689999999976
 30
0.0
 11
235.7462850000000003
 21
153.3793019999999956
 31
0.0
  0
LINE
  5
9F
100
AcDbEntity
100
AcDbLine
  8
HACHURE
 62
5
370
-1
  6
CONTINUOUS
 10
236.3964870000000076
 20
153.8345779999999934
 30
0.0
 11
237.6968909999999937
 21
154.745129999999989
 31
0.0
  0
LINE
  5
A0
100
AcDbEntity
100
AcDbLine
  8
HACHURE
 62
5
370
-1
  6
CONTINUOUS
 10
238.347093000000001
 20
155.2004070000000127
 30
0.0
 11
239.6474969999999871
 21
156.1109590000000082
 31
0.0
  0
LINE
  5
A1
100
AcDbEntity
100
AcDbLine
  8
HACHURE
 62
5
370
-1
  6
CONTINUOUS
 10
240.2976989999999944
 20
156.5662360000000035
 30
0.0
 11
241.4018100000000118
 21
157.3393430000000137
 31
0.0
  0
LINE
  5
A2
100
AcDbEntity
100
AcDbLine
  8
HACHURE
 62
5
370
-1
  6
CONTINUOUS
 10
242.3256230000000073
 20
157.9862029999999891
 30
0.0
 11
243.5487080000000049
 21
158.84261699999999
 31
0.0
  0
LINE
  5
A3
100
AcDbEntity
100
AcDbLine
  8
HACHURE
 62
5
370
-1
  6
CONTINUOUS
 10
244.1989100000000121
 20
159.2978929999999878
 30
0.0
 11
244.9448830000000044
 21
159.8202290000000119
 31
0.0
  0
LINE
  5
A4
100
AcDbEntity
100
AcDbLine
  8
HACHURE
 62
5
370
-1
  6
CONTINUOUS
 10
246.3259150000000091
 20
156.911658999999986
 30
0.0
 11
246.0198369999999954
 21
156.6973409999999944
 31
0.0
  0
LINE
  5
A5
100
AcDbEntity
100
AcDbLine
  8
HACHURE
 62
5
370
-1
  6
CONTINUOUS
 10
245.3696349999999882
 20
156.2420649999999966
 30
0.0
 11
244.069231000000002
 21
155.3315120000000036
 31
0.0
  0
LINE
  5
A6
100
AcDbEntity
100
AcDbLine
  8
HACHURE
 62
5
370
-1
  6
CONTINUOUS
 10
243.4190289999999948
 20
154.8762360000000058
 30
0.0
 11
242.1186250000000086
 21
153.9656830000000127
 31
0.0
  0
LINE
  5
A7
100
AcDbEntity
100
AcDbLine
  8
HACHURE
 62
5
370
-1
  6
CONTINUOUS
 10
241.4684230000000014
 20
153.5104069999999865
 30
0.0
 11
240.1680189999999868
 21
152.5998539999999934
 31
0.0
  0
LINE
  5
A8
100
AcDbEntity
100
AcDbLine
  8
HACHURE
 62
5
370
-1
  6
CONTINUOUS
 10
239.517817000000008
 20
152.1445779999999957
 30
0.0
 11
238.2174129999999934
 21
151.2340260000000001
 31
0.0
  0
LINE
  5
A9
100
AcDbEntity
100
AcDbLine
  8
HACHURE
 62
5
370
-1
  6
CONTINUOUS
 10
237.5672109999999861
 20
150.7787490000000048
 30
0.0
 11
236.266807
 21
149.8681970000000092
 31
0.0
  0
LINE
  5
AA
100
AcDbEntity
100
AcDbLine
  8
HACHURE
 62
5
370
-1
  6
CONTINUOUS
 10
235.6166059999999902
 20
149.4129200000000139
 30
0.0
 11
234.3162020000000041
 21
148.5023679999999899
 31
0.0
  0
LINE
  5
AB
100
AcDbEntity
100
AcDbLine
  8
HACHURE
 62
5
370
-1
  6
CONTINUOUS
 10
233.6659999999999968
 20
148.0470909999999947
 30
0.0
 11
233.3259820000000104
 21
147.8090090000000032
 31
0.0
  0
LINE
  5
AC
100
AcDbEntity
100
AcDbLine
  8
HACHURE
 62
5
370
-1
  6
CONTINUOUS
 10
235.4775050000000078
 20
145.4394259999999974
 30
0.0
 11
235.4871689999999944
 21
145.4461919999999964
 31
0.0
  0
LINE
  5
AD
100
AcDbEntity
100
AcDbLine
  8
HACHURE
 62
5
370
-1
  6
CONTINUOUS
 10
236.1373710000000017
 20
145.9014689999999916
 30
0.0
 11
237.4377749999999878
 21
146.8120209999999872
 31
0.0
  0
LINE
  5
AE
100
AcDbEntity
100
AcDbLine
  8
HACHURE
 62
5
370
-1
  6
CONTINUOUS
 10
238.0879769999999951
 20
147.2672980000000109
 30
0.0
 11
239.3883800000000122
 21
148.1778500000000065
 31
0.0
  0
LINE
  5
AF
100
AcDbEntity
100
AcDbLine
  8
HACHURE
 62
5
370
-1
  6
CONTINUOUS
 10
240.038581999999991
 20
148.6331260000000043
 30
0.0
 11
241.3389860000000056
 21
149.5436789999999974
 31
0.0
  0
LINE
  5
B0
100
AcDbEntity
100
AcDbLine
  8
HACHURE
 62
5
370
-1
  6
CONTINUOUS
 10
241.9891880000000128
 20
149.9989549999999952
 30
0.0
 11
243.289591999999999
 21
150.9095079999999882
 31
0.0
  0
LINE
  5
B1
100
AcDbEntity
100
AcDbLine
  8
HACHURE
 62
5
370
-1
  6
CONTINUOUS
 10
243.9397940000000062
 20
151.364783999999986
 30
0.0
 11
245.2401979999999924
 21
152.2753370000000075
 31
0.0
  0
LINE
  5
B2
100
AcDbEntity
100
AcDbLine
  8
HACHURE
 62
5
370
-1
  6
CONTINUOUS
 10
245.8903999999999996
 20
152.7306130000000053
 30
0.0
 11
246.3258040000000051
 21
153.0354859999999917
 31
0.0
  0
LINE
  5
B3
100
AcDbEntity
100
AcDbLine
  8
HACHURE
 62
5
370
-1
  6
CONTINUOUS
 10
246.3260390000000086
 20
149.1595560000000091
 30
0.0
 11
245.7609630000000038
 21
148.7638849999999877
 31
0.0
  0
ENDBLK
  5
B4
100
AcDbEntity
  8
0
100
AcDbBlockEnd
  0
BLOCK
  5
B5
100
AcDbEntity
  8
0
100
AcDbBlockBegin
  2
DESENS-G3
 70
0
 10
0.0
 20
0.0
 30
0.0
  3
DESENS-G3
  1

  0
LINE
  5
B6
100
AcDbEntity
100
AcDbLine
  8
HACHURE
 62
5
370
-1
  6
CONTINUOUS
 10
28.9996809999999989
 20
154.0958249999999907
 30
0.0
 11
28.3631199999999986
 21
153.7989919999999984
 31
0.0
  0
LINE
  5
B7
100
AcDbEntity
100
AcDbLine
  8
HACHURE
 62
5
370
-1
  6
CONTINUOUS
 10
27.9876569999999987
 20
151.8723290000000077
 30
0.0
 11
31.6489949999999993
 21
153.579638999999986
 31
0.0
  0
LINE
  5
B8
100
AcDbEntity
100
AcDbLine
  8
HACHURE
 62
5
370
-1
  6
CONTINUOUS
 10
33.5909649999999971
 20
154.485194000000007
 30
0.0
 11
34.7924920000000029
 21
155.0454760000000078
 31
0.0
  0
LINE
  5
B9
100
AcDbEntity
100
AcDbLine
  8
HACHURE
 62
5
370
-1
  6
CONTINUOUS
 10
35.4568780000000032
 20
153.6037019999999984
 30
0.0
 11
27.6124550000000006
 21
149.9457879999999932
 31
0.0
  0
LINE
  5
BA
100
AcDbEntity
100
AcDbLine
  8
HACHURE
 62
5
370
-1
  6
CONTINUOUS
 10
27.2369929999999982
 20
148.0191250000000025
 30
0.0
 11
34.8989090000000033
 21
151.5919350000000065
 31
0.0
  0
LINE
  5
BB
100
AcDbEntity
100
AcDbLine
  8
HACHURE
 62
5
370
-1
  6
CONTINUOUS
 10
33.5151010000000014
 20
149.1950730000000078
 30
0.0
 11
26.914121999999999
 21
146.1169859999999971
 31
0.0
  0
LINE
  5
BC
100
AcDbEntity
100
AcDbLine
  8
HACHURE
 62
5
370
-1
  6
CONTINUOUS
 10
27.7110279999999989
 20
144.737008000000003
 30
0.0
 11
32.1312929999999994
 21
146.7982110000000091
 31
0.0
  0
LINE
  5
BD
100
AcDbEntity
100
AcDbLine
  8
HACHURE
 62
5
370
-1
  6
CONTINUOUS
 10
30.7470859999999995
 20
144.4008460000000014
 30
0.0
 11
28.5077940000000005
 21
143.3566470000000095
 31
0.0
  0
LINE
  5
BE
100
AcDbEntity
100
AcDbLine
  8
HACHURE
 62
5
370
-1
  6
CONTINUOUS
 10
29.3044389999999986
 20
141.9765470000000107
 30
0.0
 11
29.3632789999999986
 21
142.0039850000000001
 31
0.0
  0
ENDBLK
  5
BF
100
AcDbEntity
  8
0
100
AcDbBlockEnd
  0
BLOCK
  5
C0
100
AcDbEntity
  8
0
100
AcDbBlockBegin
  2
DESENS-G4
 70
0
 10
0.0
 20
0.0
 30
0.0
  3
DESENS-G4
  1

  0
LINE
  5
C1
100
AcDbEntity
100
AcDbLine
  8
HACHURE
 62
5
370
-1
  6
CONTINUOUS
 10
41.3102119999999999
 20
176.6730609999999899
 30
0.0
 11
39.7860250000000022
 21
173.4044309999999882
 31
0.0
  0
LINE
  5
C2
100
AcDbEntity
100
AcDbLine
  8
HACHURE
 62
5
370
-1
  6
CONTINUOUS
 10
37.2175920000000033
 20
160.3830220000000111
 30
0.0
 11
40.819665999999998
 21
168.1076950000000068
 31
0.0
  0
LINE
  5
C3
100
AcDbEntity
100
AcDbLine
  8
HACHURE
 62
5
370
-1
  6
CONTINUOUS
 10
42.997399999999999
 20
172.7778610000000015
 30
0.0
 11
44.5223439999999968
 21
176.0481139999999982
 31
0.0
  0
LINE
  5
C4
100
AcDbEntity
100
AcDbLine
  8
HACHURE
 62
5
370
-1
  6
CONTINUOUS
 10
47.7337190000000007
 20
175.4215440000000115
 30
0.0
 11
46.2095320000000029
 21
172.1529140000000098
 31
0.0
  0
LINE
  5
C5
100
AcDbEntity
100
AcDbLine
  8
HACHURE
 62
5
370
-1
  6
CONTINUOUS
 10
44.031798000000002
 20
167.4827469999999892
 30
0.0
 11
40.4289670000000001
 21
159.7564519999999959
 31
0.0
  0
LINE
  5
C6
100
AcDbEntity
100
AcDbLine
  8
HACHURE
 62
5
370
-1
  6
CONTINUOUS
 10
38.2519890000000018
 20
155.0879079999999988
 30
0.0
 11
36.5462610000000012
 21
151.4299619999999891
 31
0.0
  0
LINE
  5
C7
100
AcDbEntity
100
AcDbLine
  8
HACHURE
 62
5
370
-1
  6
CONTINUOUS
 10
39.2069630000000018
 20
149.6224679999999978
 30
0.0
 11
41.4641209999999987
 21
154.4629600000000096
 31
0.0
  0
LINE
  5
C8
100
AcDbEntity
100
AcDbLine
  8
HACHURE
 62
5
370
-1
  6
CONTINUOUS
 10
43.641098999999997
 20
159.1315050000000042
 30
0.0
 11
47.2431729999999988
 21
166.8561779999999999
 31
0.0
  0
LINE
  5
C9
100
AcDbEntity
100
AcDbLine
  8
HACHURE
 62
5
370
-1
  6
CONTINUOUS
 10
49.0948899999999995
 20
170.8271980000000099
 30
0.0
 11
50.9458509999999976
 21
174.7965959999999939
 31
0.0
  0
LINE
  5
CA
100
AcDbEntity
100
AcDbLine
  8
HACHURE
 62
5
370
-1
  6
CONTINUOUS
 10
54.1556039999999967
 20
174.1707830000000001
 30
0.0
 11
52.3046440000000032
 21
170.2013849999999877
 31
0.0
  0
LINE
  5
CB
100
AcDbEntity
100
AcDbLine
  8
HACHURE
 62
5
370
-1
  6
CONTINUOUS
 10
50.7804569999999984
 20
166.932754999999986
 30
0.0
 11
46.5240790000000004
 21
157.8049230000000023
 31
0.0
  0
LINE
  5
CC
100
AcDbEntity
100
AcDbLine
  8
HACHURE
 62
5
370
-1
  6
CONTINUOUS
 10
44.6738739999999979
 20
153.8371469999999874
 30
0.0
 11
41.4613569999999996
 21
146.9478809999999953
 31
0.0
  0
LINE
  5
CD
100
AcDbEntity
100
AcDbLine
  8
HACHURE
 62
5
370
-1
  6
CONTINUOUS
 10
46.6447199999999995
 20
150.5502529999999979
 30
0.0
 11
48.2112669999999994
 21
153.9097240000000113
 31
0.0
  0
LINE
  5
CE
100
AcDbEntity
100
AcDbLine
  8
HACHURE
 62
5
370
-1
  6
CONTINUOUS
 10
49.7362109999999973
 20
157.1799760000000106
 30
0.0
 11
57.3669799999999981
 21
173.5442130000000134
 31
0.0
  0
LINE
  5
CF
100
AcDbEntity
100
AcDbLine
  8
HACHURE
 62
5
370
-1
  6
CONTINUOUS
 10
60.5791120000000021
 20
172.9192649999999958
 30
0.0
 11
51.5739269999999976
 21
153.6075830000000053
 31
0.0
  0
LINE
  5
D0
100
AcDbEntity
100
AcDbLine
  8
HACHURE
 62
5
370
-1
  6
CONTINUOUS
 10
55.451709000000001
 20
154.4101269999999886
 30
0.0
 11
63.7904869999999988
 21
172.2926960000000065
 31
0.0
  0
LINE
  5
D1
100
AcDbEntity
100
AcDbLine
  8
HACHURE
 62
5
370
-1
  6
CONTINUOUS
 10
67.0026189999999957
 20
171.6677479999999889
 30
0.0
 11
58.8597529999999978
 21
154.2053160000000105
 31
0.0
  0
LINE
  5
D2
100
AcDbEntity
100
AcDbLine
  8
HACHURE
 62
5
370
-1
  6
CONTINUOUS
 10
61.9266530000000017
 20
153.2689159999999902
 30
0.0
 11
70.213994999999997
 21
171.0411780000000022
 31
0.0
  0
LINE
  5
D3
100
AcDbEntity
100
AcDbLine
  8
HACHURE
 62
5
370
-1
  6
CONTINUOUS
 10
73.4237480000000033
 20
170.4153650000000084
 30
0.0
 11
71.0969989999999967
 21
165.4256349999999998
 31
0.0
  0
LINE
  5
D4
100
AcDbEntity
100
AcDbLine
  8
HACHURE
 62
5
370
-1
  6
CONTINUOUS
 10
69.6560180000000031
 20
162.3354420000000005
 30
0.0
 11
64.6825539999999961
 21
151.6698130000000049
 31
0.0
  0
LINE
  5
D5
100
AcDbEntity
100
AcDbLine
  8
HACHURE
 62
5
370
-1
  6
CONTINUOUS
 10
67.1110340000000036
 20
149.3643189999999947
 30
0.0
 11
76.6358800000000002
 21
169.7904169999999908
 31
0.0
  0
LINE
  5
D6
100
AcDbEntity
100
AcDbLine
  8
HACHURE
 62
5
370
-1
  6
CONTINUOUS
 10
79.8472550000000041
 20
169.1638470000000041
 30
0.0
 11
69.1113799999999969
 21
146.1406890000000089
 31
0.0
  0
LINE
  5
D7
100
AcDbEntity
100
AcDbLine
  8
HACHURE
 62
5
370
-1
  6
CONTINUOUS
 10
72.397640999999993
 20
145.6747119999999995
 30
0.0
 11
83.059387000000001
 21
168.5389000000000124
 31
0.0
  0
LINE
  5
D8
100
AcDbEntity
100
AcDbLine
  8
HACHURE
 62
5
370
-1
  6
CONTINUOUS
 10
86.2707630000000023
 20
167.9123299999999972
 30
0.0
 11
76.7149030000000067
 21
147.4197240000000022
 31
0.0
  0
LINE
  5
D9
100
AcDbEntity
100
AcDbLine
  8
HACHURE
 62
5
370
-1
  6
CONTINUOUS
 10
80.9966139999999939
 20
149.0884949999999947
 30
0.0
 11
89.4821380000000062
 21
167.2857600000000105
 31
0.0
  0
LINE
  5
DA
100
AcDbEntity
100
AcDbLine
  8
HACHURE
 62
5
370
-1
  6
CONTINUOUS
 10
88.1261379999999974
 20
156.8686570000000131
 30
0.0
 11
85.2759460000000047
 21
150.7564000000000135
 31
0.0
  0
ENDBLK
  5
DB
100
AcDbEntity
  8
0
100
AcDbBlockEnd
  0
BLOCK
  5
DC
100
AcDbEntity
  8
0
100
AcDbBlockBegin
  2
DESENS-G5
 70
0
 10
0.0
 20
0.0
 30
0.0
  3
DESENS-G5
  1

  0
LINE
  5
DD
100
AcDbEntity
100
AcDbLine
  8
HACHURE
 62
5
370
-1
  6
CONTINUOUS
 10
167.3264939999999967
 20
161.7171260000000075
 30
0.0
 11
164.6030279999999948
 21
164.4405920000000094
 31
0.0
  0
LINE
  5
DE
100
AcDbEntity
100
AcDbLine
  8
HACHURE
 62
5
370
-1
  6
CONTINUOUS
 10
159.2154950000000042
 20
164.4403289999999913
 30
0.0
 11
163.2150680000000023
 21
160.4407569999999907
 31
0.0
  0
LINE
  5
DF
100
AcDbEntity
100
AcDbLine
  8
HACHURE
 62
5
370
-1
  6
CONTINUOUS
 10
157.8275350000000117
 20
160.4404940000000011
 30
0.0
 11
153.8279620000000136
 21
164.4400660000000016
 31
0.0
  0
LINE
  5
E0
100
AcDbEntity
100
AcDbLine
  8
HACHURE
 62
5
370
-1
  6
CONTINUOUS
 10
148.4393249999999966
 20
164.4409080000000074
 30
0.0
 11
153.3260950000000093
 21
159.5541369999999972
 31
0.0
  0
LINE
  5
E1
100
AcDbEntity
100
AcDbLine
  8
HACHURE
 62
5
370
-1
  6
CONTINUOUS
 10
148.5506520000000137
 20
158.9395749999999907
 30
0.0
 11
143.0495819999999867
 21
164.4406449999999893
 31
0.0
  0
LINE
  5
E2
100
AcDbEntity
100
AcDbLine
  8
HACHURE
 62
5
370
-1
  6
CONTINUOUS
 10
137.6620489999999961
 20
164.4403819999999996
 30
0.0
 11
143.1620139999999992
 21
158.9404169999999965
 31
0.0
  0
LINE
  5
E3
100
AcDbEntity
100
AcDbLine
  8
HACHURE
 62
5
370
-1
  6
CONTINUOUS
 10
137.7744810000000086
 20
158.9401540000000068
 30
0.0
 11
132.2734110000000101
 21
164.4412240000000054
 31
0.0
  0
LINE
  5
E4
100
AcDbEntity
100
AcDbLine
  8
HACHURE
 62
5
370
-1
  6
CONTINUOUS
 10
126.8858780000000053
 20
164.4409599999999898
 30
0.0
 11
132.3858429999999942
 21
158.9409960000000126
 31
0.0
  0
LINE
  5
E5
100
AcDbEntity
100
AcDbLine
  8
HACHURE
 62
5
370
-1
  6
CONTINUOUS
 10
127.3275569999999988
 20
158.6114860000000135
 30
0.0
 11
121.498345999999998
 21
164.4406970000000001
 31
0.0
  0
LINE
  5
E6
100
AcDbEntity
100
AcDbLine
  8
HACHURE
 62
5
370
-1
  6
CONTINUOUS
 10
119.3259390000000053
 20
161.2253080000000125
 30
0.0
 11
127.3272939999999949
 21
153.2239529999999945
 31
0.0
  0
LINE
  5
E7
100
AcDbEntity
100
AcDbLine
  8
HACHURE
 62
5
370
-1
  6
CONTINUOUS
 10
126.7204660000000018
 20
148.4407750000000021
 30
0.0
 11
119.3256760000000014
 21
155.8355650000000026
 31
0.0
  0
LINE
  5
E8
100
AcDbEntity
100
AcDbLine
  8
HACHURE
 62
5
370
-1
  6
CONTINUOUS
 10
119.3254129999999975
 20
150.4480330000000095
 30
0.0
 11
121.332932999999997
 21
148.4405120000000124
 31
0.0
  0
ENDBLK
  5
E9
100
AcDbEntity
  8
0
100
AcDbBlockEnd
  0
BLOCK
  5
EA
100
AcDbEntity
  8
0
100
AcDbBlockBegin
  2
DESENS-G6
 70
0
 10
0.0
 20
0.0
 30
0.0
  3
DESENS-G6
  1

  0
LINE
  5
EB
100
AcDbEntity
100
AcDbLine
  8
HACHURE
 62
5
370
-1
  6
CONTINUOUS
 10
156.0324709999999868
 20
147.4395879999999863
 30
0.0
 11
154.6320629999999881
 21
149.4395770000000141
 31
0.0
  0
LINE
  5
EC
100
AcDbEntity
100
AcDbLine
  8
HACHURE
 62
5
370
-1
  6
CONTINUOUS
 10
152.3067749999999876
 20
149.4394900000000064
 30
0.0
 11
153.7068659999999909
 21
147.4399540000000002
 31
0.0
  0
LINE
  5
ED
100
AcDbEntity
100
AcDbLine
  8
HACHURE
 62
5
370
-1
  6
CONTINUOUS
 10
151.3808070000000043
 20
147.4400019999999927
 30
0.0
 11
149.980716000000001
 21
149.4395379999999989
 31
0.0
  0
LINE
  5
EE
100
AcDbEntity
100
AcDbLine
  8
HACHURE
 62
5
370
-1
  6
CONTINUOUS
 10
147.6551110000000051
 20
149.4399040000000127
 30
0.0
 11
149.0555190000000039
 21
147.4399150000000134
 31
0.0
  0
LINE
  5
EF
100
AcDbEntity
100
AcDbLine
  8
HACHURE
 62
5
370
-1
  6
CONTINUOUS
 10
146.7302310000000034
 20
147.4398270000000082
 30
0.0
 11
145.3298230000000046
 21
149.439817000000005
 31
0.0
  0
LINE
  5
F0
100
AcDbEntity
100
AcDbLine
  8
HACHURE
 62
5
370
-1
  6
CONTINUOUS
 10
143.0037639999999897
 20
149.4398649999999975
 30
0.0
 11
144.4041719999999884
 21
147.4398759999999982
 31
0.0
  0
LINE
  5
F1
100
AcDbEntity
100
AcDbLine
  8
HACHURE
 62
5
370
-1
  6
CONTINUOUS
 10
142.078565999999995
 20
147.440242000000012
 30
0.0
 11
140.6784759999999892
 21
149.4397779999999898
 31
0.0
  0
LINE
  5
F2
100
AcDbEntity
100
AcDbLine
  8
HACHURE
 62
5
370
-1
  6
CONTINUOUS
 10
139.3263629999999864
 20
148.0498519999999871
 30
0.0
 11
139.7532779999999946
 21
147.4401540000000068
 31
0.0
  0
ENDBLK
  5
F3
100
AcDbEntity
  8
0
100
AcDbBlockEnd
  0
BLOCK
  5
F4
100
AcDbEntity
  8
0
100
AcDbBlockBegin
  2
DESENS-G7
 70
0
 10
0.0
 20
0.0
 30
0.0
  3
DESENS-G7
  1

  0
LINE
  5
F5
100
AcDbEntity
100
AcDbLine
  8
HACHURE
 62
5
370
-1
  6
CONTINUOUS
 10
127.3261049999999983
 20
132.3295830000000137
 30
0.0
 11
127.2162229999999994
 21
132.4394650000000127
 31
0.0
  0
LINE
  5
F6
100
AcDbEntity
100
AcDbLine
  8
HACHURE
 62
5
370
-1
  6
CONTINUOUS
 10
121.8278059999999954
 20
132.4394430000000114
 30
0.0
 11
127.3260839999999945
 21
126.9411659999999955
 31
0.0
  0
LINE
  5
F7
100
AcDbEntity
100
AcDbLine
  8
HACHURE
 62
5
370
-1
  6
CONTINUOUS
 10
132.3277970000000039
 20
121.9394530000000003
 30
0.0
 11
135.9715070000000026
 21
118.2957430000000016
 31
0.0
  0
LINE
  5
F8
100
AcDbEntity
100
AcDbLine
  8
HACHURE
 62
5
370
-1
  6
CONTINUOUS
 10
132.4397539999999935
 20
116.439895000000007
 30
0.0
 11
119.3260889999999961
 21
129.5535600000000045
 31
0.0
  0
LINE
  5
F9
100
AcDbEntity
100
AcDbLine
  8
HACHURE
 62
5
370
-1
  6
CONTINUOUS
 10
119.3260680000000065
 20
124.1651430000000005
 30
0.0
 11
127.0513370000000037
 21
116.4398740000000032
 31
0.0
  0
LINE
  5
FA
100
AcDbEntity
100
AcDbLine
  8
HACHURE
 62
5
370
-1
  6
CONTINUOUS
 10
121.6629190000000023
 20
116.4398529999999994
 30
0.0
 11
119.3260460000000052
 21
118.776724999999999
 31
0.0
  0
ENDBLK
  5
FB
100
AcDbEntity
  8
0
100
AcDbBlockEnd
  0
BLOCK
  5
FC
100
AcDbEntity
  8
0
100
AcDbBlockBegin
  2
DESENS-G8
 70
0
 10
0.0
 20
0.0
 30
0.0
  3
DESENS-G8
  1

  0
LINE
  5
FD
100
AcDbEntity
100
AcDbLine
  8
HACHURE
 62
5
370
-1
  6
CONTINUOUS
 10
56.5305990000000023
 20
145.4350180000000137
 30
0.0
 11
51.3301879999999997
 21
140.2346070000000111
 31
0.0
  0
LINE
  5
FE
100
AcDbEntity
100
AcDbLine
  8
HACHURE
 62
5
370
-1
  6
CONTINUOUS
 10
51.9010290000000012
 20
138.1114450000000033
 30
0.0
 11
53.4333239999999989
 21
139.6437400000000082
 31
0.0
  0
LINE
  5
FF
100
AcDbEntity
100
AcDbLine
  8
HACHURE
 62
5
370
-1
  6
CONTINUOUS
 10
57.1214659999999981
 20
143.3318820000000073
 30
0.0
 11
58.6537610000000029
 21
144.8641759999999863
 31
0.0
  0
LINE
  5
100
100
AcDbEntity
100
AcDbLine
  8
HACHURE
 62
5
370
-1
  6
CONTINUOUS
 10
60.1471549999999979
 20
143.6635679999999979
 30
0.0
 11
58.7246549999999985
 21
142.2410680000000127
 31
0.0
  0
LINE
  5
101
100
AcDbEntity
100
AcDbLine
  8
HACHURE
 62
5
370
-1
  6
CONTINUOUS
 10
54.5241370000000032
 20
138.0405499999999961
 30
0.0
 11
53.1016369999999966
 21
136.6180500000000109
 31
0.0
  0
LINE
  5
102
100
AcDbEntity
100
AcDbLine
  8
HACHURE
 62
5
370
-1
  6
CONTINUOUS
 10
54.8422430000000034
 20
135.6646529999999871
 30
0.0
 11
56.6325679999999991
 21
137.4549770000000137
 31
0.0
  0
LINE
  5
103
100
AcDbEntity
100
AcDbLine
  8
HACHURE
 62
5
370
-1
  6
CONTINUOUS
 10
59.3102280000000022
 20
140.1326379999999858
 30
0.0
 11
61.1005529999999979
 21
141.9229620000000125
 31
0.0
  0
LINE
  5
104
100
AcDbEntity
100
AcDbLine
  8
HACHURE
 62
5
370
-1
  6
CONTINUOUS
 10
61.2011400000000023
 20
139.3290859999999896
 30
0.0
 11
57.4361189999999979
 21
135.5640649999999994
 31
0.0
  0
ENDBLK
  5
105
100
AcDbEntity
  8
0
100
AcDbBlockEnd
  0
BLOCK
  5
106
100
AcDbEntity
  8
0
100
AcDbBlockBegin
  2
DESENS-G9
 70
0
 10
0.0
 20
0.0
 30
0.0
  3
DESENS-G9
  1

  0
LINE
  5
107
100
AcDbEntity
100
AcDbLine
  8
HACHURE
 62
5
370
-1
  6
CONTINUOUS
 10
87.6812010000000015
 20
126.2981170000000049
 30
0.0
 11
78.3813880000000012
 21
132.809915999999987
 31
0.0
  0
LINE
  5
108
100
AcDbEntity
100
AcDbLine
  8
HACHURE
 62
5
370
-1
  6
CONTINUOUS
 10
69.3349079999999987
 20
135.2680110000000013
 30
0.0
 11
88.5561830000000043
 21
121.8091289999999987
 31
0.0
  0
LINE
  5
109
100
AcDbEntity
100
AcDbLine
  8
HACHURE
 62
5
370
-1
  6
CONTINUOUS
 10
89.4311660000000046
 20
117.3201410000000067
 30
0.0
 11
67.8215260000000058
 21
132.4513729999999896
 31
0.0
  0
LINE
  5
10A
100
AcDbEntity
100
AcDbLine
  8
HACHURE
 62
5
370
-1
  6
CONTINUOUS
 10
65.7114200000000039
 20
130.0525670000000105
 30
0.0
 11
89.2769090000000034
 21
113.5518339999999995
 31
0.0
  0
LINE
  5
10B
100
AcDbEntity
100
AcDbLine
  8
HACHURE
 62
5
370
-1
  6
CONTINUOUS
 10
84.9480719999999963
 20
112.7087839999999943
 30
0.0
 11
62.9543000000000035
 21
128.1089890000000082
 31
0.0
  0
LINE
  5
10C
100
AcDbEntity
100
AcDbLine
  8
HACHURE
 62
5
370
-1
  6
CONTINUOUS
 10
59.3340559999999968
 20
126.7675930000000051
 30
0.0
 11
70.2495700000000056
 21
119.1244679999999931
 31
0.0
  0
LINE
  5
10D
100
AcDbEntity
100
AcDbLine
  8
HACHURE
 62
5
370
-1
  6
CONTINUOUS
 10
73.2757110000000011
 20
117.0055409999999938
 30
0.0
 11
80.6167429999999996
 21
111.8652950000000033
 31
0.0
  0
LINE
  5
10E
100
AcDbEntity
100
AcDbLine
  8
HACHURE
 62
5
370
-1
  6
CONTINUOUS
 10
76.2868799999999965
 20
111.0207790000000045
 30
0.0
 11
53.9837500000000006
 21
126.6375989999999945
 31
0.0
  0
LINE
  5
10F
100
AcDbEntity
100
AcDbLine
  8
HACHURE
 62
5
370
-1
  6
CONTINUOUS
 10
44.1561209999999988
 20
133.5189790000000016
 30
0.0
 11
42.0521910000000005
 21
134.9921669999999949
 31
0.0
  0
LINE
  5
110
100
AcDbEntity
100
AcDbLine
  8
HACHURE
 62
5
370
-1
  6
CONTINUOUS
 10
40.2895630000000011
 20
132.3500530000000026
 30
0.0
 11
48.0264560000000031
 21
126.932621999999995
 31
0.0
  0
LINE
  5
111
100
AcDbEntity
100
AcDbLine
  8
HACHURE
 62
5
370
-1
  6
CONTINUOUS
 10
50.433880000000002
 20
125.246926000000002
 30
0.0
 11
71.9555509999999998
 21
110.1772899999999993
 31
0.0
  0
LINE
  5
112
100
AcDbEntity
100
AcDbLine
  8
HACHURE
 62
5
370
-1
  6
CONTINUOUS
 10
67.6242220000000032
 20
109.3337999999999965
 30
0.0
 11
47.6815989999999985
 21
123.2977750000000015
 31
0.0
  0
LINE
  5
113
100
AcDbEntity
100
AcDbLine
  8
HACHURE
 62
5
370
-1
  6
CONTINUOUS
 10
42.8432910000000007
 20
126.6855939999999947
 30
0.0
 11
37.8305119999999988
 21
130.1955800000000067
 31
0.0
  0
LINE
  5
114
100
AcDbEntity
100
AcDbLine
  8
HACHURE
 62
5
370
-1
  6
CONTINUOUS
 10
35.2966869999999986
 20
128.093465000000009
 30
0.0
 11
38.5134279999999976
 21
125.841077999999996
 31
0.0
  0
LINE
  5
115
100
AcDbEntity
100
AcDbLine
  8
HACHURE
 62
5
370
-1
  6
CONTINUOUS
 10
44.2035709999999966
 20
121.8567979999999977
 30
0.0
 11
63.294359
 21
108.4892839999999978
 31
0.0
  0
LINE
  5
116
100
AcDbEntity
100
AcDbLine
  8
HACHURE
 62
5
370
-1
  6
CONTINUOUS
 10
58.965522
 20
107.6462350000000043
 30
0.0
 11
52.8677890000000019
 21
111.9159130000000033
 31
0.0
  0
LINE
  5
117
100
AcDbEntity
100
AcDbLine
  8
HACHURE
 62
5
370
-1
  6
CONTINUOUS
 10
50.1451410000000024
 20
113.8223320000000029
 30
0.0
 11
39.8747339999999966
 21
121.0137480000000068
 31
0.0
  0
LINE
  5
118
100
AcDbEntity
100
AcDbLine
  8
HACHURE
 62
5
370
-1
  6
CONTINUOUS
 10
37.0462130000000016
 20
119.1179810000000003
 30
0.0
 11
44.9590439999999987
 21
113.5773570000000063
 31
0.0
  0
LINE
  5
119
100
AcDbEntity
100
AcDbLine
  8
HACHURE
 62
5
370
-1
  6
CONTINUOUS
 10
49.7973519999999965
 20
110.1895379999999989
 30
0.0
 11
54.6341930000000033
 21
106.8027450000000016
 31
0.0
  0
LINE
  5
11A
100
AcDbEntity
100
AcDbLine
  8
HACHURE
 62
5
370
-1
  6
CONTINUOUS
 10
50.3028639999999996
 20
105.9592559999999963
 30
0.0
 11
46.3193240000000017
 21
108.7485599999999977
 31
0.0
  0
LINE
  5
11B
100
AcDbEntity
100
AcDbLine
  8
HACHURE
 62
5
370
-1
  6
CONTINUOUS
 10
40.627715000000002
 20
112.7338680000000011
 30
0.0
 11
37.9226620000000025
 21
114.6279669999999982
 31
0.0
  0
LINE
  5
11C
100
AcDbEntity
100
AcDbLine
  8
HACHURE
 62
5
370
-1
  6
CONTINUOUS
 10
41.987994999999998
 20
107.9050710000000066
 30
0.0
 11
45.9730009999999965
 21
105.1147399999999976
 31
0.0
  0
LINE
  5
11D
100
AcDbEntity
100
AcDbLine
  8
HACHURE
 62
5
370
-1
  6
CONTINUOUS
 10
41.6416710000000023
 20
104.2712499999999949
 30
0.0
 11
39.6711609999999979
 21
105.651016999999996
 31
0.0
  0
ENDBLK
  5
11E
100
AcDbEntity
  8
0
100
AcDbBlockEnd
  0
BLOCK
  5
11F
100
AcDbEntity
  8
0
100
AcDbBlockBegin
  2
DESENS-G10
 70
0
 10
0.0
 20
0.0
 30
0.0
  3
DESENS-G10
  1

  0
LINE
  5
120
100
AcDbEntity
100
AcDbLine
  8
HACHURE
 62
5
370
-1
  6
CONTINUOUS
 10
59.2351689999999991
 20
139.7071709999999882
 30
0.0
 11
57.6349149999999995
 21
143.1389269999999954
 31
0.0
  0
LINE
  5
121
100
AcDbEntity
100
AcDbLine
  8
HACHURE
 62
5
370
-1
  6
CONTINUOUS
 10
55.7675899999999984
 20
143.3870729999999867
 30
0.0
 11
58.2249669999999995
 21
138.117211999999995
 31
0.0
  0
LINE
  5
122
100
AcDbEntity
100
AcDbLine
  8
HACHURE
 62
5
370
-1
  6
CONTINUOUS
 10
56.7735740000000035
 20
137.4733879999999999
 30
0.0
 11
54.3412909999999982
 21
142.6894369999999981
 31
0.0
  0
LINE
  5
123
100
AcDbEntity
100
AcDbLine
  8
HACHURE
 62
5
370
-1
  6
CONTINUOUS
 10
53.378467999999998
 20
140.9978729999999985
 30
0.0
 11
54.8590349999999987
 21
137.8227860000000078
 31
0.0
  0
ENDBLK
  5
124
100
AcDbEntity
  8
0
100
AcDbBlockEnd
  0
BLOCK
  5
125
100
AcDbEntity
  8
0
100
AcDbBlockBegin
  2
DESENS-G11
 70
0
 10
0.0
 20
0.0
 30
0.0
  3
DESENS-G11
  1

  0
LINE
  5
126
100
AcDbEntity
100
AcDbLine
  8
HACHURE
 62
5
370
-1
  6
CONTINUOUS
 10
39.5797639999999973
 20
106.1168770000000023
 30
0.0
 11
37.7867450000000034
 21
104.8613919999999951
 31
0.0
  0
LINE
  5
127
100
AcDbEntity
100
AcDbLine
  8
HACHURE
 62
5
370
-1
  6
CONTINUOUS
 10
36.6527570000000011
 20
104.0673649999999952
 30
0.0
 11
35.1291129999999967
 21
103.0004979999999932
 31
0.0
  0
LINE
  5
128
100
AcDbEntity
100
AcDbLine
  8
HACHURE
 62
5
370
-1
  6
CONTINUOUS
 10
38.9641170000000017
 20
103.747681
 30
0.0
 11
39.9119749999999982
 21
104.4113789999999966
 31
0.0
  0
ENDBLK
  5
129
100
AcDbEntity
  8
0
100
AcDbBlockEnd
  0
BLOCK
  5
12A
100
AcDbEntity
  8
0
100
AcDbBlockBegin
  2
DESENS-G12
 70
0
 10
0.0
 20
0.0
 30
0.0
  3
DESENS-G12
  1

  0
LINE
  5
12B
100
AcDbEntity
100
AcDbLine
  8
HACHURE
 62
5
370
-1
  6
CONTINUOUS
 10
37.0437379999999976
 20
119.1309069999999934
 30
0.0
 11
35.2507390000000029
 21
117.875434999999996
 31
0.0
  0
LINE
  5
12C
100
AcDbEntity
100
AcDbLine
  8
HACHURE
 62
5
370
-1
  6
CONTINUOUS
 10
34.143101999999999
 20
117.0998600000000067
 30
0.0
 11
30.7684490000000004
 21
114.7369020000000006
 31
0.0
  0
LINE
  5
12D
100
AcDbEntity
100
AcDbLine
  8
HACHURE
 62
5
370
-1
  6
CONTINUOUS
 10
32.3657559999999975
 20
113.9175029999999964
 30
0.0
 11
37.3760959999999969
 21
117.4257800000000032
 31
0.0
  0
LINE
  5
12E
100
AcDbEntity
100
AcDbLine
  8
HACHURE
 62
5
370
-1
  6
CONTINUOUS
 10
37.7083909999999989
 20
115.7202999999999946
 30
0.0
 11
35.9153919999999971
 21
114.4648279999999971
 31
0.0
  0
LINE
  5
12F
100
AcDbEntity
100
AcDbLine
  8
HACHURE
 62
5
370
-1
  6
CONTINUOUS
 10
36.2475420000000028
 20
112.7595560000000035
 30
0.0
 11
38.0405409999999975
 21
114.0150280000000009
 31
0.0
  0
ENDBLK
  5
130
100
AcDbEntity
  8
0
100
AcDbBlockEnd
  0
BLOCK
  5
131
100
AcDbEntity
  8
0
100
AcDbBlockBegin
  2
DESENS-G13
 70
0
 10
0.0
 20
0.0
 30
0.0
  3
DESENS-G13
  1

  0
LINE
  5
132
100
AcDbEntity
100
AcDbLine
  8
HACHURE
 62
5
370
-1
  6
CONTINUOUS
 10
29.4283889999999992
 20
138.7617189999999994
 30
0.0
 11
29.0843580000000017
 21
138.5208259999999996
 31
0.0
  0
LINE
  5
133
100
AcDbEntity
100
AcDbLine
  8
HACHURE
 62
5
370
-1
  6
CONTINUOUS
 10
27.2059339999999992
 20
135.2675940000000026
 30
0.0
 11
30.2252679999999998
 21
137.3817540000000008
 31
0.0
  0
LINE
  5
134
100
AcDbEntity
100
AcDbLine
  8
HACHURE
 62
5
370
-1
  6
CONTINUOUS
 10
31.0219120000000004
 20
136.00162499999999
 30
0.0
 11
27.1526180000000004
 21
133.2923159999999996
 31
0.0
  0
LINE
  5
135
100
AcDbEntity
100
AcDbLine
  8
HACHURE
 62
5
370
-1
  6
CONTINUOUS
 10
27.4849850000000018
 20
131.5870960000000025
 30
0.0
 11
31.8187910000000009
 21
134.6216599999999914
 31
0.0
  0
LINE
  5
136
100
AcDbEntity
100
AcDbLine
  8
HACHURE
 62
5
370
-1
  6
CONTINUOUS
 10
32.615434999999998
 20
133.2415300000000116
 30
0.0
 11
27.8173509999999986
 21
129.881875000000008
 31
0.0
  0
LINE
  5
137
100
AcDbEntity
100
AcDbLine
  8
HACHURE
 62
5
370
-1
  6
CONTINUOUS
 10
28.149716999999999
 20
128.1766550000000109
 30
0.0
 11
33.4123149999999995
 21
131.861565000000013
 31
0.0
  0
LINE
  5
138
100
AcDbEntity
100
AcDbLine
  8
HACHURE
 62
5
370
-1
  6
CONTINUOUS
 10
34.2091229999999982
 20
130.4812000000000012
 30
0.0
 11
28.8996980000000008
 21
126.7635010000000051
 31
0.0
  0
LINE
  5
139
100
AcDbEntity
100
AcDbLine
  8
HACHURE
 62
5
370
-1
  6
CONTINUOUS
 10
32.7345010000000016
 20
127.5107129999999955
 30
0.0
 11
35.0060020000000023
 21
129.1012360000000001
 31
0.0
  0
LINE
  5
13A
100
AcDbEntity
100
AcDbLine
  8
HACHURE
 62
5
370
-1
  6
CONTINUOUS
 10
35.4216699999999989
 20
127.4543440000000061
 30
0.0
 11
33.6288010000000028
 21
126.1989630000000062
 31
0.0
  0
ENDBLK
  5
13B
100
AcDbEntity
  8
0
100
AcDbBlockEnd
  0
BLOCK
  5
13C
100
AcDbEntity
  8
0
100
AcDbBlockBegin
  2
DESENS-G14
 70
0
 10
0.0
 20
0.0
 30
0.0
  3
DESENS-G14
  1

  0
LINE
  5
13D
100
AcDbEntity
100
AcDbLine
  8
HACHURE
 62
5
370
-1
  6
CONTINUOUS
 10
107.2505969999999991
 20
123.6677240000000069
 30
0.0
 11
102.5540459999999996
 21
128.3642759999999896
 31
0.0
  0
LINE
  5
13E
100
AcDbEntity
100
AcDbLine
  8
HACHURE
 62
5
370
-1
  6
CONTINUOUS
 10
100.2863320000000016
 20
127.0397399999999948
 30
0.0
 11
105.9260610000000042
 21
121.4000110000000063
 31
0.0
  0
LINE
  5
13F
100
AcDbEntity
100
AcDbLine
  8
HACHURE
 62
5
370
-1
  6
CONTINUOUS
 10
103.2944820000000021
 20
120.439707999999996
 30
0.0
 11
99.3260300000000029
 21
124.4081610000000069
 31
0.0
  0
ENDBLK
  5
140
100
AcDbEntity
  8
0
100
AcDbBlockEnd
  0
BLOCK
  5
141
100
AcDbEntity
  8
0
100
AcDbBlockBegin
  2
DESENS-G15
 70
0
 10
0.0
 20
0.0
 30
0.0
  3
DESENS-G15
  1

  0
LINE
  5
142
100
AcDbEntity
100
AcDbLine
  8
HACHURE
 62
5
370
-1
  6
CONTINUOUS
 10
70.900141000000005
 20
119.3934919999999948
 30
0.0
 11
69.3718520000000041
 21
117.8652019999999965
 31
0.0
  0
LINE
  5
143
100
AcDbEntity
100
AcDbLine
  8
HACHURE
 62
5
370
-1
  6
CONTINUOUS
 10
69.6502749999999935
 20
116.3475009999999941
 30
0.0
 11
72.4178430000000048
 21
119.1150690000000054
 31
0.0
  0
LINE
  5
144
100
AcDbEntity
100
AcDbLine
  8
HACHURE
 62
5
370
-1
  6
CONTINUOUS
 10
73.209746999999993
 20
118.1110319999999945
 30
0.0
 11
70.654311000000007
 21
115.5555959999999942
 31
0.0
  0
ENDBLK
  5
145
100
AcDbEntity
  8
0
100
AcDbBlockEnd
  0
BLOCK
  5
146
100
AcDbEntity
  8
0
100
AcDbBlockBegin
  2
DESENS-G16
 70
0
 10
0.0
 20
0.0
 30
0.0
  3
DESENS-G16
  1

  0
LINE
  5
147
100
AcDbEntity
100
AcDbLine
  8
HACHURE
 62
5
370
-1
  6
CONTINUOUS
 10
235.3256089999999858
 20
147.1889290000000017
 30
0.0
 11
235.1503020000000106
 21
147.4392919999999947
 31
0.0
  0
LINE
  5
148
100
AcDbEntity
100
AcDbLine
  8
HACHURE
 62
5
370
-1
  6
CONTINUOUS
 10
232.0489499999999907
 20
147.4394969999999887
 30
0.0
 11
234.1498349999999959
 21
144.4391219999999976
 31
0.0
  0
LINE
  5
149
100
AcDbEntity
100
AcDbLine
  8
HACHURE
 62
5
370
-1
  6
CONTINUOUS
 10
231.0494799999999884
 20
144.4400249999999915
 30
0.0
 11
228.9492930000000115
 21
147.4394029999999987
 31
0.0
  0
LINE
  5
14A
100
AcDbEntity
100
AcDbLine
  8
HACHURE
 62
5
370
-1
  6
CONTINUOUS
 10
225.8479399999999941
 20
147.4396089999999901
 30
0.0
 11
227.9481269999999995
 21
144.4402300000000139
 31
0.0
  0
LINE
  5
14B
100
AcDbEntity
100
AcDbLine
  8
HACHURE
 62
5
370
-1
  6
CONTINUOUS
 10
224.8467740000000106
 20
144.4404360000000054
 30
0.0
 11
222.7465870000000052
 21
147.4398140000000126
 31
0.0
  0
LINE
  5
14C
100
AcDbEntity
100
AcDbLine
  8
HACHURE
 62
5
370
-1
  6
CONTINUOUS
 10
219.6452339999999879
 20
147.4400190000000066
 30
0.0
 11
221.7454219999999907
 21
144.4406409999999994
 31
0.0
  0
LINE
  5
14D
100
AcDbEntity
100
AcDbLine
  8
HACHURE
 62
5
370
-1
  6
CONTINUOUS
 10
218.6457650000000115
 20
144.4405470000000093
 30
0.0
 11
216.5455780000000061
 21
147.4399249999999881
 31
0.0
  0
LINE
  5
14E
100
AcDbEntity
100
AcDbLine
  8
HACHURE
 62
5
370
-1
  6
CONTINUOUS
 10
213.4442249999999888
 20
147.4401300000000106
 30
0.0
 11
216.0703320000000076
 21
143.6896600000000035
 31
0.0
  0
LINE
  5
14F
100
AcDbEntity
100
AcDbLine
  8
HACHURE
 62
5
370
-1
  6
CONTINUOUS
 10
212.9689789999999903
 20
143.6898649999999975
 30
0.0
 11
210.3428719999999998
 21
147.4403350000000046
 31
0.0
  0
LINE
  5
150
100
AcDbEntity
100
AcDbLine
  8
HACHURE
 62
5
370
-1
  6
CONTINUOUS
 10
207.2432149999999922
 20
147.4402409999999861
 30
0.0
 11
209.8686240000000112
 21
143.6907689999999889
 31
0.0
  0
LINE
  5
151
100
AcDbEntity
100
AcDbLine
  8
HACHURE
 62
5
370
-1
  6
CONTINUOUS
 10
206.9369900000000086
 20
143.4485899999999958
 30
0.0
 11
204.1418630000000007
 21
147.4404460000000086
 31
0.0
  0
LINE
  5
152
100
AcDbEntity
100
AcDbLine
  8
HACHURE
 62
5
370
-1
  6
CONTINUOUS
 10
201.0405100000000118
 20
147.4406510000000026
 30
0.0
 11
205.5356229999999869
 21
141.0209649999999897
 31
0.0
  0
LINE
  5
153
100
AcDbEntity
100
AcDbLine
  8
HACHURE
 62
5
370
-1
  6
CONTINUOUS
 10
202.8424540000000036
 20
140.4403460000000052
 30
0.0
 11
199.1135209999999915
 21
145.7658130000000085
 31
0.0
  0
LINE
  5
154
100
AcDbEntity
100
AcDbLine
  8
HACHURE
 62
5
370
-1
  6
CONTINUOUS
 10
198.8010099999999909
 20
141.7831390000000056
 30
0.0
 11
199.7411009999999862
 21
140.4405509999999992
 31
0.0
  0
ENDBLK
  5
155
100
AcDbEntity
  8
0
100
AcDbBlockEnd
  0
BLOCK
  5
156
100
AcDbEntity
  8
0
100
AcDbBlockBegin
  2
DESENS-G17
 70
0
 10
0.0
 20
0.0
 30
0.0
  3
DESENS-G17
  1

  0
LINE
  5
157
100
AcDbEntity
100
AcDbLine
  8
HACHURE
 62
5
370
-1
  6
CONTINUOUS
 10
54.7569919999999968
 20
245.7577430000000049
 30
0.0
 11
52.449503
 21
240.8093179999999904
 31
0.0
  0
LINE
  5
158
100
AcDbEntity
100
AcDbLine
  8
HACHURE
 62
5
370
-1
  6
CONTINUOUS
 10
49.9346869999999967
 20
227.9032019999999932
 30
0.0
 11
51.6535709999999995
 21
231.5893609999999967
 31
0.0
  0
LINE
  5
159
100
AcDbEntity
100
AcDbLine
  8
HACHURE
 62
5
370
-1
  6
CONTINUOUS
 10
53.8310099999999991
 20
236.258892000000003
 30
0.0
 11
56.506376000000003
 21
241.9962329999999895
 31
0.0
  0
LINE
  5
15A
100
AcDbEntity
100
AcDbLine
  8
HACHURE
 62
5
370
-1
  6
CONTINUOUS
 10
59.4381380000000021
 20
240.7703429999999969
 30
0.0
 11
57.0427570000000017
 21
235.6334319999999991
 31
0.0
  0
LINE
  5
15B
100
AcDbEntity
100
AcDbLine
  8
HACHURE
 62
5
370
-1
  6
CONTINUOUS
 10
54.8649210000000025
 20
230.9630469999999889
 30
0.0
 11
51.3905639999999977
 21
223.5122650000000135
 31
0.0
  0
LINE
  5
15C
100
AcDbEntity
100
AcDbLine
  8
HACHURE
 62
5
370
-1
  6
CONTINUOUS
 10
50.9650189999999981
 20
222.5996810000000039
 30
0.0
 11
50.7279869999999988
 21
222.0913630000000012
 31
0.0
  0
LINE
  5
15D
100
AcDbEntity
100
AcDbLine
  8
HACHURE
 62
5
370
-1
  6
CONTINUOUS
 10
55.6804350000000028
 20
225.2010730000000081
 30
0.0
 11
58.0758160000000032
 21
230.3379840000000058
 31
0.0
  0
LINE
  5
15E
100
AcDbEntity
100
AcDbLine
  8
HACHURE
 62
5
370
-1
  6
CONTINUOUS
 10
60.2532539999999983
 20
235.0075160000000096
 30
0.0
 11
62.6486349999999987
 21
240.1444280000000049
 31
0.0
  0
LINE
  5
15F
100
AcDbEntity
100
AcDbLine
  8
HACHURE
 62
5
370
-1
  6
CONTINUOUS
 10
65.8603829999999988
 20
239.5189670000000035
 30
0.0
 11
63.1384860000000003
 21
233.6818389999999965
 31
0.0
  0
LINE
  5
160
100
AcDbEntity
100
AcDbLine
  8
HACHURE
 62
5
370
-1
  6
CONTINUOUS
 10
61.6140800000000013
 20
230.4127400000000137
 30
0.0
 11
58.8921819999999983
 21
224.5756120000000067
 31
0.0
  0
LINE
  5
161
100
AcDbEntity
100
AcDbLine
  8
HACHURE
 62
5
370
-1
  6
CONTINUOUS
 10
62.1035320000000013
 20
223.9492989999999963
 30
0.0
 11
69.0717329999999947
 21
238.8926539999999932
 31
0.0
  0
LINE
  5
162
100
AcDbEntity
100
AcDbLine
  8
HACHURE
 62
5
370
-1
  6
CONTINUOUS
 10
72.2834809999999948
 20
238.2671929999999918
 30
0.0
 11
65.3152800000000013
 21
223.323837999999995
 31
0.0
  0
LINE
  5
163
100
AcDbEntity
100
AcDbLine
  8
HACHURE
 62
5
370
-1
  6
CONTINUOUS
 10
68.5266299999999973
 20
222.6975250000000131
 30
0.0
 11
75.4952279999999973
 21
237.6417329999999879
 31
0.0
  0
LINE
  5
164
100
AcDbEntity
100
AcDbLine
  8
HACHURE
 62
5
370
-1
  6
CONTINUOUS
 10
75.5177740000000028
 20
230.1770070000000032
 30
0.0
 11
71.7383769999999998
 21
222.0720650000000091
 31
0.0
  0
ENDBLK
  5
165
100
AcDbEntity
  8
0
100
AcDbBlockEnd
  0
BLOCK
  5
166
100
AcDbEntity
  8
0
100
AcDbBlockBegin
  2
DESENS-G18
 70
0
 10
0.0
 20
0.0
 30
0.0
  3
DESENS-G18
  1

  0
LINE
  5
167
100
AcDbEntity
100
AcDbLine
  8
HACHURE
 62
5
370
-1
  6
CONTINUOUS
 10
43.9584189999999992
 20
230.2934759999999983
 30
0.0
 11
43.199899000000002
 21
229.9397720000000049
 31
0.0
  0
LINE
  5
168
100
AcDbEntity
100
AcDbLine
  8
HACHURE
 62
5
370
-1
  6
CONTINUOUS
 10
42.8243969999999976
 20
228.0129900000000021
 30
0.0
 11
46.6076619999999977
 21
229.7771559999999909
 31
0.0
  0
LINE
  5
169
100
AcDbEntity
100
AcDbLine
  8
HACHURE
 62
5
370
-1
  6
CONTINUOUS
 10
48.4277579999999972
 20
230.6258809999999926
 30
0.0
 11
49.7512570000000025
 21
231.2430390000000102
 31
0.0
  0
LINE
  5
16A
100
AcDbEntity
100
AcDbLine
  8
HACHURE
 62
5
370
-1
  6
CONTINUOUS
 10
50.2934989999999971
 20
229.7442079999999862
 30
0.0
 11
42.4488940000000028
 21
226.0862089999999966
 31
0.0
  0
LINE
  5
16B
100
AcDbEntity
100
AcDbLine
  8
HACHURE
 62
5
370
-1
  6
CONTINUOUS
 10
42.0735269999999986
 20
224.1597969999999975
 30
0.0
 11
49.9181319999999999
 21
227.817797000000013
 31
0.0
  0
LINE
  5
16C
100
AcDbEntity
100
AcDbLine
  8
HACHURE
 62
5
370
-1
  6
CONTINUOUS
 10
49.5426300000000026
 20
225.8910150000000101
 30
0.0
 11
44.145426999999998
 21
223.3742579999999975
 31
0.0
  0
LINE
  5
16D
100
AcDbEntity
100
AcDbLine
  8
HACHURE
 62
5
370
-1
  6
CONTINUOUS
 10
46.7946700000000035
 20
222.8579379999999901
 30
0.0
 11
49.1671279999999982
 21
223.9642340000000047
 31
0.0
  0
ENDBLK
  5
16E
100
AcDbEntity
  8
0
100
AcDbBlockEnd
  0
BLOCK
  5
16F
100
AcDbEntity
  8
0
100
AcDbBlockBegin
  2
DESENS-G19
 70
0
 10
0.0
 20
0.0
 30
0.0
  3
DESENS-G19
  1

  0
LINE
  5
170
100
AcDbEntity
100
AcDbLine
  8
HACHURE
 62
5
370
-1
  6
CONTINUOUS
 10
32.0443309999999997
 20
167.0240540000000067
 30
0.0
 11
30.8301109999999987
 21
166.4578539999999975
 31
0.0
  0
LINE
  5
171
100
AcDbEntity
100
AcDbLine
  8
HACHURE
 62
5
370
-1
  6
CONTINUOUS
 10
30.4545950000000012
 20
164.5312560000000133
 30
0.0
 11
34.693443000000002
 21
166.5078629999999862
 31
0.0
  0
LINE
  5
172
100
AcDbEntity
100
AcDbLine
  8
HACHURE
 62
5
370
-1
  6
CONTINUOUS
 10
36.0575720000000004
 20
167.1439670000000035
 30
0.0
 11
37.8371709999999979
 21
167.9738069999999936
 31
0.0
  0
LINE
  5
173
100
AcDbEntity
100
AcDbLine
  8
HACHURE
 62
5
370
-1
  6
CONTINUOUS
 10
37.9234459999999984
 20
166.262266000000011
 30
0.0
 11
33.0534609999999986
 21
163.9913549999999987
 31
0.0
  0
LINE
  5
174
100
AcDbEntity
100
AcDbLine
  8
HACHURE
 62
5
370
-1
  6
CONTINUOUS
 10
35.3066469999999981
 20
163.2905409999999904
 30
0.0
 11
37.5479300000000009
 21
164.3356679999999983
 31
0.0
  0
LINE
  5
175
100
AcDbEntity
100
AcDbLine
  8
HACHURE
 62
5
370
-1
  6
CONTINUOUS
 10
37.1725210000000033
 20
162.4088399999999979
 30
0.0
 11
35.208523999999997
 21
161.4930139999999881
 31
0.0
  0
ENDBLK
  5
176
100
AcDbEntity
  8
0
100
AcDbBlockEnd
  0
BLOCK
  5
177
100
AcDbEntity
  8
0
100
AcDbBlockBegin
  2
DESENS-G20
 70
0
 10
0.0
 20
0.0
 30
0.0
  3
DESENS-G20
  1

  0
LINE
  5
178
100
AcDbEntity
100
AcDbLine
  8
HACHURE
 62
5
370
-1
  6
CONTINUOUS
 10
33.9273290000000003
 20
178.1126830000000041
 30
0.0
 11
33.0183249999999973
 21
177.6888069999999971
 31
0.0
  0
LINE
  5
179
100
AcDbEntity
100
AcDbLine
  8
HACHURE
 62
5
370
-1
  6
CONTINUOUS
 10
35.4120819999999981
 20
177.0532990000000098
 30
0.0
 11
36.576900000000002
 21
177.596463
 31
0.0
  0
LINE
  5
17A
100
AcDbEntity
100
AcDbLine
  8
HACHURE
 62
5
370
-1
  6
CONTINUOUS
 10
39.2259600000000006
 20
177.0802559999999914
 30
0.0
 11
37.8707309999999993
 21
176.4483030000000099
 31
0.0
  0
LINE
  5
17B
100
AcDbEntity
100
AcDbLine
  8
HACHURE
 62
5
370
-1
  6
CONTINUOUS
 10
37.5668640000000025
 20
174.5548719999999889
 30
0.0
 11
39.736305999999999
 21
175.5664989999999932
 31
0.0
  0
ENDBLK
  5
17C
100
AcDbEntity
  8
0
100
AcDbBlockEnd
  0
BLOCK
  5
17D
100
AcDbEntity
  8
0
100
AcDbBlockBegin
  2
DESENS-G21
 70
0
 10
0.0
 20
0.0
 30
0.0
  3
DESENS-G21
  1

  0
LINE
  5
17E
100
AcDbEntity
100
AcDbLine
  8
HACHURE
 62
5
370
-1
  6
CONTINUOUS
 10
102.9477420000000052
 20
160.4213599999999929
 30
0.0
 11
99.3438909999999993
 21
156.8175090000000012
 31
0.0
  0
LINE
  5
17F
100
AcDbEntity
100
AcDbLine
  8
HACHURE
 62
5
370
-1
  6
CONTINUOUS
 10
100.1397549999999939
 20
154.0211229999999887
 30
0.0
 11
105.7441290000000009
 21
159.6254969999999958
 31
0.0
  0
LINE
  5
180
100
AcDbEntity
100
AcDbLine
  8
HACHURE
 62
5
370
-1
  6
CONTINUOUS
 10
107.1885410000000007
 20
157.4780279999999948
 30
0.0
 11
102.2872229999999973
 21
152.5767099999999914
 31
0.0
  0
ENDBLK
  5
181
100
AcDbEntity
  8
0
100
AcDbBlockEnd
  0
BLOCK
  5
182
100
AcDbEntity
  8
0
100
AcDbBlockBegin
  2
DESENS-G22
 70
0
 10
0.0
 20
0.0
 30
0.0
  3
DESENS-G22
  1

  0
LINE
  5
183
100
AcDbEntity
100
AcDbLine
  8
HACHURE
 62
5
370
-1
  6
CONTINUOUS
 10
73.3258150000000057
 20
163.4323829999999873
 30
0.0
 11
72.0032279999999929
 21
165.3212330000000065
 31
0.0
  0
LINE
  5
184
100
AcDbEntity
100
AcDbLine
  8
HACHURE
 62
5
370
-1
  6
CONTINUOUS
 10
70.4962340000000012
 20
165.259174999999999
 30
0.0
 11
72.7521519999999953
 21
162.0373899999999878
 31
0.0
  0
LINE
  5
185
100
AcDbEntity
100
AcDbLine
  8
HACHURE
 62
5
370
-1
  6
CONTINUOUS
 10
71.6065880000000021
 20
161.459384
 30
0.0
 11
69.5612059999999985
 21
164.3804930000000013
 31
0.0
  0
ENDBLK
  5
186
100
AcDbEntity
  8
0
100
AcDbBlockEnd
  0
BLOCK
  5
187
100
AcDbEntity
  8
0
100
AcDbBlockBegin
  2
DESENS-G23
 70
0
 10
0.0
 20
0.0
 30
0.0
  3
DESENS-G23
  1

  0
LINE
  5
188
100
AcDbEntity
100
AcDbLine
  8
HACHURE
 62
5
370
-1
  6
CONTINUOUS
 10
48.0413580000000024
 20
247.0662130000000047
 30
0.0
 11
46.3868980000000022
 21
246.2947249999999997
 31
0.0
  0
LINE
  5
189
100
AcDbEntity
100
AcDbLine
  8
HACHURE
 62
5
370
-1
  6
CONTINUOUS
 10
46.0116439999999969
 20
244.3681850000000111
 30
0.0
 11
50.6906120000000016
 21
246.5500240000000076
 31
0.0
  0
LINE
  5
18A
100
AcDbEntity
100
AcDbLine
  8
HACHURE
 62
5
370
-1
  6
CONTINUOUS
 10
53.3396260000000026
 20
246.0337220000000116
 30
0.0
 11
45.6361490000000032
 21
242.4415309999999977
 31
0.0
  0
LINE
  5
18B
100
AcDbEntity
100
AcDbLine
  8
HACHURE
 62
5
370
-1
  6
CONTINUOUS
 10
45.5791350000000008
 20
240.6630949999999984
 30
0.0
 11
53.1048839999999984
 21
244.1724100000000135
 31
0.0
  0
LINE
  5
18C
100
AcDbEntity
100
AcDbLine
  8
HACHURE
 62
5
370
-1
  6
CONTINUOUS
 10
52.7293889999999976
 20
242.2457569999999976
 30
0.0
 11
48.2283899999999974
 21
240.1469060000000013
 31
0.0
  0
LINE
  5
18D
100
AcDbEntity
100
AcDbLine
  8
HACHURE
 62
5
370
-1
  6
CONTINUOUS
 10
50.1127869999999973
 20
239.2740579999999966
 30
0.0
 11
52.3538950000000014
 21
240.3191030000000126
 31
0.0
  0
LINE
  5
18E
100
AcDbEntity
100
AcDbLine
  8
HACHURE
 62
5
370
-1
  6
CONTINUOUS
 10
51.9784000000000006
 20
238.3924499999999966
 30
0.0
 11
50.3829410000000024
 21
237.6484759999999881
 31
0.0
  0
ENDBLK
  5
18F
100
AcDbEntity
  8
0
100
AcDbBlockEnd
  0
BLOCK
  5
190
100
AcDbEntity
  8
0
100
AcDbBlockBegin
  2
DESENS-G24
 70
0
 10
0.0
 20
0.0
 30
0.0
  3
DESENS-G24
  1

  0
LINE
  5
191
100
AcDbEntity
100
AcDbLine
  8
HACHURE
 62
5
370
-1
  6
CONTINUOUS
 10
140.9251500000000021
 20
158.5379680000000064
 30
0.0
 11
139.3257360000000062
 21
156.2537690000000055
 31
0.0
  0
LINE
  5
192
100
AcDbEntity
100
AcDbLine
  8
HACHURE
 62
5
370
-1
  6
CONTINUOUS
 10
139.3262100000000032
 20
151.2736940000000061
 30
0.0
 11
144.6935929999999928
 21
158.9391119999999944
 31
0.0
  0
LINE
  5
193
100
AcDbEntity
100
AcDbLine
  8
HACHURE
 62
5
370
-1
  6
CONTINUOUS
 10
148.0353279999999927
 20
158.7283270000000073
 30
0.0
 11
141.5313229999999862
 21
149.439643999999987
 31
0.0
  0
LINE
  5
194
100
AcDbEntity
100
AcDbLine
  8
HACHURE
 62
5
370
-1
  6
CONTINUOUS
 10
145.0181029999999964
 20
149.4385310000000118
 30
0.0
 11
150.6197899999999947
 21
157.4385690000000011
 31
0.0
  0
LINE
  5
195
100
AcDbEntity
100
AcDbLine
  8
HACHURE
 62
5
370
-1
  6
CONTINUOUS
 10
156.210675000000009
 20
160.4399029999999868
 30
0.0
 11
148.5077320000000043
 21
149.4389600000000087
 31
0.0
  0
LINE
  5
196
100
AcDbEntity
100
AcDbLine
  8
HACHURE
 62
5
370
-1
  6
CONTINUOUS
 10
151.9953439999999887
 20
149.4390339999999924
 30
0.0
 11
154.3259180000000015
 21
152.767438999999996
 31
0.0
  0
LINE
  5
197
100
AcDbEntity
100
AcDbLine
  8
HACHURE
 62
5
370
-1
  6
CONTINUOUS
 10
155.1459810000000061
 20
153.9386100000000113
 30
0.0
 11
159.698285999999996
 21
160.4399760000000015
 31
0.0
  0
LINE
  5
198
100
AcDbEntity
100
AcDbLine
  8
HACHURE
 62
5
370
-1
  6
CONTINUOUS
 10
163.1870849999999962
 20
160.4392190000000085
 30
0.0
 11
159.6858220000000017
 21
155.4388979999999947
 31
0.0
  0
LINE
  5
199
100
AcDbEntity
100
AcDbLine
  8
HACHURE
 62
5
370
-1
  6
CONTINUOUS
 10
156.3258069999999975
 20
150.6402989999999988
 30
0.0
 11
155.4841419999999914
 21
149.4382760000000019
 31
0.0
  0
LINE
  5
19A
100
AcDbEntity
100
AcDbLine
  8
HACHURE
 62
5
370
-1
  6
CONTINUOUS
 10
163.1734339999999861
 20
155.4389720000000068
 30
0.0
 11
166.6746960000000115
 21
160.4392929999999922
 31
0.0
  0
LINE
  5
19B
100
AcDbEntity
100
AcDbLine
  8
HACHURE
 62
5
370
-1
  6
CONTINUOUS
 10
170.164324999999991
 20
160.4397219999999891
 30
0.0
 11
166.663062999999994
 21
155.4394010000000037
 31
0.0
  0
LINE
  5
19C
100
AcDbEntity
100
AcDbLine
  8
HACHURE
 62
5
370
-1
  6
CONTINUOUS
 10
170.1506740000000093
 20
155.4394749999999874
 30
0.0
 11
173.6519360000000063
 21
160.4397950000000037
 31
0.0
  0
LINE
  5
19D
100
AcDbEntity
100
AcDbLine
  8
HACHURE
 62
5
370
-1
  6
CONTINUOUS
 10
177.1415650000000142
 20
160.4402249999999981
 30
0.0
 11
173.639472000000012
 21
155.4387169999999969
 31
0.0
  0
LINE
  5
19E
100
AcDbEntity
100
AcDbLine
  8
HACHURE
 62
5
370
-1
  6
CONTINUOUS
 10
177.1270839999999964
 20
155.438791000000009
 30
0.0
 11
180.6291769999999985
 21
160.4402980000000127
 31
0.0
  0
LINE
  5
19F
100
AcDbEntity
100
AcDbLine
  8
HACHURE
 62
5
370
-1
  6
CONTINUOUS
 10
183.3241439999999898
 20
159.3083579999999984
 30
0.0
 11
180.6146950000000118
 21
155.4388649999999927
 31
0.0
  0
ENDBLK
  5
1A0
100
AcDbEntity
  8
0
100
AcDbBlockEnd
  0
BLOCK
  5
1A1
100
AcDbEntity
  8
0
100
AcDbBlockBegin
  2
DESENS-G25
 70
0
 10
0.0
 20
0.0
 30
0.0
  3
DESENS-G25
  1

  0
LINE
  5
1A2
100
AcDbEntity
100
AcDbLine
  8
HACHURE
 62
5
370
-1
  6
CONTINUOUS
 10
169.1051040000000114
 20
162.4395879999999863
 30
0.0
 11
167.3257670000000132
 21
161.6098690000000033
 31
0.0
  0
LINE
  5
1A3
100
AcDbEntity
100
AcDbLine
  8
HACHURE
 62
5
370
-1
  6
CONTINUOUS
 10
169.3232490000000041
 20
160.4392890000000023
 30
0.0
 11
173.6129880000000014
 21
162.4396270000000015
 31
0.0
  0
LINE
  5
1A4
100
AcDbEntity
100
AcDbLine
  8
HACHURE
 62
5
370
-1
  6
CONTINUOUS
 10
178.1212250000000097
 20
162.4398319999999956
 30
0.0
 11
173.8314870000000099
 21
160.4394939999999963
 31
0.0
  0
LINE
  5
1A5
100
AcDbEntity
100
AcDbLine
  8
HACHURE
 62
5
370
-1
  6
CONTINUOUS
 10
178.3384969999999896
 20
160.4395570000000077
 30
0.0
 11
179.325523000000004
 21
160.8998149999999896
 31
0.0
  0
ENDBLK
  5
1A6
100
AcDbEntity
  8
0
100
AcDbBlockEnd
  0
BLOCK
  5
1A7
100
AcDbEntity
  8
0
100
AcDbBlockBegin
  2
DESENS-G26
 70
0
 10
0.0
 20
0.0
 30
0.0
  3
DESENS-G26
  1

  0
LINE
  5
1A8
100
AcDbEntity
100
AcDbLine
  8
HACHURE
 62
5
370
-1
  6
CONTINUOUS
 10
189.852784000000014
 20
164.4383479999999906
 30
0.0
 11
187.3261349999999936
 21
160.8299189999999896
 31
0.0
  0
LINE
  5
1A9
100
AcDbEntity
100
AcDbLine
  8
HACHURE
 62
5
370
-1
  6
CONTINUOUS
 10
187.0398950000000013
 20
155.4386859999999899
 30
0.0
 11
193.3418139999999994
 21
164.4387590000000046
 31
0.0
  0
LINE
  5
1AA
100
AcDbEntity
100
AcDbLine
  8
HACHURE
 62
5
370
-1
  6
CONTINUOUS
 10
196.829416000000009
 20
164.4389189999999985
 30
0.0
 11
190.527497000000011
 21
155.4388460000000123
 31
0.0
  0
LINE
  5
1AB
100
AcDbEntity
100
AcDbLine
  8
HACHURE
 62
5
370
-1
  6
CONTINUOUS
 10
194.0165269999999964
 20
155.4392569999999978
 30
0.0
 11
200.3178580000000011
 21
164.4384900000000016
 31
0.0
  0
LINE
  5
1AC
100
AcDbEntity
100
AcDbLine
  8
HACHURE
 62
5
370
-1
  6
CONTINUOUS
 10
203.8068879999999865
 20
164.438902000000013
 30
0.0
 11
197.5049689999999885
 21
155.4388280000000009
 31
0.0
  0
LINE
  5
1AD
100
AcDbEntity
100
AcDbLine
  8
HACHURE
 62
5
370
-1
  6
CONTINUOUS
 10
200.9925709999999981
 20
155.4389879999999948
 30
0.0
 11
207.2944899999999961
 21
164.4390610000000095
 31
0.0
  0
LINE
  5
1AE
100
AcDbEntity
100
AcDbLine
  8
HACHURE
 62
5
370
-1
  6
CONTINUOUS
 10
207.3258460000000127
 20
159.501402000000013
 30
0.0
 11
204.4816010000000119
 21
155.4393990000000088
 31
0.0
  0
LINE
  5
1AF
100
AcDbEntity
100
AcDbLine
  8
HACHURE
 62
5
370
-1
  6
CONTINUOUS
 10
207.970043000000004
 20
155.4389710000000093
 30
0.0
 11
212.1717150000000061
 21
161.4395800000000065
 31
0.0
  0
LINE
  5
1B0
100
AcDbEntity
100
AcDbLine
  8
HACHURE
 62
5
370
-1
  6
CONTINUOUS
 10
215.6601569999999981
 20
161.4391510000000096
 30
0.0
 11
211.4590739999999869
 21
155.4393819999999948
 31
0.0
  0
LINE
  5
1B1
100
AcDbEntity
100
AcDbLine
  8
HACHURE
 62
5
370
-1
  6
CONTINUOUS
 10
214.9466759999999965
 20
155.4395419999999888
 30
0.0
 11
218.3243630000000053
 21
160.2633800000000122
 31
0.0
  0
ENDBLK
  5
1B2
100
AcDbEntity
  8
0
100
AcDbBlockEnd
  0
BLOCK
  5
1B3
100
AcDbEntity
  8
0
100
AcDbBlockBegin
  2
DESENS-G27
 70
0
 10
0.0
 20
0.0
 30
0.0
  3
DESENS-G27
  1

  0
LINE
  5
1B4
100
AcDbEntity
100
AcDbLine
  8
HACHURE
 62
5
370
-1
  6
CONTINUOUS
 10
239.6244309999999871
 20
160.4394350000000031
 30
0.0
 11
238.0865499999999884
 21
157.7757469999999955
 31
0.0
  0
LINE
  5
1B5
100
AcDbEntity
100
AcDbLine
  8
HACHURE
 62
5
370
-1
  6
CONTINUOUS
 10
239.4222049999999911
 20
157.3394470000000069
 30
0.0
 11
241.1858760000000075
 21
160.3942160000000001
 31
0.0
  0
LINE
  5
1B6
100
AcDbEntity
100
AcDbLine
  8
HACHURE
 62
5
370
-1
  6
CONTINUOUS
 10
241.9253870000000006
 20
158.9256379999999922
 30
0.0
 11
241.0096450000000061
 21
157.3395260000000064
 31
0.0
  0
LINE
  5
1B7
100
AcDbEntity
100
AcDbLine
  8
HACHURE
 62
5
370
-1
  6
CONTINUOUS
 10
241.7645060000000115
 20
159.6557830000000138
 30
0.0
 11
237.8872990000000129
 21
159.6557830000000138
 31
0.0
  0
LINE
  5
1B8
100
AcDbEntity
100
AcDbLine
  8
HACHURE
 62
5
370
-1
  6
CONTINUOUS
 10
237.8260490000000118
 20
158.2809220000000039
 30
0.0
 11
241.8257560000000126
 21
158.2809220000000039
 31
0.0
  0
ENDBLK
  5
1B9
100
AcDbEntity
  8
0
100
AcDbBlockEnd
  0
BLOCK
  5
1BA
100
AcDbEntity
  8
0
100
AcDbBlockBegin
  2
DESENS-G28
 70
0
 10
0.0
 20
0.0
 30
0.0
  3
DESENS-G28
  1

  0
LINE
  5
1BB
100
AcDbEntity
100
AcDbLine
  8
HACHURE
 62
5
370
-1
  6
CONTINUOUS
 10
369.524675000000002
 20
154.9665990000000022
 30
0.0
 11
367.5085920000000215
 21
156.9826820000000112
 31
0.0
  0
LINE
  5
1BC
100
AcDbEntity
100
AcDbLine
  8
HACHURE
 62
5
370
-1
  6
CONTINUOUS
 10
365.5248339999999985
 20
153.5790020000000027
 30
0.0
 11
369.5247749999999769
 21
149.5790609999999958
 31
0.0
  0
LINE
  5
1BD
100
AcDbEntity
100
AcDbLine
  8
HACHURE
 62
5
370
-1
  6
CONTINUOUS
 10
369.5248119999999972
 20
144.1894340000000057
 30
0.0
 11
365.5249630000000138
 21
148.189282999999989
 31
0.0
  0
LINE
  5
1BE
100
AcDbEntity
100
AcDbLine
  8
HACHURE
 62
5
370
-1
  6
CONTINUOUS
 10
365.5250619999999913
 20
142.8017440000000136
 30
0.0
 11
369.5249109999999746
 21
138.8018950000000018
 31
0.0
  0
LINE
  5
1BF
100
AcDbEntity
100
AcDbLine
  8
HACHURE
 62
5
370
-1
  6
CONTINUOUS
 10
369.5250110000000063
 20
133.4143569999999954
 30
0.0
 11
365.5250700000000279
 21
137.4142980000000023
 31
0.0
  0
LINE
  5
1C0
100
AcDbEntity
100
AcDbLine
  8
HACHURE
 62
5
370
-1
  6
CONTINUOUS
 10
365.5251989999999864
 20
132.0245789999999886
 30
0.0
 11
369.5250480000000266
 21
128.0247300000000052
 31
0.0
  0
LINE
  5
1C1
100
AcDbEntity
100
AcDbLine
  8
HACHURE
 62
5
370
-1
  6
CONTINUOUS
 10
369.525147000000004
 20
122.6371919999999989
 30
0.0
 11
365.5252990000000182
 21
126.6370409999999964
 31
0.0
  0
LINE
  5
1C2
100
AcDbEntity
100
AcDbLine
  8
HACHURE
 62
5
370
-1
  6
CONTINUOUS
 10
365.5253060000000005
 20
121.2495949999999993
 30
0.0
 11
367.1197030000000154
 21
119.6551979999999986
 31
0.0
  0
ENDBLK
  5
1C3
100
AcDbEntity
  8
0
100
AcDbBlockEnd
  0
BLOCK
  5
1C4
100
AcDbEntity
  8
0
100
AcDbBlockBegin
  2
DESENS-G29
 70
0
 10
0.0
 20
0.0
 30
0.0
  3
DESENS-G29
  1

  0
LINE
  5
1C5
100
AcDbEntity
100
AcDbLine
  8
HACHURE
 62
5
370
-1
  6
CONTINUOUS
 10
389.5246660000000247
 20
156.5200150000000008
 30
0.0
 11
389.0620079999999916
 21
156.9826730000000055
 31
0.0
  0
LINE
  5
1C6
100
AcDbEntity
100
AcDbLine
  8
HACHURE
 62
5
370
-1
  6
CONTINUOUS
 10
385.5248250000000212
 20
155.1324180000000013
 30
0.0
 11
389.5246730000000071
 21
151.1325689999999895
 31
0.0
  0
LINE
  5
1C7
100
AcDbEntity
100
AcDbLine
  8
HACHURE
 62
5
370
-1
  6
CONTINUOUS
 10
389.5248020000000224
 20
145.7428500000000042
 30
0.0
 11
385.5249529999999822
 21
149.7426989999999876
 31
0.0
  0
LINE
  5
1C8
100
AcDbEntity
100
AcDbLine
  8
HACHURE
 62
5
370
-1
  6
CONTINUOUS
 10
385.5249610000000189
 20
144.3552520000000072
 30
0.0
 11
389.5249019999999973
 21
140.3553110000000004
 31
0.0
  0
LINE
  5
1C9
100
AcDbEntity
100
AcDbLine
  8
HACHURE
 62
5
370
-1
  6
CONTINUOUS
 10
389.5249099999999771
 20
134.9678649999999891
 30
0.0
 11
385.5250609999999938
 21
138.9677140000000009
 31
0.0
  0
LINE
  5
1CA
100
AcDbEntity
100
AcDbLine
  8
HACHURE
 62
5
370
-1
  6
CONTINUOUS
 10
385.5251900000000091
 20
133.5779949999999872
 30
0.0
 11
389.5250389999999925
 21
129.5781460000000038
 31
0.0
  0
LINE
  5
1CB
100
AcDbEntity
100
AcDbLine
  8
HACHURE
 62
5
370
-1
  6
CONTINUOUS
 10
389.5251380000000268
 20
124.1906079999999974
 30
0.0
 11
385.5251969999999915
 21
128.1905490000000043
 31
0.0
  0
LINE
  5
1CC
100
AcDbEntity
100
AcDbLine
  8
HACHURE
 62
5
370
-1
  6
CONTINUOUS
 10
385.5252970000000232
 20
122.8030109999999979
 30
0.0
 11
388.6731189999999856
 21
119.6551879999999954
 31
0.0
  0
ENDBLK
  5
1CD
100
AcDbEntity
  8
0
100
AcDbBlockEnd
  0
BLOCK
  5
1CE
100
AcDbEntity
  8
0
100
AcDbBlockBegin
  2
DESENS-G30
 70
0
 10
0.0
 20
0.0
 30
0.0
  3
DESENS-G30
  1

  0
LINE
  5
1CF
100
AcDbEntity
100
AcDbLine
  8
HACHURE
 62
5
370
-1
  6
CONTINUOUS
 10
309.0102509999999825
 20
173.7479629999999986
 30
0.0
 11
307.2691520000000196
 21
170.0141639999999938
 31
0.0
  0
LINE
  5
1D0
100
AcDbEntity
100
AcDbLine
  8
HACHURE
 62
5
370
-1
  6
CONTINUOUS
 10
307.2691790000000083
 20
162.5014119999999878
 30
0.0
 11
312.5136069999999791
 21
173.7481249999999875
 31
0.0
  0
LINE
  5
1D1
100
AcDbEntity
100
AcDbLine
  8
HACHURE
 62
5
370
-1
  6
CONTINUOUS
 10
316.0169639999999731
 20
173.7482870000000048
 30
0.0
 11
307.2694260000000099
 21
154.9891320000000121
 31
0.0
  0
LINE
  5
1D2
100
AcDbEntity
100
AcDbLine
  8
HACHURE
 62
5
370
-1
  6
CONTINUOUS
 10
310.5163499999999885
 20
154.4393729999999891
 30
0.0
 11
319.5201000000000136
 21
173.7479769999999917
 31
0.0
  0
LINE
  5
1D3
100
AcDbEntity
100
AcDbLine
  8
HACHURE
 62
5
370
-1
  6
CONTINUOUS
 10
323.0234570000000076
 20
173.748139000000009
 30
0.0
 11
314.0197069999999826
 21
154.4395350000000064
 31
0.0
  0
LINE
  5
1D4
100
AcDbEntity
100
AcDbLine
  8
HACHURE
 62
5
370
-1
  6
CONTINUOUS
 10
315.2690989999999829
 20
149.6060549999999978
 30
0.0
 11
323.2693509999999719
 21
166.7626500000000078
 31
0.0
  0
LINE
  5
1D5
100
AcDbEntity
100
AcDbLine
  8
HACHURE
 62
5
370
-1
  6
CONTINUOUS
 10
323.269346999999982
 20
159.2510619999999903
 30
0.0
 11
316.8290400000000204
 21
145.4397810000000106
 31
0.0
  0
LINE
  5
1D6
100
AcDbEntity
100
AcDbLine
  8
HACHURE
 62
5
370
-1
  6
CONTINUOUS
 10
320.3321770000000015
 20
145.4394709999999975
 30
0.0
 11
323.2693740000000275
 21
151.7383100000000127
 31
0.0
  0
ENDBLK
  5
1D7
100
AcDbEntity
  8
0
100
AcDbBlockEnd
  0
BLOCK
  5
1D8
100
AcDbEntity
  8
0
100
AcDbBlockBegin
  2
DESENS-G31
 70
0
 10
0.0
 20
0.0
 30
0.0
  3
DESENS-G31
  1

  0
LINE
  5
1D9
100
AcDbEntity
100
AcDbLine
  8
HACHURE
 62
5
370
-1
  6
CONTINUOUS
 10
315.2691599999999994
 20
150.35474099999999
 30
0.0
 11
310.8638720000000149
 21
153.4393570000000011
 31
0.0
  0
LINE
  5
1DA
100
AcDbEntity
100
AcDbLine
  8
HACHURE
 62
5
370
-1
  6
CONTINUOUS
 10
307.2694299999999998
 20
152.080252999999999
 30
0.0
 11
315.2691750000000184
 21
146.4787709999999947
 31
0.0
  0
LINE
  5
1DB
100
AcDbEntity
100
AcDbLine
  8
HACHURE
 62
5
370
-1
  6
CONTINUOUS
 10
311.2175869999999804
 20
145.4397639999999967
 30
0.0
 11
307.2694450000000188
 21
148.2042830000000038
 31
0.0
  0
ENDBLK
  5
1DC
100
AcDbEntity
  8
0
100
AcDbBlockEnd
  0
BLOCK
  5
1DD
100
AcDbEntity
  8
0
100
AcDbBlockBegin
  2
DESENS-G32
 70
0
 10
0.0
 20
0.0
 30
0.0
  3
DESENS-G32
  1

  0
LINE
  5
1DE
100
AcDbEntity
100
AcDbLine
  8
HACHURE
 62
5
370
-1
  6
CONTINUOUS
 10
277.1044600000000173
 20
163.660899999999998
 30
0.0
 11
275.4343400000000202
 21
164.439690000000013
 31
0.0
  0
LINE
  5
1DF
100
AcDbEntity
100
AcDbLine
  8
HACHURE
 62
5
370
-1
  6
CONTINUOUS
 10
271.3256999999999834
 20
162.8520680000000027
 30
0.0
 11
278.325333999999998
 21
159.5880850000000066
 31
0.0
  0
LINE
  5
1E0
100
AcDbEntity
100
AcDbLine
  8
HACHURE
 62
5
370
-1
  6
CONTINUOUS
 10
276.4929779999999937
 20
156.939661000000001
 30
0.0
 11
271.1316009999999892
 21
159.4397119999999859
 31
0.0
  0
LINE
  5
1E1
100
AcDbEntity
100
AcDbLine
  8
HACHURE
 62
5
370
-1
  6
CONTINUOUS
 10
269.3255350000000021
 20
160.2818939999999941
 30
0.0
 11
266.8429239999999822
 21
161.4395550000000128
 31
0.0
  0
LINE
  5
1E2
100
AcDbEntity
100
AcDbLine
  8
HACHURE
 62
5
370
-1
  6
CONTINUOUS
 10
260.3260189999999739
 20
160.9749250000000131
 30
0.0
 11
272.4039859999999749
 21
155.3428759999999897
 31
0.0
  0
LINE
  5
1E3
100
AcDbEntity
100
AcDbLine
  8
HACHURE
 62
5
370
-1
  6
CONTINUOUS
 10
278.3258720000000039
 20
149.0785899999999913
 30
0.0
 11
268.3258630000000267
 21
153.7416699999999992
 31
0.0
  0
LINE
  5
1E4
100
AcDbEntity
100
AcDbLine
  8
HACHURE
 62
5
370
-1
  6
CONTINUOUS
 10
264.6845240000000103
 20
155.4396549999999877
 30
0.0
 11
260.3257500000000277
 21
157.4721849999999961
 31
0.0
  0
LINE
  5
1E5
100
AcDbEntity
100
AcDbLine
  8
HACHURE
 62
5
370
-1
  6
CONTINUOUS
 10
268.3258779999999888
 20
150.2381509999999878
 30
0.0
 11
278.3258860000000254
 21
145.5750710000000083
 31
0.0
  0
LINE
  5
1E6
100
AcDbEntity
100
AcDbLine
  8
HACHURE
 62
5
370
-1
  6
CONTINUOUS
 10
271.1045389999999884
 20
145.4395739999999932
 30
0.0
 11
268.3256079999999884
 21
146.7354109999999991
 31
0.0
  0
ENDBLK
  5
1E7
100
AcDbEntity
  8
0
100
AcDbBlockEnd
  0
BLOCK
  5
1E8
100
AcDbEntity
  8
0
100
AcDbBlockBegin
  2
DESENS-G33
 70
0
 10
0.0
 20
0.0
 30
0.0
  3
DESENS-G33
  1

  0
LINE
  5
1E9
100
AcDbEntity
100
AcDbLine
  8
HACHURE
 62
5
370
-1
  6
CONTINUOUS
 10
307.2692109999999843
 20
153.5542350000000056
 30
0.0
 11
307.0839639999999804
 21
153.739483000000007
 31
0.0
  0
LINE
  5
1EA
100
AcDbEntity
100
AcDbLine
  8
HACHURE
 62
5
370
-1
  6
CONTINUOUS
 10
303.2693199999999933
 20
152.1660359999999912
 30
0.0
 11
307.2691689999999767
 21
148.1661870000000079
 31
0.0
  0
LINE
  5
1EB
100
AcDbEntity
100
AcDbLine
  8
HACHURE
 62
5
370
-1
  6
CONTINUOUS
 10
304.607531999999992
 20
145.439548000000002
 30
0.0
 11
303.2692769999999882
 21
146.7778030000000058
 31
0.0
  0
ENDBLK
  5
1EC
100
AcDbEntity
  8
0
100
AcDbBlockEnd
  0
BLOCK
  5
1ED
100
AcDbEntity
  8
0
100
AcDbBlockBegin
  2
DESENS-G34
 70
0
 10
0.0
 20
0.0
 30
0.0
  3
DESENS-G34
  1

  0
LINE
  5
1EE
100
AcDbEntity
100
AcDbLine
  8
HACHURE
 62
5
370
-1
  6
CONTINUOUS
 10
327.2691810000000032
 20
149.7188879999999926
 30
0.0
 11
323.2693320000000199
 21
153.7187370000000044
 31
0.0
  0
LINE
  5
1EF
100
AcDbEntity
100
AcDbLine
  8
HACHURE
 62
5
370
-1
  6
CONTINUOUS
 10
323.2692900000000122
 20
148.3306880000000092
 30
0.0
 11
326.1604169999999954
 21
145.4395600000000002
 31
0.0
  0
ENDBLK
  5
1F0
100
AcDbEntity
  8
0
100
AcDbBlockEnd
  0
BLOCK
  5
1F1
100
AcDbEntity
  8
0
100
AcDbBlockBegin
  2
DESENS-G35
 70
0
 10
0.0
 20
0.0
 30
0.0
  3
DESENS-G35
  1

  0
LINE
  5
1F2
100
AcDbEntity
100
AcDbLine
  8
HACHURE
 62
5
370
-1
  6
CONTINUOUS
 10
370.9907779999999775
 20
161.4393970000000138
 30
0.0
 11
369.5248209999999744
 21
158.2956419999999866
 31
0.0
  0
LINE
  5
1F3
100
AcDbEntity
100
AcDbLine
  8
HACHURE
 62
5
370
-1
  6
CONTINUOUS
 10
369.5248470000000225
 20
150.782890000000009
 30
0.0
 11
374.4941339999999741
 21
161.4395590000000027
 31
0.0
  0
LINE
  5
1F4
100
AcDbEntity
100
AcDbLine
  8
HACHURE
 62
5
370
-1
  6
CONTINUOUS
 10
377.9972690000000171
 20
161.4392489999999896
 30
0.0
 11
370.2904290000000174
 21
144.911877000000004
 31
0.0
  0
LINE
  5
1F5
100
AcDbEntity
100
AcDbLine
  8
HACHURE
 62
5
370
-1
  6
CONTINUOUS
 10
373.7935640000000035
 20
144.9115669999999909
 30
0.0
 11
381.5006250000000136
 21
161.4394120000000044
 31
0.0
  0
LINE
  5
1F6
100
AcDbEntity
100
AcDbLine
  8
HACHURE
 62
5
370
-1
  6
CONTINUOUS
 10
385.0039800000000128
 20
161.4395739999999932
 30
0.0
 11
377.2969200000000001
 21
144.9117300000000057
 31
0.0
  0
LINE
  5
1F7
100
AcDbEntity
100
AcDbLine
  8
HACHURE
 62
5
370
-1
  6
CONTINUOUS
 10
380.8000559999999837
 20
144.9114199999999926
 30
0.0
 11
385.5247959999999807
 21
155.0436579999999935
 31
0.0
  0
LINE
  5
1F8
100
AcDbEntity
100
AcDbLine
  8
HACHURE
 62
5
370
-1
  6
CONTINUOUS
 10
385.5245699999999829
 20
147.5315980000000025
 30
0.0
 11
384.3027190000000246
 21
144.9113299999999924
 31
0.0
  0
ENDBLK
  5
1F9
100
AcDbEntity
  8
0
100
AcDbBlockEnd
  0
BLOCK
  5
1FA
100
AcDbEntity
  8
0
100
AcDbBlockBegin
  2
DESENS-G36
 70
0
 10
0.0
 20
0.0
 30
0.0
  3
DESENS-G36
  1

  0
LINE
  5
1FB
100
AcDbEntity
100
AcDbLine
  8
HACHURE
 62
5
370
-1
  6
CONTINUOUS
 10
374.5248599999999897
 20
129.4498379999999997
 30
0.0
 11
370.2552440000000047
 21
132.439456000000007
 31
0.0
  0
LINE
  5
1FC
100
AcDbEntity
100
AcDbLine
  8
HACHURE
 62
5
370
-1
  6
CONTINUOUS
 10
369.5250270000000228
 20
129.0748399999999947
 30
0.0
 11
370.4323069999999802
 21
128.4395550000000128
 31
0.0
  0
ENDBLK
  5
1FD
100
AcDbEntity
  8
0
100
AcDbBlockEnd
  0
BLOCK
  5
1FE
100
AcDbEntity
  8
0
100
AcDbBlockBegin
  2
DESENS-G37
 70
0
 10
0.0
 20
0.0
 30
0.0
  3
DESENS-G37
  1

  0
LINE
  5
1FF
100
AcDbEntity
100
AcDbLine
  8
HACHURE
 62
5
370
-1
  6
CONTINUOUS
 10
374.5248710000000187
 20
118.5789170000000041
 30
0.0
 11
371.867826999999977
 21
120.4393989999999945
 31
0.0
  0
LINE
  5
200
100
AcDbEntity
100
AcDbLine
  8
HACHURE
 62
5
370
-1
  6
CONTINUOUS
 10
369.5250050000000215
 20
118.2038730000000015
 30
0.0
 11
372.2595119999999724
 21
116.2891500000000065
 31
0.0
  0
ENDBLK
  5
201
100
AcDbEntity
  8
0
100
AcDbBlockEnd
  0
BLOCK
  5
202
100
AcDbEntity
  8
0
100
AcDbBlockBegin
  2
DESENS-G38
 70
0
 10
0.0
 20
0.0
 30
0.0
  3
DESENS-G38
  1

  0
LINE
  5
203
100
AcDbEntity
100
AcDbLine
  8
HACHURE
 62
5
370
-1
  6
CONTINUOUS
 10
381.6689939999999979
 20
138.0016660000000002
 30
0.0
 11
379.9618070000000216
 21
140.4397800000000132
 31
0.0
  0
LINE
  5
204
100
AcDbEntity
100
AcDbLine
  8
HACHURE
 62
5
370
-1
  6
CONTINUOUS
 10
376.861235000000022
 20
140.4397409999999979
 30
0.0
 11
379.8199030000000107
 21
136.2143250000000023
 31
0.0
  0
LINE
  5
205
100
AcDbEntity
100
AcDbLine
  8
HACHURE
 62
5
370
-1
  6
CONTINUOUS
 10
377.1148089999999797
 20
135.6489390000000128
 30
0.0
 11
373.7602269999999862
 21
140.4397779999999898
 31
0.0
  0
ENDBLK
  5
206
100
AcDbEntity
  8
0
100
AcDbBlockEnd
  0
BLOCK
  5
207
100
AcDbEntity
  8
0
100
AcDbBlockBegin
  2
DESENS-G39
 70
0
 10
0.0
 20
0.0
 30
0.0
  3
DESENS-G39
  1

  0
LINE
  5
208
100
AcDbEntity
100
AcDbLine
  8
HACHURE
 62
5
370
-1
  6
CONTINUOUS
 10
304.38973900000002
 20
145.4393579999999986
 30
0.0
 11
303.2694169999999758
 21
144.3190360000000112
 31
0.0
  0
LINE
  5
209
100
AcDbEntity
100
AcDbLine
  8
HACHURE
 62
5
370
-1
  6
CONTINUOUS
 10
305.0835870000000227
 20
143.4395719999999983
 30
0.0
 11
307.0833739999999921
 21
145.4393579999999986
 31
0.0
  0
LINE
  5
20A
100
AcDbEntity
100
AcDbLine
  8
HACHURE
 62
5
370
-1
  6
CONTINUOUS
 10
309.7781140000000164
 20
145.4393579999999986
 30
0.0
 11
307.7783269999999902
 21
143.4395719999999983
 31
0.0
  0
LINE
  5
20B
100
AcDbEntity
100
AcDbLine
  8
HACHURE
 62
5
370
-1
  6
CONTINUOUS
 10
310.4719620000000191
 20
143.4395719999999983
 30
0.0
 11
312.471747999999991
 21
145.4393579999999986
 31
0.0
  0
LINE
  5
20C
100
AcDbEntity
100
AcDbLine
  8
HACHURE
 62
5
370
-1
  6
CONTINUOUS
 10
315.1664880000000153
 20
145.4393579999999986
 30
0.0
 11
313.1667019999999866
 21
143.4395719999999983
 31
0.0
  0
LINE
  5
20D
100
AcDbEntity
100
AcDbLine
  8
HACHURE
 62
5
370
-1
  6
CONTINUOUS
 10
315.8603370000000155
 20
143.4395719999999983
 30
0.0
 11
317.8601229999999873
 21
145.4393579999999986
 31
0.0
  0
LINE
  5
20E
100
AcDbEntity
100
AcDbLine
  8
HACHURE
 62
5
370
-1
  6
CONTINUOUS
 10
320.5537580000000162
 20
145.4393579999999986
 30
0.0
 11
318.5539719999999875
 21
143.4395719999999983
 31
0.0
  0
LINE
  5
20F
100
AcDbEntity
100
AcDbLine
  8
HACHURE
 62
5
370
-1
  6
CONTINUOUS
 10
321.2487110000000143
 20
143.4395719999999983
 30
0.0
 11
323.2484979999999837
 21
145.4393579999999986
 31
0.0
  0
LINE
  5
210
100
AcDbEntity
100
AcDbLine
  8
HACHURE
 62
5
370
-1
  6
CONTINUOUS
 10
325.9421330000000125
 20
145.4393579999999986
 30
0.0
 11
323.9423459999999864
 21
143.4395719999999983
 31
0.0
  0
LINE
  5
211
100
AcDbEntity
100
AcDbLine
  8
HACHURE
 62
5
370
-1
  6
CONTINUOUS
 10
326.6370860000000107
 20
143.4395719999999983
 30
0.0
 11
327.268509999999992
 21
144.0709960000000081
 31
0.0
  0
ENDBLK
  5
212
100
AcDbEntity
  8
0
100
AcDbBlockEnd
  0
BLOCK
  5
213
100
AcDbEntity
  8
0
100
AcDbBlockBegin
  2
DESENS-G40
 70
0
 10
0.0
 20
0.0
 30
0.0
  3
DESENS-G40
  1

  0
LINE
  5
214
100
AcDbEntity
100
AcDbLine
  8
HACHURE
 62
5
370
-1
  6
CONTINUOUS
 10
315.2694660000000226
 20
132.1283630000000073
 30
0.0
 11
310.5409960000000069
 21
135.4392729999999858
 31
0.0
  0
LINE
  5
215
100
AcDbEntity
100
AcDbLine
  8
HACHURE
 62
5
370
-1
  6
CONTINUOUS
 10
307.2692799999999806
 20
133.8541319999999928
 30
0.0
 11
315.269237999999973
 21
128.2525009999999952
 31
0.0
  0
LINE
  5
216
100
AcDbEntity
100
AcDbLine
  8
HACHURE
 62
5
370
-1
  6
CONTINUOUS
 10
317.858099999999979
 20
126.4397600000000068
 30
0.0
 11
323.2691970000000197
 21
122.6508690000000001
 31
0.0
  0
LINE
  5
217
100
AcDbEntity
100
AcDbLine
  8
HACHURE
 62
5
370
-1
  6
CONTINUOUS
 10
323.269395999999972
 20
118.7747090000000014
 30
0.0
 11
307.2694789999999898
 21
129.9779709999999966
 31
0.0
  0
LINE
  5
218
100
AcDbEntity
100
AcDbLine
  8
HACHURE
 62
5
370
-1
  6
CONTINUOUS
 10
307.2692519999999945
 20
126.1021089999999987
 30
0.0
 11
323.2691679999999792
 21
114.8988470000000035
 31
0.0
  0
LINE
  5
219
100
AcDbEntity
100
AcDbLine
  8
HACHURE
 62
5
370
-1
  6
CONTINUOUS
 10
323.2693669999999884
 20
111.0226859999999931
 30
0.0
 11
307.2694510000000037
 21
122.2259480000000025
 31
0.0
  0
LINE
  5
21A
100
AcDbEntity
100
AcDbLine
  8
HACHURE
 62
5
370
-1
  6
CONTINUOUS
 10
307.2696500000000128
 20
118.3497870000000063
 30
0.0
 11
323.2691399999999931
 21
107.1468239999999952
 31
0.0
  0
LINE
  5
21B
100
AcDbEntity
100
AcDbLine
  8
HACHURE
 62
5
370
-1
  6
CONTINUOUS
 10
317.757000000000005
 20
107.1310799999999972
 30
0.0
 11
307.2697210000000041
 21
114.4743519999999961
 31
0.0
  0
LINE
  5
21C
100
AcDbEntity
100
AcDbLine
  8
HACHURE
 62
5
370
-1
  6
CONTINUOUS
 10
307.2694930000000113
 20
110.5984899999999982
 30
0.0
 11
312.2215229999999906
 21
107.1310409999999962
 31
0.0
  0
ENDBLK
  5
21D
100
AcDbEntity
  8
0
100
AcDbBlockEnd
  0
BLOCK
  5
21E
100
AcDbEntity
  8
0
100
AcDbBlockBegin
  2
DESENS-G41
 70
0
 10
0.0
 20
0.0
 30
0.0
  3
DESENS-G41
  1

  0
LINE
  5
21F
100
AcDbEntity
100
AcDbLine
  8
HACHURE
 62
5
370
-1
  6
CONTINUOUS
 10
304.4726029999999923
 20
137.4393579999999986
 30
0.0
 11
303.2694169999999758
 21
136.2361720000000105
 31
0.0
  0
LINE
  5
220
100
AcDbEntity
100
AcDbLine
  8
HACHURE
 62
5
370
-1
  6
CONTINUOUS
 10
305.1664519999999925
 20
135.4395719999999983
 30
0.0
 11
307.1662380000000212
 21
137.4393579999999986
 31
0.0
  0
LINE
  5
221
100
AcDbEntity
100
AcDbLine
  8
HACHURE
 62
5
370
-1
  6
CONTINUOUS
 10
309.8609779999999887
 20
137.4393579999999986
 30
0.0
 11
307.8611910000000194
 21
135.4395719999999983
 31
0.0
  0
LINE
  5
222
100
AcDbEntity
100
AcDbLine
  8
HACHURE
 62
5
370
-1
  6
CONTINUOUS
 10
310.5548259999999914
 20
135.4395719999999983
 30
0.0
 11
312.5546130000000176
 21
137.4393579999999986
 31
0.0
  0
LINE
  5
223
100
AcDbEntity
100
AcDbLine
  8
HACHURE
 62
5
370
-1
  6
CONTINUOUS
 10
315.2493519999999876
 20
137.4393579999999986
 30
0.0
 11
313.2495660000000157
 21
135.4395719999999983
 31
0.0
  0
LINE
  5
224
100
AcDbEntity
100
AcDbLine
  8
HACHURE
 62
5
370
-1
  6
CONTINUOUS
 10
315.9432009999999877
 20
135.4395719999999983
 30
0.0
 11
317.9429870000000165
 21
137.4393579999999986
 31
0.0
  0
LINE
  5
225
100
AcDbEntity
100
AcDbLine
  8
HACHURE
 62
5
370
-1
  6
CONTINUOUS
 10
320.6366219999999885
 20
137.4393579999999986
 30
0.0
 11
318.6368360000000166
 21
135.4395719999999983
 31
0.0
  0
LINE
  5
226
100
AcDbEntity
100
AcDbLine
  8
HACHURE
 62
5
370
-1
  6
CONTINUOUS
 10
321.3315749999999866
 20
135.4395719999999983
 30
0.0
 11
323.3313620000000128
 21
137.4393579999999986
 31
0.0
  0
LINE
  5
227
100
AcDbEntity
100
AcDbLine
  8
HACHURE
 62
5
370
-1
  6
CONTINUOUS
 10
326.0249969999999848
 20
137.4393579999999986
 30
0.0
 11
324.0252100000000155
 21
135.4395719999999983
 31
0.0
  0
LINE
  5
228
100
AcDbEntity
100
AcDbLine
  8
HACHURE
 62
5
370
-1
  6
CONTINUOUS
 10
326.719949999999983
 20
135.4395719999999983
 30
0.0
 11
327.268509999999992
 21
135.9881320000000073
 31
0.0
  0
ENDBLK
  5
229
100
AcDbEntity
  8
0
100
AcDbBlockEnd
  0
BLOCK
  5
22A
100
AcDbEntity
  8
0
100
AcDbBlockBegin
  2
DESENS-G42
 70
0
 10
0.0
 20
0.0
 30
0.0
  3
DESENS-G42
  1

  0
LINE
  5
22B
100
AcDbEntity
100
AcDbLine
  8
HACHURE
 62
5
370
-1
  6
CONTINUOUS
 10
303.2692339999999831
 20
146.755722999999989
 30
0.0
 11
301.4293579999999793
 21
147.6136710000000107
 31
0.0
  0
LINE
  5
22C
100
AcDbEntity
100
AcDbLine
  8
HACHURE
 62
5
370
-1
  6
CONTINUOUS
 10
301.2692769999999882
 20
145.9366149999999891
 30
0.0
 11
303.2692319999999881
 21
145.0040209999999945
 31
0.0
  0
LINE
  5
22D
100
AcDbEntity
100
AcDbLine
  8
HACHURE
 62
5
370
-1
  6
CONTINUOUS
 10
303.2692579999999793
 20
143.2525329999999997
 30
0.0
 11
301.2692440000000147
 21
144.1851550000000088
 31
0.0
  0
ENDBLK
  5
22E
100
AcDbEntity
  8
0
100
AcDbBlockEnd
  0
BLOCK
  5
22F
100
AcDbEntity
  8
0
100
AcDbBlockBegin
  2
DESENS-G43
 70
0
 10
0.0
 20
0.0
 30
0.0
  3
DESENS-G43
  1

  0
LINE
  5
230
100
AcDbEntity
100
AcDbLine
  8
HACHURE
 62
5
370
-1
  6
CONTINUOUS
 10
307.2692099999999868
 20
133.1187349999999867
 30
0.0
 11
304.9484640000000013
 21
135.4394819999999982
 31
0.0
  0
LINE
  5
231
100
AcDbEntity
100
AcDbLine
  8
HACHURE
 62
5
370
-1
  6
CONTINUOUS
 10
303.2693610000000035
 20
131.7303939999999898
 30
0.0
 11
307.2692099999999868
 21
127.7305450000000064
 31
0.0
  0
ENDBLK
  5
232
100
AcDbEntity
  8
0
100
AcDbBlockEnd
  0
BLOCK
  5
233
100
AcDbEntity
  8
0
100
AcDbBlockBegin
  2
DESENS-G44
 70
0
 10
0.0
 20
0.0
 30
0.0
  3
DESENS-G44
  1

  0
LINE
  5
234
100
AcDbEntity
100
AcDbLine
  8
HACHURE
 62
5
370
-1
  6
CONTINUOUS
 10
303.2692319999999881
 20
138.1566229999999962
 30
0.0
 11
302.3944319999999948
 21
138.564548000000002
 31
0.0
  0
LINE
  5
235
100
AcDbEntity
100
AcDbLine
  8
HACHURE
 62
5
370
-1
  6
CONTINUOUS
 10
301.2692749999999933
 20
137.3375149999999962
 30
0.0
 11
303.2692299999999932
 21
136.4049210000000016
 31
0.0
  0
LINE
  5
236
100
AcDbEntity
100
AcDbLine
  8
HACHURE
 62
5
370
-1
  6
CONTINUOUS
 10
303.2692559999999844
 20
134.6534330000000068
 30
0.0
 11
301.2692420000000197
 21
135.5860539999999901
 31
0.0
  0
LINE
  5
237
100
AcDbEntity
100
AcDbLine
  8
HACHURE
 62
5
370
-1
  6
CONTINUOUS
 10
301.2730169999999816
 20
133.8325920000000053
 30
0.0
 11
303.2692539999999894
 21
132.9017310000000123
 31
0.0
  0
ENDBLK
  5
238
100
AcDbEntity
  8
0
100
AcDbBlockEnd
  0
BLOCK
  5
239
100
AcDbEntity
  8
0
100
AcDbBlockBegin
  2
DESENS-G45
 70
0
 10
0.0
 20
0.0
 30
0.0
  3
DESENS-G45
  1

  0
LINE
  5
23A
100
AcDbEntity
100
AcDbLine
  8
HACHURE
 62
5
370
-1
  6
CONTINUOUS
 10
329.1390779999999836
 20
147.550329000000005
 30
0.0
 11
327.2692279999999982
 21
148.4222540000000095
 31
0.0
  0
LINE
  5
23B
100
AcDbEntity
100
AcDbLine
  8
HACHURE
 62
5
370
-1
  6
CONTINUOUS
 10
327.2692260000000033
 20
146.6705519999999865
 30
0.0
 11
329.2692400000000248
 21
145.7379310000000032
 31
0.0
  0
LINE
  5
23C
100
AcDbEntity
100
AcDbLine
  8
HACHURE
 62
5
370
-1
  6
CONTINUOUS
 10
329.2692069999999944
 20
143.9864699999999971
 30
0.0
 11
327.2692519999999945
 21
144.9190639999999917
 31
0.0
  0
LINE
  5
23D
100
AcDbEntity
100
AcDbLine
  8
HACHURE
 62
5
370
-1
  6
CONTINUOUS
 10
327.2693090000000211
 20
143.1673350000000084
 30
0.0
 11
328.4475689999999872
 21
142.61790400000001
 31
0.0
  0
ENDBLK
  5
23E
100
AcDbEntity
  8
0
100
AcDbBlockEnd
  0
BLOCK
  5
23F
100
AcDbEntity
  8
0
100
AcDbBlockBegin
  2
DESENS-G46
 70
0
 10
0.0
 20
0.0
 30
0.0
  3
DESENS-G46
  1

  0
LINE
  5
240
100
AcDbEntity
100
AcDbLine
  8
HACHURE
 62
5
370
-1
  6
CONTINUOUS
 10
329.2692069999999944
 20
137.1390710000000013
 30
0.0
 11
327.2692519999999945
 21
138.0716659999999933
 31
0.0
  0
LINE
  5
241
100
AcDbEntity
100
AcDbLine
  8
HACHURE
 62
5
370
-1
  6
CONTINUOUS
 10
327.2692499999999995
 20
136.3199639999999988
 30
0.0
 11
329.2692049999999995
 21
135.3873700000000042
 31
0.0
  0
LINE
  5
242
100
AcDbEntity
100
AcDbLine
  8
HACHURE
 62
5
370
-1
  6
CONTINUOUS
 10
329.2407910000000015
 20
133.6491430000000094
 30
0.0
 11
327.2692759999999907
 21
134.568476000000004
 31
0.0
  0
LINE
  5
243
100
AcDbEntity
100
AcDbLine
  8
HACHURE
 62
5
370
-1
  6
CONTINUOUS
 10
327.2692739999999958
 20
132.8167740000000094
 30
0.0
 11
328.0295459999999821
 21
132.462253000000004
 31
0.0
  0
ENDBLK
  5
244
100
AcDbEntity
  8
0
100
AcDbBlockEnd
  0
BLOCK
  5
245
100
AcDbEntity
  8
0
100
AcDbBlockBegin
  2
DESENS-G47
 70
0
 10
0.0
 20
0.0
 30
0.0
  3
DESENS-G47
  1

  0
LINE
  5
246
100
AcDbEntity
100
AcDbLine
  8
HACHURE
 62
5
370
-1
  6
CONTINUOUS
 10
327.2692099999999868
 20
134.6714240000000018
 30
0.0
 11
326.5011519999999905
 21
135.4394819999999982
 31
0.0
  0
LINE
  5
247
100
AcDbEntity
100
AcDbLine
  8
HACHURE
 62
5
370
-1
  6
CONTINUOUS
 10
323.2693610000000035
 20
133.2830830000000049
 30
0.0
 11
327.2692099999999868
 21
129.2832339999999931
 31
0.0
  0
LINE
  5
248
100
AcDbEntity
100
AcDbLine
  8
HACHURE
 62
5
370
-1
  6
CONTINUOUS
 10
324.0247130000000197
 20
127.1395399999999967
 30
0.0
 11
323.2693610000000035
 21
127.8948919999999987
 31
0.0
  0
ENDBLK
  5
249
100
AcDbEntity
  8
0
100
AcDbBlockEnd
  0
BLOCK
  5
24A
100
AcDbEntity
  8
0
100
AcDbBlockBegin
  2
DESENS-G48
 70
0
 10
0.0
 20
0.0
 30
0.0
  3
DESENS-G48
  1

  0
LINE
  5
24B
100
AcDbEntity
100
AcDbLine
  8
HACHURE
 62
5
370
-1
  6
CONTINUOUS
 10
318.2208049999999844
 20
135.4393410000000131
 30
0.0
 11
315.269410999999991
 21
129.1100559999999859
 31
0.0
  0
LINE
  5
24C
100
AcDbEntity
100
AcDbLine
  8
HACHURE
 62
5
370
-1
  6
CONTINUOUS
 10
317.993739000000005
 20
127.439706000000001
 30
0.0
 11
321.7240059999999744
 21
135.4392880000000048
 31
0.0
  0
LINE
  5
24D
100
AcDbEntity
100
AcDbLine
  8
HACHURE
 62
5
370
-1
  6
CONTINUOUS
 10
323.2689649999999801
 20
131.2397740000000113
 30
0.0
 11
321.4969389999999976
 21
127.439653000000007
 31
0.0
  0
ENDBLK
  5
24E
100
AcDbEntity
  8
0
100
AcDbBlockEnd
  0
BLOCK
  5
24F
100
AcDbEntity
  8
0
100
AcDbBlockBegin
  2
DESENS-G49
 70
0
 10
0.0
 20
0.0
 30
0.0
  3
DESENS-G49
  1

  0
LINE
  5
250
100
AcDbEntity
100
AcDbLine
  8
HACHURE
 62
5
370
-1
  6
CONTINUOUS
 10
385.5249130000000264
 20
131.5824000000000069
 30
0.0
 11
384.3008510000000229
 21
132.4394979999999862
 31
0.0
  0
LINE
  5
251
100
AcDbEntity
100
AcDbLine
  8
HACHURE
 62
5
370
-1
  6
CONTINUOUS
 10
380.5250980000000141
 20
131.207429999999988
 30
0.0
 11
384.47806700000001
 21
128.4395309999999881
 31
0.0
  0
ENDBLK
  5
252
100
AcDbEntity
  8
0
100
AcDbBlockEnd
  0
BLOCK
  5
253
100
AcDbEntity
  8
0
100
AcDbBlockBegin
  2
DESENS-G50
 70
0
 10
0.0
 20
0.0
 30
0.0
  3
DESENS-G50
  1

  0
LINE
  5
254
100
AcDbEntity
100
AcDbLine
  8
HACHURE
 62
5
370
-1
  6
CONTINUOUS
 10
385.5249469999999974
 20
116.8352950000000021
 30
0.0
 11
380.5251069999999913
 21
120.3362209999999948
 31
0.0
  0
LINE
  5
255
100
AcDbEntity
100
AcDbLine
  8
HACHURE
 62
5
370
-1
  6
CONTINUOUS
 10
380.5250810000000001
 20
116.4602509999999995
 30
0.0
 11
380.7693340000000148
 21
116.2892230000000069
 31
0.0
  0
ENDBLK
  5
256
100
AcDbEntity
  8
0
100
AcDbBlockEnd
  0
BLOCK
  5
257
100
AcDbEntity
  8
0
100
AcDbBlockBegin
  2
DESENS-G51
 70
0
 10
0.0
 20
0.0
 30
0.0
  3
DESENS-G51
  1

  0
LINE
  5
258
100
AcDbEntity
100
AcDbLine
  8
HACHURE
 62
5
370
-1
  6
CONTINUOUS
 10
376.1103659999999991
 20
135.4395049999999969
 30
0.0
 11
374.5249000000000024
 21
133.8540390000000002
 31
0.0
  0
LINE
  5
259
100
AcDbEntity
100
AcDbLine
  8
HACHURE
 62
5
370
-1
  6
CONTINUOUS
 10
374.5249000000000024
 20
130.2618820000000142
 30
0.0
 11
379.7025239999999826
 21
135.4395049999999969
 31
0.0
  0
LINE
  5
25A
100
AcDbEntity
100
AcDbLine
  8
HACHURE
 62
5
370
-1
  6
CONTINUOUS
 10
380.5249499999999898
 20
132.6697739999999897
 30
0.0
 11
376.2947389999999928
 21
128.4395629999999926
 31
0.0
  0
LINE
  5
25B
100
AcDbEntity
100
AcDbLine
  8
HACHURE
 62
5
370
-1
  6
CONTINUOUS
 10
379.8866199999999935
 20
128.4395629999999926
 30
0.0
 11
380.5249499999999898
 21
129.0778919999999914
 31
0.0
  0
ENDBLK
  5
25C
100
AcDbEntity
  8
0
100
AcDbBlockEnd
  0
BLOCK
  5
25D
100
AcDbEntity
  8
0
100
AcDbBlockBegin
  2
DESENS-G52
 70
0
 10
0.0
 20
0.0
 30
0.0
  3
DESENS-G52
  1

  0
LINE
  5
25E
100
AcDbEntity
100
AcDbLine
  8
HACHURE
 62
5
370
-1
  6
CONTINUOUS
 10
375.4787959999999885
 20
120.4393759999999958
 30
0.0
 11
374.5250300000000152
 21
119.4856099999999941
 31
0.0
  0
LINE
  5
25F
100
AcDbEntity
100
AcDbLine
  8
HACHURE
 62
5
370
-1
  6
CONTINUOUS
 10
374.5250800000000027
 20
115.8936779999999942
 30
0.0
 11
379.0708650000000262
 21
120.439464000000001
 31
0.0
  0
LINE
  5
260
100
AcDbEntity
100
AcDbLine
  8
HACHURE
 62
5
370
-1
  6
CONTINUOUS
 10
380.5249039999999923
 20
118.301243999999997
 30
0.0
 11
375.6631300000000238
 21
113.4394709999999975
 31
0.0
  0
LINE
  5
261
100
AcDbEntity
100
AcDbLine
  8
HACHURE
 62
5
370
-1
  6
CONTINUOUS
 10
379.2552000000000021
 20
113.4395590000000027
 30
0.0
 11
380.5248159999999871
 21
114.7091740000000044
 31
0.0
  0
ENDBLK
  5
262
100
AcDbEntity
  8
0
100
AcDbBlockEnd
  0
BLOCK
  5
263
100
AcDbEntity
  8
0
100
AcDbBlockBegin
  2
DESENS-G53
 70
0
 10
0.0
 20
0.0
 30
0.0
  3
DESENS-G53
  1

  0
LINE
  5
264
100
AcDbEntity
100
AcDbLine
  8
HACHURE
 62
5
370
-1
  6
CONTINUOUS
 10
369.5528269999999793
 20
170.8252589999999884
 30
0.0
 11
369.5246530000000007
 21
170.7648379999999975
 31
0.0
  0
LINE
  5
265
100
AcDbEntity
100
AcDbLine
  8
HACHURE
 62
5
370
-1
  6
CONTINUOUS
 10
370.5444360000000188
 20
165.4396150000000034
 30
0.0
 11
373.0559329999999818
 21
170.8255379999999946
 31
0.0
  0
LINE
  5
266
100
AcDbEntity
100
AcDbLine
  8
HACHURE
 62
5
370
-1
  6
CONTINUOUS
 10
376.5592920000000277
 20
170.8251239999999882
 30
0.0
 11
374.0477940000000103
 21
165.4392009999999971
 31
0.0
  0
LINE
  5
267
100
AcDbEntity
100
AcDbLine
  8
HACHURE
 62
5
370
-1
  6
CONTINUOUS
 10
377.5509010000000103
 20
165.4394800000000032
 30
0.0
 11
380.0623979999999733
 21
170.8254029999999943
 31
0.0
  0
LINE
  5
268
100
AcDbEntity
100
AcDbLine
  8
HACHURE
 62
5
370
-1
  6
CONTINUOUS
 10
383.5657560000000217
 20
170.824988999999988
 30
0.0
 11
381.0542590000000018
 21
165.4390659999999968
 31
0.0
  0
LINE
  5
269
100
AcDbEntity
100
AcDbLine
  8
HACHURE
 62
5
370
-1
  6
CONTINUOUS
 10
384.5573650000000043
 20
165.439345000000003
 30
0.0
 11
385.5245439999999917
 21
167.5134679999999889
 31
0.0
  0
ENDBLK
  5
26A
100
AcDbEntity
  8
0
100
AcDbBlockEnd
  0
BLOCK
  5
26B
100
AcDbEntity
  8
0
100
AcDbBlockBegin
  2
DESENS-G54
 70
0
 10
0.0
 20
0.0
 30
0.0
  3
DESENS-G54
  1

  0
LINE
  5
26C
100
AcDbEntity
100
AcDbLine
  8
HACHURE
 62
5
370
-1
  6
CONTINUOUS
 10
365.5249850000000151
 20
166.2186350000000061
 30
0.0
 11
365.2096440000000257
 21
166.4394399999999905
 31
0.0
  0
LINE
  5
26D
100
AcDbEntity
100
AcDbLine
  8
HACHURE
 62
5
370
-1
  6
CONTINUOUS
 10
364.1025389999999788
 20
166.4394650000000127
 30
0.0
 11
365.5249630000000138
 21
165.4434730000000116
 31
0.0
  0
LINE
  5
26E
100
AcDbEntity
100
AcDbLine
  8
HACHURE
 62
5
370
-1
  6
CONTINUOUS
 10
365.1377100000000269
 20
164.9394529999999861
 30
0.0
 11
363.5249509999999873
 21
166.0687189999999873
 31
0.0
  0
ENDBLK
  5
26F
100
AcDbEntity
  8
0
100
AcDbBlockEnd
  0
BLOCK
  5
270
100
AcDbEntity
  8
0
100
AcDbBlockBegin
  2
DESENS-G55
 70
0
 10
0.0
 20
0.0
 30
0.0
  3
DESENS-G55
  1

  0
LINE
  5
271
100
AcDbEntity
100
AcDbLine
  8
HACHURE
 62
5
370
-1
  6
CONTINUOUS
 10
365.5249519999999848
 20
161.7100749999999891
 30
0.0
 11
365.1973439999999869
 21
161.9394680000000051
 31
0.0
  0
LINE
  5
272
100
AcDbEntity
100
AcDbLine
  8
HACHURE
 62
5
370
-1
  6
CONTINUOUS
 10
364.3459050000000161
 20
161.7604739999999879
 30
0.0
 11
365.5249830000000202
 21
160.9348750000000052
 31
0.0
  0
LINE
  5
273
100
AcDbEntity
100
AcDbLine
  8
HACHURE
 62
5
370
-1
  6
CONTINUOUS
 10
365.125409999999988
 20
160.4394810000000007
 30
0.0
 11
363.8899630000000229
 21
161.3045510000000036
 31
0.0
  0
LINE
  5
274
100
AcDbEntity
100
AcDbLine
  8
HACHURE
 62
5
370
-1
  6
CONTINUOUS
 10
363.5249640000000113
 20
160.7848679999999888
 30
0.0
 11
364.0181089999999813
 21
160.4395649999999875
 31
0.0
  0
ENDBLK
  5
275
100
AcDbEntity
  8
0
100
AcDbBlockEnd
  0
ENDSEC
  0
SECTION
  2
ENTITIES
  0
LINE
  5
276
100
AcDbEntity
100
AcDbLine
  8
RENFORCE
 62
256
370
-1
  6
ByLayer
 10
220.0
 20
10.0
 30
0.0
 11
410.0
 21
10.0
 31
0.0
  0
LINE
  5
277
100
AcDbEntity
100
AcDbLine
  8
RENFORCE
 62
256
370
-1
  6
ByLayer
 10
220.0
 20
40.0
 30
0.0
 11
410.0
 21
40.0
 31
0.0
  0
LINE
  5
278
100
AcDbEntity
100
AcDbLine
  8
RENFORCE
 62
256
370
-1
  6
ByLayer
 10
220.0
 20
40.0
 30
0.0
 11
220.0
 21
10.0
 31
0.0
  0
LINE
  5
279
100
AcDbEntity
100
AcDbLine
  8
RENFORCE
 62
256
370
-1
  6
ByLayer
 10
410.0
 20
40.0
 30
0.0
 11
410.0
 21
10.0
 31
0.0
  0
LINE
  5
27A
100
AcDbEntity
100
AcDbLine
  8
AXE
 62
256
370
-1
  6
ByLayer
 10
223.0
 20
25.0
 30
0.0
 11
257.0
 21
25.0
 31
0.0
  0
LINE
  5
27B
100
AcDbEntity
100
AcDbLine
  8
AXE
 62
256
370
-1
  6
ByLayer
 10
249.4912073672424526
 20
29.0
 30
0.0
 11
249.4912073672424526
 21
21.0
 31
0.0
  0
MTEXT
  5
27C
100
AcDbEntity
100
AcDbMText
  8
TEXTE
 62
7
370
-1
  6
CONTINUOUS
 10
234.0037869999999884
 20
11.9279770000000003
 30
0.0
 40
7.0
 41
100.0
 71
7
 72
2
  1
A3
  7
ISO9
 50
0.0
 73
0
 44
1.0
  0
LINE
  5
27D
100
AcDbEntity
100
AcDbLine
  8
FIN
 62
256
370
-1
  6
ByLayer
 10
220.0
 20
20.0
 30
0.0
 11
410.0
 21
20.0
 31
0.0
  0
LINE
  5
27E
100
AcDbEntity
100
AcDbLine
  8
FIN
 62
256
370
-1
  6
ByLayer
 10
220.0
 20
30.0
 30
0.0
 11
260.0
 21
30.0
 31
0.0
  0
LINE
  5
27F
100
AcDbEntity
100
AcDbLine
  8
FIN
 62
256
370
-1
  6
ByLayer
 10
260.0
 20
40.0
 30
0.0
 11
260.0
 21
10.0
 31
0.0
  0
CIRCLE
  5
280
100
AcDbEntity
100
AcDbCircle
  8
FORT
 62
256
370
-1
  6
ByLayer
 10
249.4912073672424526
 20
25.0
 30
0.0
 40
3.0
  0
CIRCLE
  5
281
100
AcDbEntity
100
AcDbCircle
  8
FORT
 62
256
370
-1
  6
ByLayer
 10
249.4912073672424526
 20
25.0
 30
0.0
 40
1.4142135623730951
  0
LINE
  5
282
100
AcDbEntity
100
AcDbLine
  8
FORT
 62
256
370
-1
  6
ByLayer
 10
227.4912073672424526
 20
26.4142135623730958
 30
0.0
 11
227.4912073672424526
 21
23.5857864376269042
 31
0.0
  0
LINE
  5
283
100
AcDbEntity
100
AcDbLine
  8
FORT
 62
256
370
-1
  6
ByLayer
 10
239.4912073672424526
 20
28.0
 30
0.0
 11
239.4912073672424526
 21
22.0
 31
0.0
  0
LINE
  5
284
100
AcDbEntity
100
AcDbLine
  8
FORT
 62
256
370
-1
  6
ByLayer
 10
239.4912073672424526
 20
28.0
 30
0.0
 11
227.4912073672424526
 21
26.4142135623730958
 31
0.0
  0
LINE
  5
285
100
AcDbEntity
100
AcDbLine
  8
FORT
 62
256
370
-1
  6
ByLayer
 10
239.4912073672424526
 20
22.0
 30
0.0
 11
227.4912073672424526
 21
23.5857864376269042
 31
0.0
  0
LINE
  5
286
100
AcDbEntity
100
AcDbLine
  8
FORT
 62
256
370
-1
  6
ByLayer
 10
410.0
 20
40.0
 30
0.0
 11
410.0
 21
287.0
 31
0.0
  0
MTEXT
  5
287
100
AcDbEntity
100
AcDbMText
  8
TEXTE
 62
7
370
-1
  6
CONTINUOUS
 10
282.3663417891671088
 20
27.0
 30
0.0
 40
7.0
 41
100.0
 71
7
 72
2
  1
PINCE\~COUPE-CABLE
  7
ISO9
 50
0.0
 73
0
 44
1.0
  0
LINE
  5
288
100
AcDbEntity
100
AcDbLine
  8
FORT
 62
256
370
-1
  6
ByLayer
 10
13.5485148514851481
 20
287.0
 30
0.0
 11
410.0
 21
287.0
 31
0.0
  0
LINE
  5
289
100
AcDbEntity
100
AcDbLine
  8
FORT
 62
256
370
-1
  6
ByLayer
 10
220.0
 20
10.0
 30
0.0
 11
13.5485148514851481
 21
10.0
 31
0.0
  0
LINE
  5
28A
100
AcDbEntity
100
AcDbLine
  8
FORT
 62
256
370
-1
  6
ByLayer
 10
13.5485148514851481
 20
10.0
 30
0.0
 11
13.5485148514851481
 21
287.0
 31
0.0
  0
MTEXT
  5
28B
100
AcDbEntity
100
AcDbMText
  8
TEXTE
 62
7
370
-1
  6
CONTINUOUS
 10
297.4277786496261911
 20
12.6947080000000003
 30
0.0
 40
5.0
 41
100.0
 71
7
 72
2
  1
Dessin\~de\~la\~m\U+00e2choire\~7
  7
normallatin1
 50
0.0
 73
0
 44
1.0
  0
MTEXT
  5
28C
100
AcDbEntity
100
AcDbMText
  8
TEXTE
 62
7
370
-1
  6
CONTINUOUS
 10
228.5955338097676304
 20
32.3186510000000027
 30
0.0
 40
5.0
 41
100.0
 71
7
 72
2
  1
Ech.\~5:1
  7
ISO9
 50
0.0
 73
0
 44
1.0
  0
LINE
  5
28D
100
AcDbEntity
100
AcDbLine
  8
AXE
 62
256
370
-1
  6
ByLayer
 10
278.2550378514851559
 20
230.4121649999999875
 30
0.0
 11
190.2550378514851559
 21
230.4121649999999875
 31
0.0
  0
LINE
  5
28E
100
AcDbEntity
100
AcDbLine
  8
AXE
 62
256
370
-1
  6
ByLayer
 10
234.2550378514851559
 20
66.6697149999999965
 30
0.0
 11
234.2550378514851559
 21
122.6697149999999965
 31
0.0
  0
LINE
  5
28F
100
AcDbEntity
100
AcDbLine
  8
AXE
 62
256
370
-1
  6
ByLayer
 10
199.3324008514851471
 20
94.6697149999999965
 30
0.0
 11
164.5892218514851493
 21
94.6697149999999965
 31
0.0
  0
LINE
  5
290
100
AcDbEntity
100
AcDbLine
  8
AXE
 62
256
370
-1
  6
ByLayer
 10
95.1541068514851531
 20
185.3569830000000138
 30
0.0
 11
95.1541068514851531
 21
195.4121649999999875
 31
0.0
  0
LINE
  5
291
100
AcDbEntity
100
AcDbLine
  8
AXE
 62
256
370
-1
  6
ByLayer
 10
120.5927878514851557
 20
168.6894269999999949
 30
0.0
 11
69.940462851485151
 21
168.6894269999999949
 31
0.0
  0
LINE
  5
292
100
AcDbEntity
100
AcDbLine
  8
AXE
 62
256
370
-1
  6
ByLayer
 10
120.5927878514851557
 20
166.8042489999999987
 30
0.0
 11
69.6688688514851577
 21
166.8042489999999987
 31
0.0
  0
LINE
  5
293
100
AcDbEntity
100
AcDbLine
  8
AXE
 62
256
370
-1
  6
ByLayer
 10
109.2482018514851489
 20
163.6699859999999944
 30
0.0
 11
80.7655458514851574
 21
163.6699859999999944
 31
0.0
  0
LINE
  5
294
100
AcDbEntity
100
AcDbLine
  8
AXE
 62
256
370
-1
  6
ByLayer
 10
95.1541068514851531
 20
152.6456680000000006
 30
0.0
 11
95.1541068514851531
 21
175.4674789999999973
 31
0.0
  0
LINE
  5
295
100
AcDbEntity
100
AcDbLine
  8
AXE
 62
256
370
-1
  6
ByLayer
 10
106.2887698514851564
 20
196.8499300000000005
 30
0.0
 11
82.3722158514851515
 21
196.8499300000000005
 31
0.0
  0
LINE
  5
296
100
AcDbEntity
100
AcDbLine
  8
AXE
 62
256
370
-1
  6
ByLayer
 10
121.1241338514851549
 20
231.2701000000000136
 30
0.0
 11
88.0780628514851571
 21
231.2701000000000136
 31
0.0
  0
LINE
  5
297
100
AcDbEntity
100
AcDbLine
  8
AXE
 62
256
370
-1
  6
ByLayer
 10
234.2550378514851559
 20
186.4121649999999875
 30
0.0
 11
234.2550378514851559
 21
274.4121650000000159
 31
0.0
  0
LINE
  5
298
100
AcDbEntity
100
AcDbLine
  8
AXE
 62
256
370
-1
  6
ByLayer
 10
167.0214108514851432
 20
163.6699859999999944
 30
0.0
 11
216.9896058514851518
 21
163.6755400000000122
 31
0.0
  0
LINE
  5
299
100
AcDbEntity
100
AcDbLine
  8
AXE
 62
256
370
-1
  6
ByLayer
 10
167.0177228514851606
 20
196.8499300000000005
 30
0.0
 11
216.9859188514851382
 21
196.8554829999999924
 31
0.0
  0
LINE
  5
29A
100
AcDbEntity
100
AcDbLine
  8
AXE
 62
256
370
-1
  6
ByLayer
 10
341.9423328514851619
 20
140.6894269999999949
 30
0.0
 11
341.9423328514851619
 21
196.6894269999999949
 31
0.0
  0
LINE
  5
29B
100
AcDbEntity
100
AcDbLine
  8
AXE
 62
256
370
-1
  6
ByLayer
 10
260.0723378514851447
 20
66.6697149999999965
 30
0.0
 11
260.0723378514851447
 21
122.6697149999999965
 31
0.0
  0
LINE
  5
29C
100
AcDbEntity
100
AcDbLine
  8
AXE
 62
256
370
-1
  6
ByLayer
 10
341.9423328514851619
 20
66.6697149999999965
 30
0.0
 11
341.9423328514851619
 21
122.6697149999999965
 31
0.0
  0
LINE
  5
29D
100
AcDbEntity
100
AcDbLine
  8
AXE
 62
256
370
-1
  6
ByLayer
 10
260.0723378514851447
 20
156.8042489999999987
 30
0.0
 11
260.0723378514851447
 21
176.8042489999999987
 31
0.0
  0
LINE
  5
29E
100
AcDbEntity
100
AcDbLine
  8
AXE
 62
256
370
-1
  6
ByLayer
 10
270.0723378514851447
 20
166.8042489999999987
 30
0.0
 11
250.0723378514851447
 21
166.8042489999999987
 31
0.0
  0
LINE
  5
29F
100
AcDbEntity
100
AcDbLine
  8
AXE
 62
256
370
-1
  6
ByLayer
 10
369.9423328514851619
 20
168.6894269999999949
 30
0.0
 11
313.9423328514851619
 21
168.6894269999999949
 31
0.0
  0
LINE
  5
2A0
100
AcDbEntity
100
AcDbLine
  8
INTERROMPU
 62
256
370
-1
  6
ByLayer
 10
176.7575818514851562
 20
100.921354000000008
 30
0.0
 11
206.6520218514851592
 21
100.9180319999999824
 31
0.0
  0
LINE
  5
2A1
100
AcDbEntity
100
AcDbLine
  8
INTERROMPU
 62
256
370
-1
  6
ByLayer
 10
176.7573738514851414
 20
99.046354000000008
 30
0.0
 11
210.5420618514851583
 21
99.0425989999999956
 31
0.0
  0
LINE
  5
2A2
100
AcDbEntity
100
AcDbLine
  8
INTERROMPU
 62
256
370
-1
  6
ByLayer
 10
176.7564008514851537
 20
90.296354000000008
 30
0.0
 11
210.5410888514851422
 21
90.2925989999999956
 31
0.0
  0
LINE
  5
2A3
100
AcDbEntity
100
AcDbLine
  8
INTERROMPU
 62
256
370
-1
  6
ByLayer
 10
176.7561928514851388
 20
88.421354000000008
 30
0.0
 11
206.6506328514851418
 21
88.4180319999999824
 31
0.0
  0
LINE
  5
2A4
100
AcDbEntity
100
AcDbLine
  8
INTERROMPU
 62
256
370
-1
  6
ByLayer
 10
246.7550378514851559
 20
94.6697149999999965
 30
0.0
 11
246.7550378514851559
 21
114.6697149999999965
 31
0.0
  0
LINE
  5
2A5
100
AcDbEntity
100
AcDbLine
  8
INTERROMPU
 62
256
370
-1
  6
ByLayer
 10
221.7550378514851559
 20
94.6697149999999965
 30
0.0
 11
221.7550378514851559
 21
114.6697149999999965
 31
0.0
  0
LINE
  5
2A6
100
AcDbEntity
100
AcDbLine
  8
INTERROMPU
 62
256
370
-1
  6
ByLayer
 10
206.6506328514851418
 20
88.4180319999999824
 30
0.0
 11
206.6520218514851592
 21
100.9180319999999824
 31
0.0
  0
LINE
  5
2A7
100
AcDbEntity
100
AcDbLine
  8
INTERROMPU
 62
256
370
-1
  6
ByLayer
 10
213.0674448514851633
 20
94.6673179999999945
 30
0.0
 11
210.5420618514851583
 21
99.0425989999999956
 31
0.0
  0
LINE
  5
2A8
100
AcDbEntity
100
AcDbLine
  8
INTERROMPU
 62
256
370
-1
  6
ByLayer
 10
210.5410888514851422
 20
90.2925989999999956
 30
0.0
 11
213.0674448514851633
 21
94.6673179999999945
 31
0.0
  0
LINE
  5
2A9
100
AcDbEntity
100
AcDbLine
  8
INTERROMPU
 62
256
370
-1
  6
ByLayer
 10
210.5410888514851422
 20
90.2925989999999956
 30
0.0
 11
210.5420618514851583
 21
99.0425989999999956
 31
0.0
  0
LINE
  5
2AA
100
AcDbEntity
100
AcDbLine
  8
INTERROMPU
 62
256
370
-1
  6
ByLayer
 10
125.1541068514851531
 20
212.0991150000000118
 30
0.0
 11
65.1541068514851531
 21
212.0991150000000118
 31
0.0
  0
LINE
  5
2AB
100
AcDbEntity
100
AcDbLine
  8
INTERROMPU
 62
256
370
-1
  6
ByLayer
 10
115.1541068514851531
 20
171.8042489999999987
 30
0.0
 11
75.1541068514851531
 21
171.8042489999999987
 31
0.0
  0
LINE
  5
2AC
100
AcDbEntity
100
AcDbLine
  8
INTERROMPU
 62
256
370
-1
  6
ByLayer
 10
115.1541068514851531
 20
161.8042489999999987
 30
0.0
 11
75.1541068514851531
 21
161.8042489999999987
 31
0.0
  0
LINE
  5
2AD
100
AcDbEntity
100
AcDbLine
  8
INTERROMPU
 62
256
370
-1
  6
ByLayer
 10
115.1541068514851531
 20
178.6894269999999949
 30
0.0
 11
102.6541068514851531
 21
178.6894269999999949
 31
0.0
  0
LINE
  5
2AE
100
AcDbEntity
100
AcDbLine
  8
INTERROMPU
 62
256
370
-1
  6
ByLayer
 10
115.1541068514851531
 20
158.6894269999999949
 30
0.0
 11
102.6541068514851531
 21
158.6894269999999949
 31
0.0
  0
ARC
  5
2AF
100
AcDbEntity
  8
INTERROMPU
 62
256
370
-1
  6
ByLayer
100
AcDbCircle
 10
95.1541068514851531
 20
163.6699859999999944
 30
0.0
 40
6.2489179999999998
100
AcDbArc
 50
270.0
 51
180.0
  0
CIRCLE
  5
2B0
100
AcDbEntity
100
AcDbCircle
  8
INTERROMPU
 62
256
370
-1
  6
ByLayer
 10
95.1541068514851531
 20
163.6699859999999944
 30
0.0
 40
4.3739179999999998
  0
LINE
  5
2B1
100
AcDbEntity
100
AcDbLine
  8
INTERROMPU
 62
256
370
-1
  6
ByLayer
 10
87.6541068514851531
 20
158.6894269999999949
 30
0.0
 11
75.1541068514851531
 21
158.6894269999999949
 31
0.0
  0
LINE
  5
2B2
100
AcDbEntity
100
AcDbLine
  8
INTERROMPU
 62
256
370
-1
  6
ByLayer
 10
87.6541068514851531
 20
178.6894269999999949
 30
0.0
 11
75.1541068514851531
 21
178.6894269999999949
 31
0.0
  0
LINE
  5
2B3
100
AcDbEntity
100
AcDbLine
  8
INTERROMPU
 62
256
370
-1
  6
ByLayer
 10
115.1541068514851531
 20
217.9121649999999875
 30
0.0
 11
95.1541068514851531
 21
217.9121649999999875
 31
0.0
  0
CIRCLE
  5
2B4
100
AcDbEntity
100
AcDbCircle
  8
INTERROMPU
 62
256
370
-1
  6
ByLayer
 10
95.1541068514851531
 20
196.8499300000000005
 30
0.0
 40
4.3760820000000002
  0
ARC
  5
2B5
100
AcDbEntity
  8
INTERROMPU
 62
256
370
-1
  6
ByLayer
100
AcDbCircle
 10
95.1541068514851531
 20
196.8499300000000005
 30
0.0
 40
6.2510820000000002
100
AcDbArc
 50
270.0
 51
180.0
  0
LINE
  5
2B6
100
AcDbEntity
100
AcDbLine
  8
INTERROMPU
 62
256
370
-1
  6
ByLayer
 10
95.1541068514851531
 20
195.4121649999999875
 30
0.0
 11
75.1541068514851531
 21
195.4121649999999875
 31
0.0
  0
LINE
  5
2B7
100
AcDbEntity
100
AcDbLine
  8
INTERROMPU
 62
256
370
-1
  6
ByLayer
 10
95.1541068514851531
 20
195.4121649999999875
 30
0.0
 11
95.1541068514851531
 21
216.9102039999999931
 31
0.0
  0
LINE
  5
2B8
100
AcDbEntity
100
AcDbLine
  8
INTERROMPU
 62
256
370
-1
  6
ByLayer
 10
115.1541068514851531
 20
242.9121649999999875
 30
0.0
 11
95.1541068514851531
 21
242.9121649999999875
 31
0.0
  0
LINE
  5
2B9
100
AcDbEntity
100
AcDbLine
  8
INTERROMPU
 62
256
370
-1
  6
ByLayer
 10
176.7580678514851513
 20
168.0460679999999911
 30
0.0
 11
210.5427558514851398
 21
168.0498230000000035
 31
0.0
  0
LINE
  5
2BA
100
AcDbEntity
100
AcDbLine
  8
INTERROMPU
 62
256
370
-1
  6
ByLayer
 10
176.759040851485139
 20
159.2960679999999911
 30
0.0
 11
210.5437288514851559
 21
159.2998230000000035
 31
0.0
  0
LINE
  5
2BB
100
AcDbEntity
100
AcDbLine
  8
INTERROMPU
 62
256
370
-1
  6
ByLayer
 10
176.7592488514851539
 20
157.4210679999999911
 30
0.0
 11
206.6536888514851569
 21
157.4243910000000142
 31
0.0
  0
LINE
  5
2BC
100
AcDbEntity
100
AcDbLine
  8
INTERROMPU
 62
256
370
-1
  6
ByLayer
 10
176.7578598514851649
 20
169.9210679999999911
 30
0.0
 11
206.6522998514851395
 21
169.9243910000000142
 31
0.0
  0
LINE
  5
2BD
100
AcDbEntity
100
AcDbLine
  8
INTERROMPU
 62
256
370
-1
  6
ByLayer
 10
176.7555618514851403
 20
190.6010119999999972
 30
0.0
 11
206.6500018514851433
 21
190.6043349999999919
 31
0.0
  0
LINE
  5
2BE
100
AcDbEntity
100
AcDbLine
  8
INTERROMPU
 62
256
370
-1
  6
ByLayer
 10
176.7553528514851564
 20
192.4760119999999972
 30
0.0
 11
210.5400408514851449
 21
192.4797670000000096
 31
0.0
  0
LINE
  5
2BF
100
AcDbEntity
100
AcDbLine
  8
INTERROMPU
 62
256
370
-1
  6
ByLayer
 10
176.7541718514851539
 20
203.1010119999999972
 30
0.0
 11
206.6486128514851544
 21
203.1043349999999919
 31
0.0
  0
LINE
  5
2C0
100
AcDbEntity
100
AcDbLine
  8
INTERROMPU
 62
256
370
-1
  6
ByLayer
 10
176.7543808514851378
 20
201.2260119999999972
 30
0.0
 11
210.5390688514851547
 21
201.2297670000000096
 31
0.0
  0
LINE
  5
2C1
100
AcDbEntity
100
AcDbLine
  8
INTERROMPU
 62
256
370
-1
  6
ByLayer
 10
206.6522998514851395
 20
169.9243910000000142
 30
0.0
 11
206.6536888514851569
 21
157.4243910000000142
 31
0.0
  0
LINE
  5
2C2
100
AcDbEntity
100
AcDbLine
  8
INTERROMPU
 62
256
370
-1
  6
ByLayer
 10
210.5427558514851398
 20
168.0498230000000035
 30
0.0
 11
213.0691128514851584
 21
163.6751040000000046
 31
0.0
  0
LINE
  5
2C3
100
AcDbEntity
100
AcDbLine
  8
INTERROMPU
 62
256
370
-1
  6
ByLayer
 10
210.5427558514851398
 20
168.0498230000000035
 30
0.0
 11
210.5437288514851559
 21
159.2998230000000035
 31
0.0
  0
LINE
  5
2C4
100
AcDbEntity
100
AcDbLine
  8
INTERROMPU
 62
256
370
-1
  6
ByLayer
 10
210.5437288514851559
 20
159.2998230000000035
 30
0.0
 11
213.0691128514851584
 21
163.6751040000000046
 31
0.0
  0
LINE
  5
2C5
100
AcDbEntity
100
AcDbLine
  8
INTERROMPU
 62
256
370
-1
  6
ByLayer
 10
210.5390688514851547
 20
201.2297670000000096
 30
0.0
 11
210.5400408514851449
 21
192.4797670000000096
 31
0.0
  0
LINE
  5
2C6
100
AcDbEntity
100
AcDbLine
  8
INTERROMPU
 62
256
370
-1
  6
ByLayer
 10
206.6486128514851544
 20
203.1043349999999919
 30
0.0
 11
206.6500018514851433
 21
190.6043349999999919
 31
0.0
  0
LINE
  5
2C7
100
AcDbEntity
100
AcDbLine
  8
INTERROMPU
 62
256
370
-1
  6
ByLayer
 10
210.5390688514851547
 20
201.2297670000000096
 30
0.0
 11
213.0654248514851474
 21
196.8550480000000107
 31
0.0
  0
LINE
  5
2C8
100
AcDbEntity
100
AcDbLine
  8
INTERROMPU
 62
256
370
-1
  6
ByLayer
 10
210.5400408514851449
 20
192.4797670000000096
 30
0.0
 11
213.0654248514851474
 21
196.8550480000000107
 31
0.0
  0
LINE
  5
2C9
100
AcDbEntity
100
AcDbLine
  8
INTERROMPU
 62
256
370
-1
  6
ByLayer
 10
265.0723378514851447
 20
114.6697149999999965
 30
0.0
 11
265.0723378514851447
 21
74.6697149999999965
 31
0.0
  0
LINE
  5
2CA
100
AcDbEntity
100
AcDbLine
  8
INTERROMPU
 62
256
370
-1
  6
ByLayer
 10
255.0723378514851447
 20
74.6697149999999965
 30
0.0
 11
255.0723378514851447
 21
114.6697149999999965
 31
0.0
  0
LINE
  5
2CB
100
AcDbEntity
100
AcDbLine
  8
INTERROMPU
 62
256
370
-1
  6
ByLayer
 10
265.8791618514851507
 20
114.6697149999999965
 30
0.0
 11
265.8791618514851507
 21
94.6697149999999965
 31
0.0
  0
LINE
  5
2CC
100
AcDbEntity
100
AcDbLine
  8
INTERROMPU
 62
256
370
-1
  6
ByLayer
 10
331.9423328514851619
 20
102.1697149999999965
 30
0.0
 11
331.9423328514851619
 21
114.6697149999999965
 31
0.0
  0
LINE
  5
2CD
100
AcDbEntity
100
AcDbLine
  8
INTERROMPU
 62
256
370
-1
  6
ByLayer
 10
351.9423328514851619
 20
114.6697149999999965
 30
0.0
 11
351.9423328514851619
 21
102.1697149999999965
 31
0.0
  0
LINE
  5
2CE
100
AcDbEntity
100
AcDbLine
  8
INTERROMPU
 62
256
370
-1
  6
ByLayer
 10
331.9423328514851619
 20
74.6697149999999965
 30
0.0
 11
331.9423328514851619
 21
87.1697149999999965
 31
0.0
  0
LINE
  5
2CF
100
AcDbEntity
100
AcDbLine
  8
INTERROMPU
 62
256
370
-1
  6
ByLayer
 10
351.9423328514851619
 20
87.1697149999999965
 30
0.0
 11
351.9423328514851619
 21
74.6697149999999965
 31
0.0
  0
LINE
  5
2D0
100
AcDbEntity
100
AcDbLine
  8
INTERROMPU
 62
256
370
-1
  6
ByLayer
 10
304.4416128514851607
 20
188.6852590000000021
 30
0.0
 11
304.4460588514851338
 21
148.6852599999999995
 31
0.0
  0
ARC
  5
2D1
100
AcDbEntity
  8
FORT
 62
256
370
-1
  6
ByLayer
100
AcDbCircle
 10
234.2550378514851559
 20
230.4121649999999875
 30
0.0
 40
32.5
100
AcDbArc
 50
348.9800000000000182
 51
168.9799999999999898
  0
ARC
  5
2D2
100
AcDbEntity
  8
FORT
 62
256
370
-1
  6
ByLayer
100
AcDbCircle
 10
234.2550378514851559
 20
230.4121649999999875
 30
0.0
 40
35.0
100
AcDbArc
 50
183.8102289999999925
 51
337.3084289999999896
  0
LINE
  5
2D3
100
AcDbEntity
100
AcDbLine
  8
FORT
 62
256
370
-1
  6
ByLayer
 10
361.9423328514851619
 20
74.6697149999999965
 30
0.0
 11
191.5046648514851597
 21
74.6697149999999965
 31
0.0
  0
LINE
  5
2D4
100
AcDbEntity
100
AcDbLine
  8
FORT
 62
256
370
-1
  6
ByLayer
 10
361.9423328514851619
 20
114.6697149999999965
 30
0.0
 11
191.5046648514851597
 21
114.6697149999999965
 31
0.0
  0
LINE
  5
2D5
100
AcDbEntity
100
AcDbLine
  8
FORT
 62
256
370
-1
  6
ByLayer
 10
341.9445558514851768
 20
148.6894269999999949
 30
0.0
 11
176.7602218514851415
 21
148.6710679999999911
 31
0.0
  0
LINE
  5
2D6
100
AcDbEntity
100
AcDbLine
  8
FORT
 62
256
370
-1
  6
ByLayer
 10
266.7550378514851559
 20
94.6697149999999965
 30
0.0
 11
199.3324008514851471
 21
94.6697149999999965
 31
0.0
  0
LINE
  5
2D7
100
AcDbEntity
100
AcDbLine
  8
FORT
 62
256
370
-1
  6
ByLayer
 10
176.7602218514851415
 20
64.6697149999999965
 30
0.0
 11
176.7602218514851415
 21
124.6697149999999965
 31
0.0
  0
ARC
  5
2D8
100
AcDbEntity
  8
FORT
 62
256
370
-1
  6
ByLayer
100
AcDbCircle
 10
191.5035808514851396
 20
64.9197149999999965
 30
0.0
 40
9.75
100
AcDbArc
 50
89.9936320000000052
 51
179.993631999999991
  0
LINE
  5
2D9
100
AcDbEntity
100
AcDbLine
  8
FORT
 62
256
370
-1
  6
ByLayer
 10
181.7535528514851535
 20
64.6707989999999882
 30
0.0
 11
181.7535808514851396
 21
64.9207989999999882
 31
0.0
  0
LINE
  5
2DA
100
AcDbEntity
100
AcDbLine
  8
FORT
 62
256
370
-1
  6
ByLayer
 10
181.7567868514851455
 20
64.6697149999999965
 30
0.0
 11
176.7602218514851415
 21
64.6697149999999965
 31
0.0
  0
ARC
  5
2DB
100
AcDbEntity
  8
FORT
 62
256
370
-1
  6
ByLayer
100
AcDbCircle
 10
191.5035808514851396
 20
124.4197149999999965
 30
0.0
 40
9.75
100
AcDbArc
 50
180.006368000000009
 51
270.006368000000009
  0
LINE
  5
2DC
100
AcDbEntity
100
AcDbLine
  8
FORT
 62
256
370
-1
  6
ByLayer
 10
181.7535528514851535
 20
124.6686310000000049
 30
0.0
 11
181.7535808514851396
 21
124.4186310000000049
 31
0.0
  0
LINE
  5
2DD
100
AcDbEntity
100
AcDbLine
  8
FORT
 62
256
370
-1
  6
ByLayer
 10
181.7567868514851455
 20
124.6697149999999965
 30
0.0
 11
176.7602218514851415
 21
124.6697149999999965
 31
0.0
  0
LINE
  5
2DE
100
AcDbEntity
100
AcDbLine
  8
FORT
 62
256
370
-1
  6
ByLayer
 10
199.3324008514851471
 20
74.6697149999999965
 30
0.0
 11
199.3324008514851471
 21
94.6697149999999965
 31
0.0
  0
LINE
  5
2DF
100
AcDbEntity
100
AcDbLine
  8
FORT
 62
256
370
-1
  6
ByLayer
 10
125.1541068514851531
 20
148.6710679999999911
 30
0.0
 11
65.1541068514851531
 21
148.6710679999999911
 31
0.0
  0
LWPOLYLINE
  5
2E0
  8
FORT
 62
256
370
-1
  6
ByLayer
100
AcDbEntity
100
AcDbPolyline
 90
5
 70
0
 10
115.1541068514851531
 20
218.5919789994487985
 42
0.1672999999520875
 10
115.7805818514851524
 20
216.772075000000001
 42
0.1054139999999999
 10
118.0830388514851563
 20
214.8418399999999906
 42
0.0679510000000002
 10
121.1208768514851499
 20
213.7262680000000046
 42
0.0541140000000001
 10
125.1541068514851389
 20
213.2884819999999877
  0
LINE
  5
2E1
100
AcDbEntity
100
AcDbLine
  8
FORT
 62
256
370
-1
  6
ByLayer
 10
115.1541068514851531
 20
148.6710679999999911
 30
0.0
 11
115.1541068514851531
 21
262.9121650000000159
 31
0.0
  0
LINE
  5
2E2
100
AcDbEntity
100
AcDbLine
  8
FORT
 62
256
370
-1
  6
ByLayer
 10
75.1541068514851531
 20
228.0863439999999969
 30
0.0
 11
75.1541068514851531
 21
148.6710679999999911
 31
0.0
  0
LINE
  5
2E3
100
AcDbEntity
100
AcDbLine
  8
FORT
 62
256
370
-1
  6
ByLayer
 10
95.1541068514851531
 20
216.9102039999999931
 30
0.0
 11
95.1541068514851531
 21
262.9121650000000159
 31
0.0
  0
LINE
  5
2E4
100
AcDbEntity
100
AcDbLine
  8
FORT
 62
256
370
-1
  6
ByLayer
 10
102.6541068514851531
 20
148.6710679999999911
 30
0.0
 11
102.6541068514851531
 21
188.6852590000000021
 31
0.0
  0
LINE
  5
2E5
100
AcDbEntity
100
AcDbLine
  8
FORT
 62
256
370
-1
  6
ByLayer
 10
87.6541068514851531
 20
148.6710679999999911
 30
0.0
 11
87.6541068514851531
 21
188.6852590000000021
 31
0.0
  0
LINE
  5
2E6
100
AcDbEntity
100
AcDbLine
  8
FORT
 62
256
370
-1
  6
ByLayer
 10
65.1541068514851531
 20
148.6710679999999911
 30
0.0
 11
65.1541068514851531
 21
213.2884819999999877
 31
0.0
  0
LINE
  5
2E7
100
AcDbEntity
100
AcDbLine
  8
FORT
 62
256
370
-1
  6
ByLayer
 10
115.1541068514851531
 20
188.6852590000000021
 30
0.0
 11
75.1541068514851531
 21
188.6852590000000021
 31
0.0
  0
LWPOLYLINE
  5
2E8
  8
FORT
 62
256
370
-1
  6
ByLayer
100
AcDbEntity
100
AcDbPolyline
 90
5
 70
0
 10
65.1541068514851389
 20
213.2884819999999877
 42
0.0541140000000001
 10
69.1873368514851421
 20
213.7262680000000046
 42
0.067951
 10
72.2251748514851499
 20
214.8418399999999906
 42
0.1054139999999998
 10
74.5276318514851539
 20
216.772075000000001
 42
0.1672999999520874
 10
75.1541068514851531
 20
218.5919789994487985
  0
LINE
  5
2E9
100
AcDbEntity
100
AcDbLine
  8
FORT
 62
256
370
-1
  6
ByLayer
 10
95.1541068514851531
 20
216.9102039999999931
 30
0.0
 11
75.1541068514851531
 21
216.9102039999999931
 31
0.0
  0
LINE
  5
2EA
100
AcDbEntity
100
AcDbLine
  8
FORT
 62
256
370
-1
  6
ByLayer
 10
115.1541068514851531
 20
262.9121650000000159
 30
0.0
 11
95.1541068514851531
 21
262.9121650000000159
 31
0.0
  0
LINE
  5
2EB
100
AcDbEntity
100
AcDbLine
  8
FORT
 62
256
370
-1
  6
ByLayer
 10
95.1541068514851531
 20
228.0863439999999969
 30
0.0
 11
75.1541068514851531
 21
228.0863439999999969
 31
0.0
  0
ARC
  5
2EC
100
AcDbEntity
  8
FORT
 62
256
370
-1
  6
ByLayer
100
AcDbCircle
 10
172.1762108514851377
 20
242.5015559999999937
 30
0.0
 40
30.7450319999999984
100
AcDbArc
 50
278.561349000000007
 51
348.9800000000000182
  0
CIRCLE
  5
2ED
100
AcDbEntity
100
AcDbCircle
  8
FORT
 62
256
370
-1
  6
ByLayer
 10
234.2550378514851559
 20
230.4121649999999875
 30
0.0
 40
12.5
  0
LINE
  5
2EE
100
AcDbEntity
100
AcDbLine
  8
FORT
 62
256
370
-1
  6
ByLayer
 10
176.7531718514851491
 20
212.0991150000000118
 30
0.0
 11
176.7602218514851415
 21
148.6710679999999911
 31
0.0
  0
LINE
  5
2EF
100
AcDbEntity
100
AcDbLine
  8
FORT
 62
256
370
-1
  6
ByLayer
 10
181.7602218514851415
 20
148.6716240000000084
 30
0.0
 11
181.7602218514851415
 21
213.2884819999999877
 31
0.0
  0
LINE
  5
2F0
100
AcDbEntity
100
AcDbLine
  8
FORT
 62
256
370
-1
  6
ByLayer
 10
125.1541068514851531
 20
148.6710679999999911
 30
0.0
 11
125.1541068514851531
 21
213.2884819999999877
 31
0.0
  0
LINE
  5
2F1
100
AcDbEntity
100
AcDbLine
  8
FORT
 62
256
370
-1
  6
ByLayer
 10
361.9423328514851619
 20
87.1697149999999965
 30
0.0
 11
304.4460588514851338
 21
87.1697149999999965
 31
0.0
  0
LINE
  5
2F2
100
AcDbEntity
100
AcDbLine
  8
FORT
 62
256
370
-1
  6
ByLayer
 10
361.9423328514851619
 20
102.1697149999999965
 30
0.0
 11
304.4460588514851338
 21
102.1697149999999965
 31
0.0
  0
LINE
  5
2F3
100
AcDbEntity
100
AcDbLine
  8
FORT
 62
256
370
-1
  6
ByLayer
 10
304.4460588514851338
 20
74.6697149999999965
 30
0.0
 11
304.4460588514851338
 21
114.6697149999999965
 31
0.0
  0
LINE
  5
2F4
100
AcDbEntity
100
AcDbLine
  8
FORT
 62
256
370
-1
  6
ByLayer
 10
266.7550378514851559
 20
94.6697149999999965
 30
0.0
 11
266.7550378514851559
 21
114.6697149999999965
 31
0.0
  0
LINE
  5
2F5
100
AcDbEntity
100
AcDbLine
  8
FORT
 62
256
370
-1
  6
ByLayer
 10
266.5458578514851524
 20
74.6697149999999965
 30
0.0
 11
266.5458578514851524
 21
94.6697149999999965
 31
0.0
  0
LINE
  5
2F6
100
AcDbEntity
100
AcDbLine
  8
FORT
 62
256
370
-1
  6
ByLayer
 10
361.9423328514851619
 20
102.1697149999999965
 30
0.0
 11
361.9423328514851619
 21
114.6507720000000177
 31
0.0
  0
LINE
  5
2F7
100
AcDbEntity
100
AcDbLine
  8
FORT
 62
256
370
-1
  6
ByLayer
 10
361.9423328514851619
 20
74.6507720000000177
 30
0.0
 11
361.9423328514851619
 21
87.1697149999999965
 31
0.0
  0
LINE
  5
2F8
100
AcDbEntity
100
AcDbLine
  8
FORT
 62
256
370
-1
  6
ByLayer
 10
304.4416128514851607
 20
188.6852590000000021
 30
0.0
 11
341.9401098514851469
 21
188.6894269999999949
 31
0.0
  0
CIRCLE
  5
2F9
100
AcDbEntity
100
AcDbCircle
  8
FORT
 62
256
370
-1
  6
ByLayer
 10
260.0723378514851447
 20
166.8042489999999987
 30
0.0
 40
5.0
  0
LINE
  5
2FA
100
AcDbEntity
100
AcDbLine
  8
FORT
 62
256
370
-1
  6
ByLayer
 10
272.8622538514851499
 20
208.6545610000000011
 30
0.0
 11
304.4416128514851607
 21
188.6852590000000021
 31
0.0
  0
ARC
  5
2FB
100
AcDbEntity
  8
FORT
 62
256
370
-1
  6
ByLayer
100
AcDbCircle
 10
280.8791618514851507
 20
221.3324619999999925
 30
0.0
 40
15.0
100
AcDbArc
 50
168.9799999999999898
 51
237.6926640000000361
  0
ARC
  5
2FC
100
AcDbEntity
  8
FORT
 62
256
370
-1
  6
ByLayer
100
AcDbCircle
 10
341.9423328514851619
 20
168.6894269999999949
 30
0.0
 40
20.0
100
AcDbArc
 50
270.006368000000009
 51
90.0063679999999948
  0
CIRCLE
  5
2FD
100
AcDbEntity
100
AcDbCircle
  8
FORT
 62
256
370
-1
  6
ByLayer
 10
341.9423328514851619
 20
168.6894269999999949
 30
0.0
 40
10.0
  0
ENDSEC
  0
SECTION
  2
OBJECTS
  0
DICTIONARY
  5
C
100
AcDbDictionary
280
0
281
1
  3
ACAD_GROUP
350
D
  3
ACAD_LAYOUT
350
1A
  3
ACAD_MLINESTYLE
350
17
  3
ACAD_PLOTSETTINGS
350
19
  3
ACAD_PLOTSTYLENAME
350
E
  3
AcDbVariableDictionary
350
2FE
  0
DICTIONARY
  5
D
100
AcDbDictionary
280
0
281
1
  0
ACDBDICTIONARYWDFLT
  5
E
100
AcDbDictionary
281
1
  3
Normal
350
F
100
AcDbDictionaryWithDefault
340
F
  0
ACDBPLACEHOLDER
  5
F
  0
DICTIONARY
  5
17
100
AcDbDictionary
280
0
281
1
  3
Standard
350
18
  0
MLINESTYLE
  5
18
100
AcDbMlineStyle
  2
STANDARD
 70
0
  3

 62
256
 51
90.0
 52
90.0
 71
2
 49
0.5
 62
256
  6
BYLAYER
 49
-0.5
 62
256
  6
BYLAYER
  0
DICTIONARY
  5
19
100
AcDbDictionary
280
0
281
1
  0
DICTIONARY
  5
1A
100
AcDbDictionary
281
1
  3
Layout1
350
1E
  3
Layout2
350
26
  3
Model
350
22
  0
LAYOUT
  5
1E
100
AcDbPlotSettings
  1

  2
C:\Program Files\AutoCAD 2002\plotters\DWF ePlot (optimized for plotting).pc3
  4

  6

 40
0.0
 41
0.0
 42
0.0
 43
0.0
 44
0.0
 45
0.0
 46
0.0
 47
0.0
 48
0.0
 49
0.0
140
0.0
141
0.0
142
1.0
143
1.0
 70
688
 72
0
 73
0
 74
5
  7

 75
16
147
1.0
148
0.0
149
0.0
100
AcDbLayout
  1
Layout1
 70
1
 71
1
 10
0.0
 20
0.0
 11
420.0
 21
297.0
 12
0.0
 22
0.0
 32
0.0
 14
100000000000000000000.0
 24
100000000000000000000.0
 34
100000000000000000000.0
 15
-100000000000000000000.0
 25
-100000000000000000000.0
 35
-100000000000000000000.0
146
0.0
 13
0.0
 23
0.0
 33
0.0
 16
1.0
 26
0.0
 36
0.0
 17
0.0
 27
1.0
 37
0.0
 76
0
330
1B
  0
LAYOUT
  5
22
100
AcDbPlotSettings
  1

  2
C:\Program Files\AutoCAD 2002\plotters\DWF ePlot (optimized for plotting).pc3
  4

  6

 40
0.0
 41
0.0
 42
0.0
 43
0.0
 44
0.0
 45
0.0
 46
0.0
 47
0.0
 48
0.0
 49
0.0
140
0.0
141
0.0
142
1.0
143
1.0
 70
1712
 72
0
 73
0
 74
0
  7

 75
0
147
1.0
148
0.0
149
0.0
100
AcDbLayout
  1
Model
 70
1
 71
0
 10
0.0
 20
0.0
 11
12.0
 21
9.0
 12
0.0
 22
0.0
 32
0.0
 14
0.0
 24
0.0
 34
0.0
 15
0.0
 25
0.0
 35
0.0
146
0.0
 13
0.0
 23
0.0
 33
0.0
 16
1.0
 26
0.0
 36
0.0
 17
0.0
 27
1.0
 37
0.0
 76
0
330
1F
  0
LAYOUT
  5
26
100
AcDbPlotSettings
  1

  2
C:\Program Files\AutoCAD 2002\plotters\DWF ePlot (optimized for plotting).pc3
  4

  6

 40
0.0
 41
0.0
 42
0.0
 43
0.0
 44
0.0
 45
0.0
 46
0.0
 47
0.0
 48
0.0
 49
0.0
140
0.0
141
0.0
142
1.0
143
1.0
 70
688
 72
0
 73
0
 74
5
  7

 75
16
147
1.0
148
0.0
149
0.0
100
AcDbLayout
  1
Layout2
 70
1
 71
2
 10
0.0
 20
0.0
 11
12.0
 21
9.0
 12
0.0
 22
0.0
 32
0.0
 14
0.0
 24
0.0
 34
0.0
 15
0.0
 25
0.0
 35
0.0
146
0.0
 13
0.0
 23
0.0
 33
0.0
 16
1.0
 26
0.0
 36
0.0
 17
0.0
 27
1.0
 37
0.0
 76
0
330
23
  0
DICTIONARY
  5
2FE
100
AcDbDictionary
281
1
  3
DIMASSOC
350
300
  3
HIDETEXT
350
2FF
  0
DICTIONARYVAR
  5
2FF
100
DictionaryVariables
280
0
  1
2
  0
DICTIONARYVAR
  5
300
100
DictionaryVariables
280
0
  1
1
  0
ENDSEC
  0
EOF
