999
dxflib 2.0.4.8
  0
SECTION
  2
HEADER
  9
$ACADVER
  1
AC1015
  9
$HANDSEED
  5
FFFF
  9
$DIMTAD
 70
0
  9
$AXISUNIT
 10
0.0
 20
0.0
 30
0.0
  9
$USERR4
 40
0.0
  9
$VIEWSIZE
 40
9.0
  9
$SNAPBASE
 10
0.0
 20
0.0
 30
0.0
  9
$CLAYER
  8
FORT
  9
$MENU
  1
acad
  9
$VIEWDIR
 10
0.0
 20
0.0
 30
1.0
  9
$CHAMFERA
 40
10.0
  9
$ATTREQ
 70
1
  9
$USERR5
 40
0.0
  9
$EXTMIN
 10
0.0
 20
0.0
 30
0.0
  9
$ORTHOMODE
 70
0
  9
$REGENMODE
 70
1
  9
$TRACEWID
 40
0.05
  9
$CHAMFERB
 40
10.0
  9
$DIMADEC
 70
0
  9
$GRIDUNIT
 10
1.0
 20
1.0
  9
$DIMASZ
 40
0.18
  9
$SNAPSTYLE
 70
0
  9
$DIMSHO
 70
1
  9
$DIMALT
 70
0
  9
$SKETCHINC
 40
0.1
  9
$USRTIMER
 70
1
  9
$ANGBASE
 50
0.0
  9
$DIMGAP
 40
0.625
  9
$LIMMIN
 10
-0.696377
 20
-4.592784
  9
$DIMTSZ
 40
0.0
  9
$AXISMODE
 70
0
  9
$SPLFRAME
 70
0
  9
$BLIPMODE
 70
1
  9
$LUNITS
 70
2
  9
$AUPREC
 70
0
  9
$SPLINESEGS
 70
10
  9
$INSBASE
 10
0.0
 20
0.0
 30
0.0
  9
$DIMRND
 40
0.0
  9
$DIMCEN
 40
0.09
  9
$ELEVATION
 40
0.0
  9
$SKPOLY
 70
0
  9
$USERI1
 70
0
  9
$EXTMAX
 10
420.0
 20
297.0
 30
0.0
  9
$FILLMODE
 70
1
  9
$DRAGMODE
 70
2
  9
$TEXTSIZE
 40
0.2
  9
$USERI2
 70
0
  9
$INSUNITS
 70
4
  9
$DIMEXO
 40
0.0625
  9
$VIEWCTR
 10
6.0
 20
4.5
  9
$DIMSCALE
 40
1.0
  9
$DIMDLE
 40
0.0
  9
$DIMZIN
 70
0
  9
$TDUSRTIMER
 40
0.0
  9
$ANGDIR
 70
0
  9
$USERI3
 70
0
  9
$LIMMAX
 10
489.6040689999999813
 20
301.5927839999999946
  9
$QTEXTMODE
 70
0
  9
$OSMODE
 70
0
  9
$USERI4
 70
0
  9
$DIMLUNIT
 70
2
  9
$GRIDMODE
 70
0
  9
$ATTMODE
 70
1
  9
$DIMLIM
 70
0
  9
$DIMSE1
 70
0
  9
$THICKNESS
 40
0.0
  9
$LIMCHECK
 70
0
  9
$FASTZOOM
 70
1
  9
$PDMODE
 70
0
  9
$USERI5
 70
0
  9
$DIMTXT
 40
0.18
  9
$CELTYPE
  6
CONTINUOUS
  9
$DIMTOH
 70
1
  9
$DIMSE2
 70
0
  9
$DIMLFAC
 40
1.0
  9
$TDINDWG
 40
0.0
  9
$LUPREC
 70
4
  9
$SNAPMODE
 70
0
  9
$SNAPANG
 50
0.0
  9
$CECOLOR
 62
7
  9
$DIMDLI
 40
0.38
  9
$DIMTM
 40
0.0
  9
$DIMASO
 70
1
  9
$PLINEWID
 40
0.0
  9
$DIMSTYLE
  2
Standard
  9
$LTSCALE
 40
0.5
  9
$DIMTIH
 70
1
  9
$DIMALTD
 70
2
  9
$FILLETRAD
 40
2.5
  9
$TDUPDATE
 40
0.0
  9
$PLIMMIN
 10
0.0
 20
0.0
  9
$PLIMMAX
 10
420.0
 20
297.0
  9
$PINSBASE
 10
0.0
 20
0.0
 30
0.0
  9
$PDSIZE
 40
0.0
  9
$ATTDIA
 70
0
  9
$USERR1
 40
0.0
  9
$DIMEXE
 40
0.18
  9
$SNAPUNIT
 10
1.0
 20
1.0
 30
0.0
  9
$SNAPISOPAIR
 70
0
  9
$TEXTSTYLE
  7
STANDARD
  9
$DIMTP
 40
0.0
  9
$DIMTOL
 70
0
  9
$DIMALTF
 40
25.3999999999999986
  9
$TDCREATE
 40
0.0
  9
$COORDS
 70
2
  9
$USERR2
 40
0.0
  9
$DIMAUNIT
 70
0
  9
$USERR3
 40
0.0
  9
$AUNITS
 70
0
  0
ENDSEC
  0
SECTION
  2
TABLES
  0
TABLE
  2
VPORT
  5
8
100
AcDbSymbolTable
 70
1
  0
VPORT
  5
30
100
AcDbSymbolTableRecord
100
AcDbViewportTableRecord
  2
*Active
 70
0
 10
0.0
 20
0.0
 11
1.0
 21
1.0
 12
286.3055555555554861
 22
148.5
 13
0.0
 23
0.0
 14
10.0
 24
10.0
 15
10.0
 25
10.0
 16
0.0
 26
0.0
 36
1.0
 17
0.0
 27
0.0
 37
0.0
 40
297.0
 41
1.92798353909465
 42
50.0
 43
0.0
 44
0.0
 50
0.0
 51
0.0
 71
0
 72
100
 73
1
 74
3
 75
1
 76
1
 77
0
 78
0
281
0
 65
1
110
0.0
120
0.0
130
0.0
111
1.0
121
0.0
131
0.0
112
0.0
122
1.0
132
0.0
 79
0
146
0.0
  0
ENDTAB
  0
TABLE
  2
LTYPE
  5
5
100
AcDbSymbolTable
 70
21
  0
LTYPE
  5
14
100
AcDbSymbolTableRecord
100
AcDbLinetypeTableRecord
  2
ByBlock
 70
0
  3

 72
65
 73
0
 40
0.0
  0
LTYPE
  5
15
100
AcDbSymbolTableRecord
100
AcDbLinetypeTableRecord
  2
ByLayer
 70
0
  3

 72
65
 73
0
 40
0.0
  0
LTYPE
  5
16
100
AcDbSymbolTableRecord
100
AcDbLinetypeTableRecord
  2
CONTINUOUS
 70
0
  3
Solid line
 72
65
 73
0
 40
0.0
  0
LTYPE
  5
31
100
AcDbSymbolTableRecord
100
AcDbLinetypeTableRecord
  2
DOT
 70
0
  3
Dot . . . . . . . . . . . . . . . . . . . . . .
 72
65
 73
2
 40
6.3499999999999996
 49
0.0
 74
0
 49
-6.3499999999999996
 74
0
  0
LTYPE
  5
32
100
AcDbSymbolTableRecord
100
AcDbLinetypeTableRecord
  2
DOT2
 70
0
  3
Dot (.5x) .....................................
 72
65
 73
2
 40
3.1749999999999998
 49
0.0
 74
0
 49
-3.1749999999999998
 74
0
  0
LTYPE
  5
33
100
AcDbSymbolTableRecord
100
AcDbLinetypeTableRecord
  2
DOTX2
 70
0
  3
Dot (2x) .  .  .  .  .  .  .  .  .  .  .  .  .
 72
65
 73
2
 40
12.6999999999999993
 49
0.0
 74
0
 49
-12.6999999999999993
 74
0
  0
LTYPE
  5
34
100
AcDbSymbolTableRecord
100
AcDbLinetypeTableRecord
  2
DASHED
 70
0
  3
Dashed __ __ __ __ __ __ __ __ __ __ __ __ __ _
 72
65
 73
2
 40
19.0500000000000007
 49
12.6999999999999993
 74
0
 49
-6.3499999999999996
 74
0
  0
LTYPE
  5
35
100
AcDbSymbolTableRecord
100
AcDbLinetypeTableRecord
  2
DASHED2
 70
0
  3
Dashed (.5x) _ _ _ _ _ _ _ _ _ _ _ _ _ _ _ _ _
 72
65
 73
2
 40
9.5250000000000004
 49
6.3499999999999996
 74
0
 49
-3.1749999999999998
 74
0
  0
LTYPE
  5
36
100
AcDbSymbolTableRecord
100
AcDbLinetypeTableRecord
  2
DASHEDX2
 70
0
  3
Dashed (2x) ____  ____  ____  ____  ____  ___
 72
65
 73
2
 40
38.1000000000000014
 49
25.3999999999999986
 74
0
 49
-12.6999999999999993
 74
0
  0
LTYPE
  5
37
100
AcDbSymbolTableRecord
100
AcDbLinetypeTableRecord
  2
DASHDOT
 70
0
  3
Dash dot __ . __ . __ . __ . __ . __ . __ . __
 72
65
 73
4
 40
25.3999999999999986
 49
12.6999999999999993
 74
0
 49
-6.3499999999999996
 74
0
 49
0.0
 74
0
 49
-6.3499999999999996
 74
0
  0
LTYPE
  5
38
100
AcDbSymbolTableRecord
100
AcDbLinetypeTableRecord
  2
DASHDOT2
 70
0
  3
Dash dot (.5x) _._._._._._._._._._._._._._._.
 72
65
 73
4
 40
12.6999999999999993
 49
6.3499999999999996
 74
0
 49
-3.1749999999999998
 74
0
 49
0.0
 74
0
 49
-3.1749999999999998
 74
0
  0
LTYPE
  5
39
100
AcDbSymbolTableRecord
100
AcDbLinetypeTableRecord
  2
DASHDOTX2
 70
0
  3
Dash dot (2x) ____  .  ____  .  ____  .  ___
 72
65
 73
4
 40
50.7999999999999972
 49
25.3999999999999986
 74
0
 49
-12.6999999999999993
 74
0
 49
0.0
 74
0
 49
-12.6999999999999993
 74
0
  0
LTYPE
  5
3A
100
AcDbSymbolTableRecord
100
AcDbLinetypeTableRecord
  2
DIVIDE
 70
0
  3
Divide ____ . . ____ . . ____ . . ____ . . ____
 72
65
 73
6
 40
31.75
 49
12.6999999999999993
 74
0
 49
-6.3499999999999996
 74
0
 49
0.0
 74
0
 49
-6.3499999999999996
 74
0
 49
0.0
 74
0
 49
-6.3499999999999996
 74
0
  0
LTYPE
  5
3B
100
AcDbSymbolTableRecord
100
AcDbLinetypeTableRecord
  2
DIVIDE2
 70
0
  3
Divide (.5x) __..__..__..__..__..__..__..__.._
 72
65
 73
6
 40
15.875
 49
6.3499999999999996
 74
0
 49
-3.1749999999999998
 74
0
 49
0.0
 74
0
 49
-3.1749999999999998
 74
0
 49
0.0
 74
0
 49
-3.1749999999999998
 74
0
  0
LTYPE
  5
3C
100
AcDbSymbolTableRecord
100
AcDbLinetypeTableRecord
  2
DIVIDEX2
 70
0
  3
Divide (2x) ________  .  .  ________  .  .  _
 72
65
 73
6
 40
63.5
 49
25.3999999999999986
 74
0
 49
-12.6999999999999993
 74
0
 49
0.0
 74
0
 49
-12.6999999999999993
 74
0
 49
0.0
 74
0
 49
-12.6999999999999993
 74
0
  0
LTYPE
  5
3D
100
AcDbSymbolTableRecord
100
AcDbLinetypeTableRecord
  2
CENTER
 70
0
  3
Center ____ _ ____ _ ____ _ ____ _ ____ _ ____
 72
65
 73
4
 40
50.7999999999999972
 49
31.75
 74
0
 49
-6.3499999999999996
 74
0
 49
6.3499999999999996
 74
0
 49
-6.3499999999999996
 74
0
  0
LTYPE
  5
3E
100
AcDbSymbolTableRecord
100
AcDbLinetypeTableRecord
  2
CENTER2
 70
0
  3
Center (.5x) ___ _ ___ _ ___ _ ___ _ ___ _ ___
 72
65
 73
4
 40
28.5749999999999993
 49
19.0500000000000007
 74
0
 49
-3.1749999999999998
 74
0
 49
3.1749999999999998
 74
0
 49
-3.1749999999999998
 74
0
  0
LTYPE
  5
3F
100
AcDbSymbolTableRecord
100
AcDbLinetypeTableRecord
  2
CENTERX2
 70
0
  3
Center (2x) ________  __  ________  __  _____
 72
65
 73
4
 40
101.5999999999999943
 49
63.5
 74
0
 49
-12.6999999999999993
 74
0
 49
12.6999999999999993
 74
0
 49
-12.6999999999999993
 74
0
  0
LTYPE
  5
40
100
AcDbSymbolTableRecord
100
AcDbLinetypeTableRecord
  2
BORDER
 70
0
  3
Border __ __ . __ __ . __ __ . __ __ . __ __ .
 72
65
 73
6
 40
44.4500000000000028
 49
12.6999999999999993
 74
0
 49
-6.3499999999999996
 74
0
 49
12.6999999999999993
 74
0
 49
-6.3499999999999996
 74
0
 49
0.0
 74
0
 49
-6.3499999999999996
 74
0
  0
LTYPE
  5
41
100
AcDbSymbolTableRecord
100
AcDbLinetypeTableRecord
  2
BORDER2
 70
0
  3
Border (.5x) __.__.__.__.__.__.__.__.__.__.__.
 72
65
 73
6
 40
22.2250000000000014
 49
6.3499999999999996
 74
0
 49
-3.1749999999999998
 74
0
 49
6.3499999999999996
 74
0
 49
-3.1749999999999998
 74
0
 49
0.0
 74
0
 49
-3.1749999999999998
 74
0
  0
LTYPE
  5
42
100
AcDbSymbolTableRecord
100
AcDbLinetypeTableRecord
  2
BORDERX2
 70
0
  3
Border (2x) ____  ____  .  ____  ____  .  ___
 72
65
 73
6
 40
88.9000000000000057
 49
25.3999999999999986
 74
0
 49
-12.6999999999999993
 74
0
 49
25.3999999999999986
 74
0
 49
-12.6999999999999993
 74
0
 49
0.0
 74
0
 49
-12.6999999999999993
 74
0
  0
ENDTAB
  0
TABLE
  2
LAYER
  5
2
100
AcDbSymbolTable
 70
8
  0
LAYER
  5
10
100
AcDbSymbolTableRecord
100
AcDbLayerTableRecord
  2
0
 70
0
 62
7
  6
CONTINUOUS
390
F
  0
LAYER
  5
43
100
AcDbSymbolTableRecord
100
AcDbLayerTableRecord
  2
FORT
 70
0
 62
7
  6
CONTINUOUS
370
50
390
F
  0
LAYER
  5
44
100
AcDbSymbolTableRecord
100
AcDbLayerTableRecord
  2
FIN
 70
0
 62
5
  6
CONTINUOUS
370
25
390
F
  0
LAYER
  5
45
100
AcDbSymbolTableRecord
100
AcDbLayerTableRecord
  2
TEXTE
 70
0
 62
7
  6
CONTINUOUS
370
50
390
F
  0
LAYER
  5
46
100
AcDbSymbolTableRecord
100
AcDbLayerTableRecord
  2
HACHURE
 70
0
 62
5
  6
CONTINUOUS
370
25
390
F
  0
LAYER
  5
47
100
AcDbSymbolTableRecord
100
AcDbLayerTableRecord
  2
RENFORCE
 70
0
 62
7
  6
CONTINUOUS
370
70
390
F
  0
LAYER
  5
48
100
AcDbSymbolTableRecord
100
AcDbLayerTableRecord
  2
AXE
 70
0
 62
3
  6
CENTER
370
25
390
F
  0
LAYER
  5
49
100
AcDbSymbolTableRecord
100
AcDbLayerTableRecord
  2
INTERROMPU
 70
0
 62
5
  6
DASHED
370
25
390
F
  0
ENDTAB
  0
TABLE
  2
STYLE
  5
3
100
AcDbSymbolTable
 70
1
  0
STYLE
  5
11
100
AcDbSymbolTableRecord
100
AcDbTextStyleTableRecord
  2
Standard
 70
0
 40
0.0
 41
0.75
 50
0.0
 71
0
 42
2.5
  3
txt
  4

  0
ENDTAB
  0
TABLE
  2
VIEW
  5
6
100
AcDbSymbolTable
 70
0
  0
ENDTAB
  0
TABLE
  2
UCS
  5
7
100
AcDbSymbolTable
 70
0
  0
ENDTAB
  0
TABLE
  2
APPID
  5
9
100
AcDbSymbolTable
 70
1
  0
APPID
  5
12
100
AcDbSymbolTableRecord
100
AcDbRegAppTableRecord
  2
ACAD
 70
0
  0
ENDTAB
  0
TABLE
  2
DIMSTYLE
  5
A
100
AcDbSymbolTable
 70
1
100
AcDbDimStyleTable
 71
0
  0
DIMSTYLE
105
27
100
AcDbSymbolTableRecord
100
AcDbDimStyleTableRecord
  2
Standard
 41
0.18
 42
0.0625
 43
3.75
 44
0.18
 70
0
 73
0
 74
0
 77
1
 78
8
140
0.18
141
2.5
143
0.03937007874016
147
0.625
171
3
172
1
271
2
272
2
274
3
278
44
283
0
284
8
340
11
  0
ENDTAB
  0
TABLE
  2
BLOCK_RECORD
  5
1
100
AcDbSymbolTable
 70
1
  0
BLOCK_RECORD
  5
1F
100
AcDbSymbolTableRecord
100
AcDbBlockTableRecord
  2
*Model_Space
340
22
  0
BLOCK_RECORD
  5
1B
100
AcDbSymbolTableRecord
100
AcDbBlockTableRecord
  2
*Paper_Space
340
1E
  0
BLOCK_RECORD
  5
23
100
AcDbSymbolTableRecord
100
AcDbBlockTableRecord
  2
*Paper_Space0
340
26
  0
BLOCK_RECORD
  5
4A
100
AcDbSymbolTableRecord
100
AcDbBlockTableRecord
  2
DESENS-G1
340
0
  0
BLOCK_RECORD
  5
4B
100
AcDbSymbolTableRecord
100
AcDbBlockTableRecord
  2
DESENS-G2
340
0
  0
BLOCK_RECORD
  5
4C
100
AcDbSymbolTableRecord
100
AcDbBlockTableRecord
  2
DESENS-G3
340
0
  0
BLOCK_RECORD
  5
4D
100
AcDbSymbolTableRecord
100
AcDbBlockTableRecord
  2
DESENS-G4
340
0
  0
BLOCK_RECORD
  5
4E
100
AcDbSymbolTableRecord
100
AcDbBlockTableRecord
  2
DESENS-G5
340
0
  0
BLOCK_RECORD
  5
4F
100
AcDbSymbolTableRecord
100
AcDbBlockTableRecord
  2
DESENS-G6
340
0
  0
BLOCK_RECORD
  5
50
100
AcDbSymbolTableRecord
100
AcDbBlockTableRecord
  2
DESENS-G7
340
0
  0
BLOCK_RECORD
  5
51
100
AcDbSymbolTableRecord
100
AcDbBlockTableRecord
  2
DESENS-G8
340
0
  0
BLOCK_RECORD
  5
52
100
AcDbSymbolTableRecord
100
AcDbBlockTableRecord
  2
DESENS-G9
340
0
  0
BLOCK_RECORD
  5
53
100
AcDbSymbolTableRecord
100
AcDbBlockTableRecord
  2
DESENS-G10
340
0
  0
BLOCK_RECORD
  5
54
100
AcDbSymbolTableRecord
100
AcDbBlockTableRecord
  2
DESENS-G11
340
0
  0
BLOCK_RECORD
  5
55
100
AcDbSymbolTableRecord
100
AcDbBlockTableRecord
  2
DESENS-G12
340
0
  0
BLOCK_RECORD
  5
56
100
AcDbSymbolTableRecord
100
AcDbBlockTableRecord
  2
DESENS-G13
340
0
  0
BLOCK_RECORD
  5
57
100
AcDbSymbolTableRecord
100
AcDbBlockTableRecord
  2
DESENS-G14
340
0
  0
BLOCK_RECORD
  5
58
100
AcDbSymbolTableRecord
100
AcDbBlockTableRecord
  2
DESENS-G15
340
0
  0
BLOCK_RECORD
  5
59
100
AcDbSymbolTableRecord
100
AcDbBlockTableRecord
  2
DESENS-G16
340
0
  0
BLOCK_RECORD
  5
5A
100
AcDbSymbolTableRecord
100
AcDbBlockTableRecord
  2
DESENS-G17
340
0
  0
BLOCK_RECORD
  5
5B
100
AcDbSymbolTableRecord
100
AcDbBlockTableRecord
  2
DESENS-G18
340
0
  0
BLOCK_RECORD
  5
5C
100
AcDbSymbolTableRecord
100
AcDbBlockTableRecord
  2
DESENS-G19
340
0
  0
BLOCK_RECORD
  5
5D
100
AcDbSymbolTableRecord
100
AcDbBlockTableRecord
  2
DESENS-G20
340
0
  0
BLOCK_RECORD
  5
5E
100
AcDbSymbolTableRecord
100
AcDbBlockTableRecord
  2
DESENS-G21
340
0
  0
BLOCK_RECORD
  5
5F
100
AcDbSymbolTableRecord
100
AcDbBlockTableRecord
  2
DESENS-G22
340
0
  0
BLOCK_RECORD
  5
60
100
AcDbSymbolTableRecord
100
AcDbBlockTableRecord
  2
DESENS-G23
340
0
  0
BLOCK_RECORD
  5
61
100
AcDbSymbolTableRecord
100
AcDbBlockTableRecord
  2
DESENS-G24
340
0
  0
BLOCK_RECORD
  5
62
100
AcDbSymbolTableRecord
100
AcDbBlockTableRecord
  2
DESENS-G25
340
0
  0
ENDTAB
  0
ENDSEC
  0
SECTION
  2
BLOCKS
  0
BLOCK
  5
20
100
AcDbEntity
  8
0
100
AcDbBlockBegin
  2
*Model_Space
 70
0
 10
0.0
 20
0.0
 30
0.0
  3
*Model_Space
  1

  0
ENDBLK
  5
21
100
AcDbEntity
  8
0
100
AcDbBlockEnd
  0
BLOCK
  5
1C
100
AcDbEntity
 67
1
  8
0
100
AcDbBlockBegin
  2
*Paper_Space
 70
0
 10
0.0
 20
0.0
 30
0.0
  3
*Paper_Space
  1

  0
ENDBLK
  5
1D
100
AcDbEntity
 67
1
  8
0
100
AcDbBlockEnd
  0
BLOCK
  5
24
100
AcDbEntity
  8
0
100
AcDbBlockBegin
  2
*Paper_Space0
 70
0
 10
0.0
 20
0.0
 30
0.0
  3
*Paper_Space0
  1

  0
ENDBLK
  5
25
100
AcDbEntity
  8
0
100
AcDbBlockEnd
  0
BLOCK
  5
63
100
AcDbEntity
  8
0
100
AcDbBlockBegin
  2
DESENS-G1
 70
0
 10
0.0
 20
0.0
 30
0.0
  3
DESENS-G1
  1

  0
LINE
  5
64
100
AcDbEntity
100
AcDbLine
  8
HACHURE
 62
5
370
-1
  6
CONTINUOUS
 10
254.0149209999999869
 20
249.0663220000000138
 30
0.0
 11
253.9055830000000071
 21
249.1756599999999935
 31
0.0
  0
LINE
  5
65
100
AcDbEntity
100
AcDbLine
  8
HACHURE
 62
5
370
-1
  6
CONTINUOUS
 10
251.6650980000000004
 20
249.1744199999999978
 30
0.0
 11
253.6637990000000116
 21
247.1757189999999866
 31
0.0
  0
LINE
  5
66
100
AcDbEntity
100
AcDbLine
  8
HACHURE
 62
5
370
-1
  6
CONTINUOUS
 10
251.4145619999999894
 20
247.1744740000000036
 30
0.0
 11
249.4158610000000067
 21
249.1731739999999888
 31
0.0
  0
LINE
  5
67
100
AcDbEntity
100
AcDbLine
  8
HACHURE
 62
5
370
-1
  6
CONTINUOUS
 10
247.175376
 20
249.1719339999999931
 30
0.0
 11
249.1740770000000111
 21
247.1732330000000104
 31
0.0
  0
LINE
  5
68
100
AcDbEntity
100
AcDbLine
  8
HACHURE
 62
5
370
-1
  6
CONTINUOUS
 10
246.924839999999989
 20
247.1719879999999989
 30
0.0
 11
244.921765999999991
 21
249.1750619999999969
 31
0.0
  0
LINE
  5
69
100
AcDbEntity
100
AcDbLine
  8
HACHURE
 62
5
370
-1
  6
CONTINUOUS
 10
242.6812810000000127
 20
249.1738210000000038
 30
0.0
 11
244.6799809999999979
 21
247.1751209999999901
 31
0.0
  0
LINE
  5
6A
100
AcDbEntity
100
AcDbLine
  8
HACHURE
 62
5
370
-1
  6
CONTINUOUS
 10
242.4394959999999912
 20
247.1738799999999969
 30
0.0
 11
240.440796000000006
 21
249.1725810000000081
 31
0.0
  0
LINE
  5
6B
100
AcDbEntity
100
AcDbLine
  8
HACHURE
 62
5
370
-1
  6
CONTINUOUS
 10
238.187185999999997
 20
249.1757090000000119
 30
0.0
 11
240.190259999999995
 21
247.1726350000000139
 31
0.0
  0
LINE
  5
6C
100
AcDbEntity
100
AcDbLine
  8
HACHURE
 62
5
370
-1
  6
CONTINUOUS
 10
237.9454010000000039
 20
247.175768000000005
 30
0.0
 11
235.9467009999999902
 21
249.1744679999999903
 31
0.0
  0
LINE
  5
6D
100
AcDbEntity
100
AcDbLine
  8
HACHURE
 62
5
370
-1
  6
CONTINUOUS
 10
233.7062160000000119
 20
249.1732279999999946
 30
0.0
 11
235.7049159999999972
 21
247.1745270000000119
 31
0.0
  0
LINE
  5
6E
100
AcDbEntity
100
AcDbLine
  8
HACHURE
 62
5
370
-1
  6
CONTINUOUS
 10
233.4556790000000035
 20
247.1732820000000004
 30
0.0
 11
231.4526050000000055
 21
249.1763559999999984
 31
0.0
  0
LINE
  5
6F
100
AcDbEntity
100
AcDbLine
  8
HACHURE
 62
5
370
-1
  6
CONTINUOUS
 10
229.2121199999999988
 20
249.1751150000000052
 30
0.0
 11
231.2108210000000099
 21
247.1764149999999916
 31
0.0
  0
LINE
  5
70
100
AcDbEntity
100
AcDbLine
  8
HACHURE
 62
5
370
-1
  6
CONTINUOUS
 10
228.9615839999999878
 20
247.175169000000011
 30
0.0
 11
226.9628840000000025
 21
249.1738699999999938
 31
0.0
  0
LINE
  5
71
100
AcDbEntity
100
AcDbLine
  8
HACHURE
 62
5
370
-1
  6
CONTINUOUS
 10
224.7180250000000115
 20
249.1770030000000133
 30
0.0
 11
226.7210990000000095
 21
247.1739289999999869
 31
0.0
  0
LINE
  5
72
100
AcDbEntity
100
AcDbLine
  8
HACHURE
 62
5
370
-1
  6
CONTINUOUS
 10
224.4762409999999875
 20
247.1770620000000065
 30
0.0
 11
222.4775400000000047
 21
249.1757619999999918
 31
0.0
  0
LINE
  5
73
100
AcDbEntity
100
AcDbLine
  8
HACHURE
 62
5
370
-1
  6
CONTINUOUS
 10
220.228303000000011
 20
249.1745170000000087
 30
0.0
 11
222.2270039999999938
 21
247.1758159999999975
 31
0.0
  0
LINE
  5
74
100
AcDbEntity
100
AcDbLine
  8
HACHURE
 62
5
370
-1
  6
CONTINUOUS
 10
219.986518999999987
 20
247.1745760000000018
 30
0.0
 11
217.9878180000000043
 21
249.1732759999999871
 31
0.0
  0
LINE
  5
75
100
AcDbEntity
100
AcDbLine
  8
HACHURE
 62
5
370
-1
  6
CONTINUOUS
 10
215.7429600000000107
 20
249.1764090000000067
 30
0.0
 11
217.7460340000000087
 21
247.1733350000000087
 31
0.0
  0
LINE
  5
76
100
AcDbEntity
100
AcDbLine
  8
HACHURE
 62
5
370
-1
  6
CONTINUOUS
 10
215.4924239999999998
 20
247.1764630000000125
 30
0.0
 11
213.4937229999999886
 21
249.1751639999999952
 31
0.0
  0
LINE
  5
77
100
AcDbEntity
100
AcDbLine
  8
HACHURE
 62
5
370
-1
  6
CONTINUOUS
 10
211.2532380000000103
 20
249.173923000000002
 30
0.0
 11
213.251938999999993
 21
247.1752219999999909
 31
0.0
  0
LINE
  5
78
100
AcDbEntity
100
AcDbLine
  8
HACHURE
 62
5
370
-1
  6
CONTINUOUS
 10
211.0027019999999993
 20
247.1739770000000078
 30
0.0
 11
208.9996280000000013
 21
249.1770510000000058
 31
0.0
  0
LINE
  5
79
100
AcDbEntity
100
AcDbLine
  8
HACHURE
 62
5
370
-1
  6
CONTINUOUS
 10
206.7591429999999946
 20
249.1758110000000102
 30
0.0
 11
208.7578430000000083
 21
247.177109999999999
 31
0.0
  0
LINE
  5
7A
100
AcDbEntity
100
AcDbLine
  8
HACHURE
 62
5
370
-1
  6
CONTINUOUS
 10
206.5173580000000015
 20
247.1758690000000058
 30
0.0
 11
204.5186579999999879
 21
249.1745699999999886
 31
0.0
  0
LINE
  5
7B
100
AcDbEntity
100
AcDbLine
  8
HACHURE
 62
5
370
-1
  6
CONTINUOUS
 10
202.2650470000000098
 20
249.1776979999999924
 30
0.0
 11
204.2681220000000053
 21
247.1746239999999943
 31
0.0
  0
LINE
  5
7C
100
AcDbEntity
100
AcDbLine
  8
HACHURE
 62
5
370
-1
  6
CONTINUOUS
 10
202.0232629999999858
 20
247.1777570000000139
 30
0.0
 11
200.0245630000000006
 21
249.1764569999999992
 31
0.0
  0
LINE
  5
7D
100
AcDbEntity
100
AcDbLine
  8
HACHURE
 62
5
370
-1
  6
CONTINUOUS
 10
197.7753260000000068
 20
249.1752119999999877
 30
0.0
 11
199.7740259999999921
 21
247.176511000000005
 31
0.0
  0
LINE
  5
7E
100
AcDbEntity
100
AcDbLine
  8
HACHURE
 62
5
370
-1
  6
CONTINUOUS
 10
197.5335410000000138
 20
247.1752710000000093
 30
0.0
 11
195.5304669999999874
 21
249.1783450000000073
 31
0.0
  0
LINE
  5
7F
100
AcDbEntity
100
AcDbLine
  8
HACHURE
 62
5
370
-1
  6
CONTINUOUS
 10
193.2899820000000091
 20
249.1771040000000141
 30
0.0
 11
195.2886829999999918
 21
247.1784040000000005
 31
0.0
  0
LINE
  5
80
100
AcDbEntity
100
AcDbLine
  8
HACHURE
 62
5
370
-1
  6
CONTINUOUS
 10
193.0394459999999981
 20
247.1771579999999915
 30
0.0
 11
191.0407449999999869
 21
249.1758590000000027
 31
0.0
  0
LINE
  5
81
100
AcDbEntity
100
AcDbLine
  8
HACHURE
 62
5
370
-1
  6
CONTINUOUS
 10
188.8002610000000061
 20
249.1746180000000095
 30
0.0
 11
190.7989609999999914
 21
247.1759179999999958
 31
0.0
  0
LINE
  5
82
100
AcDbEntity
100
AcDbLine
  8
HACHURE
 62
5
370
-1
  6
CONTINUOUS
 10
188.5584760000000131
 20
247.1746770000000026
 30
0.0
 11
186.5554019999999866
 21
249.1777510000000007
 31
0.0
  0
LINE
  5
83
100
AcDbEntity
100
AcDbLine
  8
HACHURE
 62
5
370
-1
  6
CONTINUOUS
 10
184.3061649999999929
 20
249.1765059999999892
 30
0.0
 11
186.3048660000000041
 21
247.1778050000000064
 31
0.0
  0
LINE
  5
84
100
AcDbEntity
100
AcDbLine
  8
HACHURE
 62
5
370
-1
  6
CONTINUOUS
 10
184.0643809999999974
 20
247.1765650000000107
 30
0.0
 11
182.0656799999999862
 21
249.175264999999996
 31
0.0
  0
LINE
  5
85
100
AcDbEntity
100
AcDbLine
  8
HACHURE
 62
5
370
-1
  6
CONTINUOUS
 10
179.8120700000000056
 20
249.1783929999999998
 30
0.0
 11
181.8151440000000036
 21
247.1753190000000018
 31
0.0
  0
LINE
  5
86
100
AcDbEntity
100
AcDbLine
  8
HACHURE
 62
5
370
-1
  6
CONTINUOUS
 10
179.5702850000000126
 20
247.1784519999999929
 30
0.0
 11
177.5715849999999989
 21
249.1771530000000041
 31
0.0
  0
LINE
  5
87
100
AcDbEntity
100
AcDbLine
  8
HACHURE
 62
5
370
-1
  6
CONTINUOUS
 10
175.3310999999999922
 20
249.1759120000000109
 30
0.0
 11
177.3298010000000033
 21
247.1772119999999973
 31
0.0
  0
LINE
  5
88
100
AcDbEntity
100
AcDbLine
  8
HACHURE
 62
5
370
-1
  6
CONTINUOUS
 10
175.0805640000000096
 20
247.1759659999999883
 30
0.0
 11
173.0774900000000116
 21
249.1790399999999863
 31
0.0
  0
LINE
  5
89
100
AcDbEntity
100
AcDbLine
  8
HACHURE
 62
5
370
-1
  6
CONTINUOUS
 10
170.8370050000000049
 20
249.1777999999999906
 30
0.0
 11
172.8357049999999902
 21
247.1790990000000079
 31
0.0
  0
LINE
  5
8A
100
AcDbEntity
100
AcDbLine
  8
HACHURE
 62
5
370
-1
  6
CONTINUOUS
 10
170.5952200000000119
 20
247.1778590000000122
 30
0.0
 11
168.5965199999999982
 21
249.1765589999999975
 31
0.0
  0
LINE
  5
8B
100
AcDbEntity
100
AcDbLine
  8
HACHURE
 62
5
370
-1
  6
CONTINUOUS
 10
166.3472830000000044
 20
249.175313999999986
 30
0.0
 11
168.3459829999999897
 21
247.1766130000000032
 31
0.0
  0
LINE
  5
8C
100
AcDbEntity
100
AcDbLine
  8
HACHURE
 62
5
370
-1
  6
CONTINUOUS
 10
166.1011249999999961
 20
247.1797459999999944
 30
0.0
 11
164.1024240000000134
 21
249.1784470000000056
 31
0.0
  0
LINE
  5
8D
100
AcDbEntity
100
AcDbLine
  8
HACHURE
 62
5
370
-1
  6
CONTINUOUS
 10
161.8531879999999887
 20
249.1772009999999966
 30
0.0
 11
163.8518880000000024
 21
247.1785010000000113
 31
0.0
  0
LINE
  5
8E
100
AcDbEntity
100
AcDbLine
  8
HACHURE
 62
5
370
-1
  6
CONTINUOUS
 10
161.6114029999999957
 20
247.1772599999999898
 30
0.0
 11
159.6127030000000104
 21
249.1759610000000009
 31
0.0
  0
LINE
  5
8F
100
AcDbEntity
100
AcDbLine
  8
HACHURE
 62
5
370
-1
  6
CONTINUOUS
 10
157.367843999999991
 20
249.1790939999999921
 30
0.0
 11
159.370917999999989
 21
247.1760199999999941
 31
0.0
  0
LINE
  5
90
100
AcDbEntity
100
AcDbLine
  8
HACHURE
 62
5
370
-1
  6
CONTINUOUS
 10
157.1173080000000084
 20
247.1791479999999979
 30
0.0
 11
155.1186069999999972
 21
249.1778480000000116
 31
0.0
  0
LINE
  5
91
100
AcDbEntity
100
AcDbLine
  8
HACHURE
 62
5
370
-1
  6
CONTINUOUS
 10
152.8781219999999905
 20
249.1766079999999874
 30
0.0
 11
154.8768230000000017
 21
247.1779070000000047
 31
0.0
  0
LINE
  5
92
100
AcDbEntity
100
AcDbLine
  8
HACHURE
 62
5
370
-1
  6
CONTINUOUS
 10
152.627586000000008
 20
247.1766619999999932
 30
0.0
 11
150.6245120000000099
 21
249.1797359999999912
 31
0.0
  0
LINE
  5
93
100
AcDbEntity
100
AcDbLine
  8
HACHURE
 62
5
370
-1
  6
CONTINUOUS
 10
148.3840270000000032
 20
249.1784949999999981
 30
0.0
 11
150.382727999999986
 21
247.1797950000000128
 31
0.0
  0
LINE
  5
94
100
AcDbEntity
100
AcDbLine
  8
HACHURE
 62
5
370
-1
  6
CONTINUOUS
 10
148.1422430000000077
 20
247.1785539999999912
 30
0.0
 11
146.1435419999999965
 21
249.1772550000000024
 31
0.0
  0
LINE
  5
95
100
AcDbEntity
100
AcDbLine
  8
HACHURE
 62
5
370
-1
  6
CONTINUOUS
 10
143.8899319999999875
 20
249.1803830000000062
 30
0.0
 11
145.893006000000014
 21
247.1773090000000082
 31
0.0
  0
LINE
  5
96
100
AcDbEntity
100
AcDbLine
  8
HACHURE
 62
5
370
-1
  6
CONTINUOUS
 10
143.6481469999999945
 20
247.1804419999999993
 30
0.0
 11
141.6494470000000092
 21
249.179142000000013
 31
0.0
  0
LINE
  5
97
100
AcDbEntity
100
AcDbLine
  8
HACHURE
 62
5
370
-1
  6
CONTINUOUS
 10
139.4089620000000025
 20
249.1779019999999889
 30
0.0
 11
141.4076619999999878
 21
247.1792010000000062
 31
0.0
  0
LINE
  5
98
100
AcDbEntity
100
AcDbLine
  8
HACHURE
 62
5
370
-1
  6
CONTINUOUS
 10
139.1584259999999915
 20
247.1779559999999947
 30
0.0
 11
137.1597250000000088
 21
249.1766560000000084
 31
0.0
  0
LINE
  5
99
100
AcDbEntity
100
AcDbLine
  8
HACHURE
 62
5
370
-1
  6
CONTINUOUS
 10
134.9148669999999868
 20
249.1797889999999995
 30
0.0
 11
136.9135670000000005
 21
247.1810889999999858
 31
0.0
  0
LINE
  5
9A
100
AcDbEntity
100
AcDbLine
  8
HACHURE
 62
5
370
-1
  6
CONTINUOUS
 10
134.6643300000000067
 20
247.1798430000000053
 30
0.0
 11
132.6656299999999931
 21
249.178543999999988
 31
0.0
  0
LINE
  5
9B
100
AcDbEntity
100
AcDbLine
  8
HACHURE
 62
5
370
-1
  6
CONTINUOUS
 10
130.4251449999999863
 20
249.1773029999999949
 30
0.0
 11
132.423845
 21
247.1786030000000096
 31
0.0
  0
LINE
  5
9C
100
AcDbEntity
100
AcDbLine
  8
HACHURE
 62
5
370
-1
  6
CONTINUOUS
 10
130.1833599999999933
 20
247.177361999999988
 30
0.0
 11
128.1802859999999953
 21
249.1804359999999861
 31
0.0
  0
LINE
  5
9D
100
AcDbEntity
100
AcDbLine
  8
HACHURE
 62
5
370
-1
  6
CONTINUOUS
 10
125.931049999999999
 20
249.179191000000003
 30
0.0
 11
127.9297499999999985
 21
247.1804899999999918
 31
0.0
  0
LINE
  5
9E
100
AcDbEntity
100
AcDbLine
  8
HACHURE
 62
5
370
-1
  6
CONTINUOUS
 10
125.689265000000006
 20
247.1792489999999987
 30
0.0
 11
123.6905650000000065
 21
249.1779500000000098
 31
0.0
  0
LINE
  5
9F
100
AcDbEntity
100
AcDbLine
  8
HACHURE
 62
5
370
-1
  6
CONTINUOUS
 10
121.4457060000000013
 20
249.181083000000001
 30
0.0
 11
123.4487799999999993
 21
247.178009000000003
 31
0.0
  0
LINE
  5
A0
100
AcDbEntity
100
AcDbLine
  8
HACHURE
 62
5
370
-1
  6
CONTINUOUS
 10
121.1951700000000045
 20
247.1811370000000068
 30
0.0
 11
119.1964689999999933
 21
249.1798379999999895
 31
0.0
  0
LINE
  5
A1
100
AcDbEntity
100
AcDbLine
  8
HACHURE
 62
5
370
-1
  6
CONTINUOUS
 10
116.9559840000000008
 20
249.1785969999999963
 30
0.0
 11
118.9546849999999978
 21
247.1798960000000136
 31
0.0
  0
LINE
  5
A2
100
AcDbEntity
100
AcDbLine
  8
HACHURE
 62
5
370
-1
  6
CONTINUOUS
 10
116.7054480000000041
 20
247.1786510000000021
 30
0.0
 11
114.702374000000006
 21
249.1817250000000001
 31
0.0
  0
LINE
  5
A3
100
AcDbEntity
100
AcDbLine
  8
HACHURE
 62
5
370
-1
  6
CONTINUOUS
 10
112.4618889999999993
 20
249.180484000000007
 30
0.0
 11
114.4605899999999963
 21
247.1817839999999933
 31
0.0
  0
LINE
  5
A4
100
AcDbEntity
100
AcDbLine
  8
HACHURE
 62
5
370
-1
  6
CONTINUOUS
 10
112.2201050000000038
 20
247.1805430000000001
 30
0.0
 11
110.2214040000000068
 21
249.1792440000000113
 31
0.0
  0
LINE
  5
A5
100
AcDbEntity
100
AcDbLine
  8
HACHURE
 62
5
370
-1
  6
CONTINUOUS
 10
107.9721669999999989
 20
249.1779980000000023
 30
0.0
 11
109.9708679999999958
 21
247.1792979999999886
 31
0.0
  0
LINE
  5
A6
100
AcDbEntity
100
AcDbLine
  8
HACHURE
 62
5
370
-1
  6
CONTINUOUS
 10
107.7260090000000048
 20
247.1824310000000082
 30
0.0
 11
105.7273090000000053
 21
249.1811309999999935
 31
0.0
  0
LINE
  5
A7
100
AcDbEntity
100
AcDbLine
  8
HACHURE
 62
5
370
-1
  6
CONTINUOUS
 10
103.4780719999999974
 20
249.1798860000000104
 30
0.0
 11
105.4767719999999969
 21
247.1811849999999993
 31
0.0
  0
LINE
  5
A8
100
AcDbEntity
100
AcDbLine
  8
HACHURE
 62
5
370
-1
  6
CONTINUOUS
 10
103.2362880000000018
 20
247.1799450000000036
 30
0.0
 11
101.2375870000000049
 21
249.1786449999999888
 31
0.0
  0
LINE
  5
A9
100
AcDbEntity
100
AcDbLine
  8
HACHURE
 62
5
370
-1
  6
CONTINUOUS
 10
98.9927289999999971
 20
249.1817780000000084
 30
0.0
 11
100.9958029999999951
 21
247.1787040000000104
 31
0.0
  0
LINE
  5
AA
100
AcDbEntity
100
AcDbLine
  8
HACHURE
 62
5
370
-1
  6
CONTINUOUS
 10
98.7421920000000028
 20
247.1818320000000142
 30
0.0
 11
96.7434920000000034
 21
249.1805329999999969
 31
0.0
  0
LINE
  5
AB
100
AcDbEntity
100
AcDbLine
  8
HACHURE
 62
5
370
-1
  6
CONTINUOUS
 10
94.5030069999999967
 20
249.1792920000000038
 30
0.0
 11
96.5017069999999961
 21
247.1805919999999901
 31
0.0
  0
LINE
  5
AC
100
AcDbEntity
100
AcDbLine
  8
HACHURE
 62
5
370
-1
  6
CONTINUOUS
 10
94.2612220000000036
 20
247.1793509999999969
 30
0.0
 11
92.2581480000000056
 21
249.182424999999995
 31
0.0
  0
LINE
  5
AD
100
AcDbEntity
100
AcDbLine
  8
HACHURE
 62
5
370
-1
  6
CONTINUOUS
 10
90.0089109999999977
 20
249.1811800000000119
 30
0.0
 11
92.0076119999999946
 21
247.1824790000000007
 31
0.0
  0
LINE
  5
AE
100
AcDbEntity
100
AcDbLine
  8
HACHURE
 62
5
370
-1
  6
CONTINUOUS
 10
89.7671270000000021
 20
247.181239000000005
 30
0.0
 11
87.7684260000000052
 21
249.1799389999999903
 31
0.0
  0
LINE
  5
AF
100
AcDbEntity
100
AcDbLine
  8
HACHURE
 62
5
370
-1
  6
CONTINUOUS
 10
85.5148159999999962
 20
249.1830669999999941
 30
0.0
 11
87.5178899999999942
 21
247.1799929999999961
 31
0.0
  0
LINE
  5
B0
100
AcDbEntity
100
AcDbLine
  8
HACHURE
 62
5
370
-1
  6
CONTINUOUS
 10
85.2730320000000006
 20
247.1831259999999872
 30
0.0
 11
83.2743310000000037
 21
249.1818269999999984
 31
0.0
  0
LINE
  5
B1
100
AcDbEntity
100
AcDbLine
  8
HACHURE
 62
5
370
-1
  6
CONTINUOUS
 10
81.0338459999999969
 20
249.1805860000000052
 30
0.0
 11
83.0325469999999939
 21
247.1818859999999916
 31
0.0
  0
LINE
  5
B2
100
AcDbEntity
100
AcDbLine
  8
HACHURE
 62
5
370
-1
  6
CONTINUOUS
 10
80.7833100000000002
 20
247.180640000000011
 30
0.0
 11
78.7846090000000032
 21
249.1793409999999938
 31
0.0
  0
LINE
  5
B3
100
AcDbEntity
100
AcDbLine
  8
HACHURE
 62
5
370
-1
  6
CONTINUOUS
 10
76.5397509999999954
 20
249.1824740000000133
 30
0.0
 11
78.5384509999999949
 21
247.1837730000000022
 31
0.0
  0
LINE
  5
B4
100
AcDbEntity
100
AcDbLine
  8
HACHURE
 62
5
370
-1
  6
CONTINUOUS
 10
76.2979669999999999
 20
247.1825330000000065
 30
0.0
 11
74.2992660000000029
 21
249.1812329999999918
 31
0.0
  0
LINE
  5
B5
100
AcDbEntity
100
AcDbLine
  8
HACHURE
 62
5
370
-1
  6
CONTINUOUS
 10
72.050028999999995
 20
249.1799880000000087
 30
0.0
 11
74.0487300000000062
 21
247.1812869999999975
 31
0.0
  0
LINE
  5
B6
100
AcDbEntity
100
AcDbLine
  8
HACHURE
 62
5
370
-1
  6
CONTINUOUS
 10
71.8082449999999994
 20
247.1800470000000018
 30
0.0
 11
69.8051710000000014
 21
249.1831209999999999
 31
0.0
  0
LINE
  5
B7
100
AcDbEntity
100
AcDbLine
  8
HACHURE
 62
5
370
-1
  6
CONTINUOUS
 10
67.5559339999999935
 20
249.1818749999999909
 30
0.0
 11
69.554633999999993
 21
247.1831750000000056
 31
0.0
  0
LINE
  5
B8
100
AcDbEntity
100
AcDbLine
  8
HACHURE
 62
5
370
-1
  6
CONTINUOUS
 10
67.3141490000000005
 20
247.1819340000000125
 30
0.0
 11
65.315449000000001
 21
249.1806349999999952
 31
0.0
  0
LINE
  5
B9
100
AcDbEntity
100
AcDbLine
  8
HACHURE
 62
5
370
-1
  6
CONTINUOUS
 10
64.019644999999997
 20
248.2347129999999993
 30
0.0
 11
65.0736639999999937
 21
247.1806939999999884
 31
0.0
  0
ENDBLK
  5
BA
100
AcDbEntity
  8
0
100
AcDbBlockEnd
  0
BLOCK
  5
BB
100
AcDbEntity
  8
0
100
AcDbBlockBegin
  2
DESENS-G2
 70
0
 10
0.0
 20
0.0
 30
0.0
  3
DESENS-G2
  1

  0
LINE
  5
BC
100
AcDbEntity
100
AcDbLine
  8
HACHURE
 62
5
370
-1
  6
CONTINUOUS
 10
224.7226560000000006
 20
247.1726830000000064
 30
0.0
 11
224.0170689999999922
 21
246.4670950000000005
 31
0.0
  0
LINE
  5
BD
100
AcDbEntity
100
AcDbLine
  8
HACHURE
 62
5
370
-1
  6
CONTINUOUS
 10
224.0171039999999891
 20
241.9776919999999905
 30
0.0
 11
229.2120600000000081
 21
247.1726480000000095
 31
0.0
  0
LINE
  5
BE
100
AcDbEntity
100
AcDbLine
  8
HACHURE
 62
5
370
-1
  6
CONTINUOUS
 10
233.7041570000000092
 20
247.1726130000000126
 30
0.0
 11
225.7043549999999925
 21
239.1728109999999958
 31
0.0
  0
LINE
  5
BF
100
AcDbEntity
100
AcDbLine
  8
HACHURE
 62
5
370
-1
  6
CONTINUOUS
 10
230.193759
 20
239.1727759999999989
 30
0.0
 11
238.1935599999999909
 21
247.1725769999999898
 31
0.0
  0
LINE
  5
C0
100
AcDbEntity
100
AcDbLine
  8
HACHURE
 62
5
370
-1
  6
CONTINUOUS
 10
242.6829639999999984
 20
247.1725419999999929
 30
0.0
 11
234.68316200000001
 21
239.172741000000002
 31
0.0
  0
LINE
  5
C1
100
AcDbEntity
100
AcDbLine
  8
HACHURE
 62
5
370
-1
  6
CONTINUOUS
 10
224.683747000000011
 20
229.173326000000003
 30
0.0
 11
224.0172090000000082
 21
228.5067880000000002
 31
0.0
  0
LINE
  5
C2
100
AcDbEntity
100
AcDbLine
  8
HACHURE
 62
5
370
-1
  6
CONTINUOUS
 10
209.6832780000000014
 20
214.1728559999999959
 30
0.0
 11
209.0167399999999986
 21
213.5063179999999932
 31
0.0
  0
LINE
  5
C3
100
AcDbEntity
100
AcDbLine
  8
HACHURE
 62
5
370
-1
  6
CONTINUOUS
 10
201.6834760000000131
 20
206.1730550000000051
 30
0.0
 11
200.5187180000000069
 21
205.0082969999999989
 31
0.0
  0
LINE
  5
C4
100
AcDbEntity
100
AcDbLine
  8
HACHURE
 62
5
370
-1
  6
CONTINUOUS
 10
200.5187530000000038
 20
200.5188929999999914
 30
0.0
 11
206.1728799999999922
 21
206.1730200000000082
 31
0.0
  0
LINE
  5
C5
100
AcDbEntity
100
AcDbLine
  8
HACHURE
 62
5
370
-1
  6
CONTINUOUS
 10
209.0167749999999955
 20
209.0169150000000116
 30
0.0
 11
214.1726810000000114
 21
214.172820999999999
 31
0.0
  0
LINE
  5
C6
100
AcDbEntity
100
AcDbLine
  8
HACHURE
 62
5
370
-1
  6
CONTINUOUS
 10
224.0172440000000051
 20
224.0173839999999927
 30
0.0
 11
229.1731509999999901
 21
229.1732910000000061
 31
0.0
  0
LINE
  5
C7
100
AcDbEntity
100
AcDbLine
  8
HACHURE
 62
5
370
-1
  6
CONTINUOUS
 10
239.1725659999999891
 20
239.1727060000000051
 30
0.0
 11
247.1723670000000084
 21
247.172506999999996
 31
0.0
  0
LINE
  5
C8
100
AcDbEntity
100
AcDbLine
  8
HACHURE
 62
5
370
-1
  6
CONTINUOUS
 10
251.6644640000000095
 20
247.1724719999999991
 30
0.0
 11
243.6646619999999928
 21
239.1726710000000082
 31
0.0
  0
LINE
  5
C9
100
AcDbEntity
100
AcDbLine
  8
HACHURE
 62
5
370
-1
  6
CONTINUOUS
 10
233.6652469999999937
 20
229.1732560000000092
 30
0.0
 11
222.7192139999999938
 21
218.2272220000000118
 31
0.0
  0
LINE
  5
CA
100
AcDbEntity
100
AcDbLine
  8
HACHURE
 62
5
370
-1
  6
CONTINUOUS
 10
218.6647780000000125
 20
214.1727860000000021
 30
0.0
 11
203.6670019999999965
 21
199.1750099999999861
 31
0.0
  0
LINE
  5
CB
100
AcDbEntity
100
AcDbLine
  8
HACHURE
 62
5
370
-1
  6
CONTINUOUS
 10
208.1564050000000066
 20
199.1749749999999892
 30
0.0
 11
238.1546510000000012
 21
229.1732199999999864
 31
0.0
  0
LINE
  5
CC
100
AcDbEntity
100
AcDbLine
  8
HACHURE
 62
5
370
-1
  6
CONTINUOUS
 10
244.0174910000000068
 20
235.0360609999999895
 30
0.0
 11
258.1548280000000091
 21
249.1733969999999943
 31
0.0
  0
LINE
  5
CD
100
AcDbEntity
100
AcDbLine
  8
HACHURE
 62
5
370
-1
  6
CONTINUOUS
 10
259.0153030000000172
 20
245.5444339999999954
 30
0.0
 11
244.0175260000000037
 21
230.5466570000000104
 31
0.0
  0
LINE
  5
CE
100
AcDbEntity
100
AcDbLine
  8
HACHURE
 62
5
370
-1
  6
CONTINUOUS
 10
242.6440540000000112
 20
229.1731849999999895
 30
0.0
 11
212.6458090000000141
 21
199.1749399999999923
 31
0.0
  0
LINE
  5
CF
100
AcDbEntity
100
AcDbLine
  8
HACHURE
 62
5
370
-1
  6
CONTINUOUS
 10
217.1352119999999957
 20
199.1749049999999954
 30
0.0
 11
231.5405100000000118
 21
213.5802030000000116
 31
0.0
  0
LINE
  5
D0
100
AcDbEntity
100
AcDbLine
  8
HACHURE
 62
5
370
-1
  6
CONTINUOUS
 10
239.6089849999999899
 20
221.6486779999999897
 30
0.0
 11
259.0153379999999856
 21
241.0550299999999879
 31
0.0
  0
LINE
  5
D1
100
AcDbEntity
100
AcDbLine
  8
HACHURE
 62
5
370
-1
  6
CONTINUOUS
 10
259.015373000000011
 20
236.5629329999999868
 30
0.0
 11
242.9874930000000006
 21
220.5350530000000049
 31
0.0
  0
LINE
  5
D2
100
AcDbEntity
100
AcDbLine
  8
HACHURE
 62
5
370
-1
  6
CONTINUOUS
 10
232.6541349999999966
 20
210.2016959999999983
 30
0.0
 11
221.6273089999999968
 21
199.1748699999999985
 31
0.0
  0
LINE
  5
D3
100
AcDbEntity
100
AcDbLine
  8
HACHURE
 62
5
370
-1
  6
CONTINUOUS
 10
226.1167120000000068
 20
199.1748350000000016
 30
0.0
 11
234.8678840000000037
 21
207.926006000000001
 31
0.0
  0
LINE
  5
D4
100
AcDbEntity
100
AcDbLine
  8
HACHURE
 62
5
370
-1
  6
CONTINUOUS
 10
245.2631820000000005
 20
218.3213039999999978
 30
0.0
 11
259.0154079999999794
 21
232.0735300000000052
 31
0.0
  0
LINE
  5
D5
100
AcDbEntity
100
AcDbLine
  8
HACHURE
 62
5
370
-1
  6
CONTINUOUS
 10
259.0154430000000048
 20
227.5841259999999977
 30
0.0
 11
246.4670250000000067
 21
215.0357089999999971
 31
0.0
  0
LINE
  5
D6
100
AcDbEntity
100
AcDbLine
  8
HACHURE
 62
5
370
-1
  6
CONTINUOUS
 10
238.1548260000000141
 20
206.7235100000000045
 30
0.0
 11
230.6061159999999859
 21
199.1747990000000073
 31
0.0
  0
LINE
  5
D7
100
AcDbEntity
100
AcDbLine
  8
HACHURE
 62
5
370
-1
  6
CONTINUOUS
 10
235.0955199999999934
 20
199.1747640000000104
 30
0.0
 11
259.0154779999999732
 21
223.0947229999999877
 31
0.0
  0
LINE
  5
D8
100
AcDbEntity
100
AcDbLine
  8
HACHURE
 62
5
370
-1
  6
CONTINUOUS
 10
259.0155129999999986
 20
218.6026259999999866
 30
0.0
 11
239.587615999999997
 21
199.1747290000000135
 31
0.0
  0
LINE
  5
D9
100
AcDbEntity
100
AcDbLine
  8
HACHURE
 62
5
370
-1
  6
CONTINUOUS
 10
244.0770200000000045
 20
199.1746939999999881
 30
0.0
 11
259.0155480000000239
 21
214.113223000000005
 31
0.0
  0
LINE
  5
DA
100
AcDbEntity
100
AcDbLine
  8
HACHURE
 62
5
370
-1
  6
CONTINUOUS
 10
259.0155829999999924
 20
209.6238189999999975
 30
0.0
 11
248.5664229999999861
 21
199.1746589999999912
 31
0.0
  0
LINE
  5
DB
100
AcDbEntity
100
AcDbLine
  8
HACHURE
 62
5
370
-1
  6
CONTINUOUS
 10
253.0558269999999936
 20
199.1746239999999943
 30
0.0
 11
259.0156180000000177
 21
205.1344159999999874
 31
0.0
  0
LINE
  5
DC
100
AcDbEntity
100
AcDbLine
  8
HACHURE
 62
5
370
-1
  6
CONTINUOUS
 10
259.0156529999999862
 20
200.6423189999999863
 30
0.0
 11
257.5479240000000232
 21
199.1745889999999974
 31
0.0
  0
ENDBLK
  5
DD
100
AcDbEntity
  8
0
100
AcDbBlockEnd
  0
BLOCK
  5
DE
100
AcDbEntity
  8
0
100
AcDbBlockBegin
  2
DESENS-G3
 70
0
 10
0.0
 20
0.0
 30
0.0
  3
DESENS-G3
  1

  0
LINE
  5
DF
100
AcDbEntity
100
AcDbLine
  8
HACHURE
 62
5
370
-1
  6
CONTINUOUS
 10
245.5953910000000064
 20
217.7750189999999861
 30
0.0
 11
242.6181540000000041
 21
220.7522559999999885
 31
0.0
  0
LINE
  5
E0
100
AcDbEntity
100
AcDbLine
  8
HACHURE
 62
5
370
-1
  6
CONTINUOUS
 10
239.0032080000000008
 20
221.6734289999999987
 30
0.0
 11
240.7626889999999946
 21
219.9139480000000049
 31
0.0
  0
LINE
  5
E1
100
AcDbEntity
100
AcDbLine
  8
HACHURE
 62
5
370
-1
  6
CONTINUOUS
 10
244.7570829999999944
 20
215.9195540000000051
 30
0.0
 11
246.5165629999999908
 21
214.1600740000000087
 31
0.0
  0
LINE
  5
E2
100
AcDbEntity
100
AcDbLine
  8
HACHURE
 62
5
370
-1
  6
CONTINUOUS
 10
246.1436750000000018
 20
211.838499000000013
 30
0.0
 11
244.9138340000000085
 21
213.0683400000000063
 31
0.0
  0
LINE
  5
E3
100
AcDbEntity
100
AcDbLine
  8
HACHURE
 62
5
370
-1
  6
CONTINUOUS
 10
237.9114739999999983
 20
220.0706989999999905
 30
0.0
 11
236.681633000000005
 21
221.3005400000000122
 31
0.0
  0
LINE
  5
E4
100
AcDbEntity
100
AcDbLine
  8
HACHURE
 62
5
370
-1
  6
CONTINUOUS
 10
234.8672550000000001
 20
220.4211449999999957
 30
0.0
 11
235.9548460000000034
 21
219.3335539999999924
 31
0.0
  0
LINE
  5
E5
100
AcDbEntity
100
AcDbLine
  8
HACHURE
 62
5
370
-1
  6
CONTINUOUS
 10
244.1766890000000103
 20
211.1117120000000114
 30
0.0
 11
245.2642800000000136
 21
210.0241210000000081
 31
0.0
  0
LINE
  5
E6
100
AcDbEntity
100
AcDbLine
  8
HACHURE
 62
5
370
-1
  6
CONTINUOUS
 10
244.0130320000000097
 20
208.5809050000000013
 30
0.0
 11
242.9502999999999986
 21
209.6436359999999866
 31
0.0
  0
LINE
  5
E7
100
AcDbEntity
100
AcDbLine
  8
HACHURE
 62
5
370
-1
  6
CONTINUOUS
 10
234.4867710000000045
 20
218.1071660000000065
 30
0.0
 11
233.4240389999999934
 21
219.1698979999999892
 31
0.0
  0
LINE
  5
E8
100
AcDbEntity
100
AcDbLine
  8
HACHURE
 62
5
370
-1
  6
CONTINUOUS
 10
232.3302329999999927
 20
217.5699309999999969
 30
0.0
 11
233.4609829999999988
 21
216.4391809999999907
 31
0.0
  0
LINE
  5
E9
100
AcDbEntity
100
AcDbLine
  8
HACHURE
 62
5
370
-1
  6
CONTINUOUS
 10
241.2823160000000087
 20
208.6178480000000093
 30
0.0
 11
242.4130649999999889
 21
207.4870990000000006
 31
0.0
  0
LINE
  5
EA
100
AcDbEntity
100
AcDbLine
  8
HACHURE
 62
5
370
-1
  6
CONTINUOUS
 10
240.402575000000013
 20
206.8031249999999943
 30
0.0
 11
239.0318650000000105
 21
208.1738349999999969
 31
0.0
  0
LINE
  5
EB
100
AcDbEntity
100
AcDbLine
  8
HACHURE
 62
5
370
-1
  6
CONTINUOUS
 10
233.0169689999999889
 20
214.18873099999999
 30
0.0
 11
231.6462589999999864
 21
215.5594409999999925
 31
0.0
  0
LINE
  5
EC
100
AcDbEntity
100
AcDbLine
  8
HACHURE
 62
5
370
-1
  6
CONTINUOUS
 10
231.6289960000000008
 20
212.8829310000000135
 30
0.0
 11
237.726066000000003
 21
206.7858620000000087
 31
0.0
  0
ENDBLK
  5
ED
100
AcDbEntity
  8
0
100
AcDbBlockEnd
  0
BLOCK
  5
EE
100
AcDbEntity
  8
0
100
AcDbBlockBegin
  2
DESENS-G4
 70
0
 10
0.0
 20
0.0
 30
0.0
  3
DESENS-G4
  1

  0
LINE
  5
EF
100
AcDbEntity
100
AcDbLine
  8
HACHURE
 62
5
370
-1
  6
CONTINUOUS
 10
207.5165309999999863
 20
217.2067949999999996
 30
0.0
 11
206.51493099999999
 21
217.6738489999999899
 31
0.0
  0
LINE
  5
F0
100
AcDbEntity
100
AcDbLine
  8
HACHURE
 62
5
370
-1
  6
CONTINUOUS
 10
201.2542939999999874
 20
217.6741989999999873
 30
0.0
 11
207.5157250000000033
 21
214.7544460000000015
 31
0.0
  0
LINE
  5
F1
100
AcDbEntity
100
AcDbLine
  8
HACHURE
 62
5
370
-1
  6
CONTINUOUS
 10
207.5149189999999919
 20
212.3020970000000034
 30
0.0
 11
195.9936580000000106
 21
217.6745490000000132
 31
0.0
  0
LINE
  5
F2
100
AcDbEntity
100
AcDbLine
  8
HACHURE
 62
5
370
-1
  6
CONTINUOUS
 10
190.7358830000000012
 20
217.6735639999999989
 30
0.0
 11
207.5169740000000047
 21
209.8484129999999936
 31
0.0
  0
LINE
  5
F3
100
AcDbEntity
100
AcDbLine
  8
HACHURE
 62
5
370
-1
  6
CONTINUOUS
 10
206.9251280000000008
 20
207.675153999999992
 30
0.0
 11
185.4823049999999967
 21
217.6741069999999922
 31
0.0
  0
LINE
  5
F4
100
AcDbEntity
100
AcDbLine
  8
HACHURE
 62
5
370
-1
  6
CONTINUOUS
 10
180.221667999999994
 20
217.6744569999999896
 30
0.0
 11
201.6644919999999956
 21
207.6755039999999894
 31
0.0
  0
LINE
  5
F5
100
AcDbEntity
100
AcDbLine
  8
HACHURE
 62
5
370
-1
  6
CONTINUOUS
 10
196.403854999999993
 20
207.6758539999999869
 30
0.0
 11
174.9610319999999888
 21
217.6748069999999871
 31
0.0
  0
LINE
  5
F6
100
AcDbEntity
100
AcDbLine
  8
HACHURE
 62
5
370
-1
  6
CONTINUOUS
 10
169.7003949999999861
 20
217.6751570000000129
 30
0.0
 11
191.146080000000012
 21
207.6748699999999985
 31
0.0
  0
LINE
  5
F7
100
AcDbEntity
100
AcDbLine
  8
HACHURE
 62
5
370
-1
  6
CONTINUOUS
 10
185.8854440000000068
 20
207.6752199999999959
 30
0.0
 11
164.4426210000000026
 21
217.6741719999999987
 31
0.0
  0
LINE
  5
F8
100
AcDbEntity
100
AcDbLine
  8
HACHURE
 62
5
370
-1
  6
CONTINUOUS
 10
159.1819839999999999
 20
217.6745219999999961
 30
0.0
 11
180.6248080000000016
 21
207.6755699999999933
 31
0.0
  0
LINE
  5
F9
100
AcDbEntity
100
AcDbLine
  8
HACHURE
 62
5
370
-1
  6
CONTINUOUS
 10
175.3641709999999989
 20
207.6759189999999933
 30
0.0
 11
153.9213479999999947
 21
217.6748719999999935
 31
0.0
  0
LINE
  5
FA
100
AcDbEntity
100
AcDbLine
  8
HACHURE
 62
5
370
-1
  6
CONTINUOUS
 10
148.6607109999999921
 20
217.6752219999999909
 30
0.0
 11
170.1035349999999937
 21
207.6762689999999907
 31
0.0
  0
LINE
  5
FB
100
AcDbEntity
100
AcDbLine
  8
HACHURE
 62
5
370
-1
  6
CONTINUOUS
 10
164.8499559999999917
 20
207.6768120000000124
 30
0.0
 11
143.4071329999999875
 21
217.6757650000000126
 31
0.0
  0
LINE
  5
FC
100
AcDbEntity
100
AcDbLine
  8
HACHURE
 62
5
370
-1
  6
CONTINUOUS
 10
138.1464960000000133
 20
217.67611500000001
 30
0.0
 11
159.5921810000000107
 21
207.6758279999999957
 31
0.0
  0
LINE
  5
FD
100
AcDbEntity
100
AcDbLine
  8
HACHURE
 62
5
370
-1
  6
CONTINUOUS
 10
154.3315450000000055
 20
207.6761769999999956
 30
0.0
 11
132.8887220000000013
 21
217.6751299999999958
 31
0.0
  0
LINE
  5
FE
100
AcDbEntity
100
AcDbLine
  8
HACHURE
 62
5
370
-1
  6
CONTINUOUS
 10
127.6280849999999987
 20
217.6754799999999932
 30
0.0
 11
149.0709090000000003
 21
207.676526999999993
 31
0.0
  0
LINE
  5
FF
100
AcDbEntity
100
AcDbLine
  8
HACHURE
 62
5
370
-1
  6
CONTINUOUS
 10
143.8102719999999977
 20
207.6768769999999904
 30
0.0
 11
122.3674489999999935
 21
217.6758299999999906
 31
0.0
  0
LINE
  5
100
100
AcDbEntity
100
AcDbLine
  8
HACHURE
 62
5
370
-1
  6
CONTINUOUS
 10
117.106812000000005
 20
217.676179999999988
 30
0.0
 11
138.5496359999999925
 21
207.6772269999999878
 31
0.0
  0
LINE
  5
101
100
AcDbEntity
100
AcDbLine
  8
HACHURE
 62
5
370
-1
  6
CONTINUOUS
 10
133.2889989999999898
 20
207.6775770000000136
 30
0.0
 11
111.8461759999999998
 21
217.6765300000000138
 31
0.0
  0
LINE
  5
102
100
AcDbEntity
100
AcDbLine
  8
HACHURE
 62
5
370
-1
  6
CONTINUOUS
 10
110.5160070000000019
 20
215.8475559999999973
 30
0.0
 11
128.0382820000000095
 21
207.6767849999999953
 31
0.0
  0
LINE
  5
103
100
AcDbEntity
100
AcDbLine
  8
HACHURE
 62
5
370
-1
  6
CONTINUOUS
 10
122.7776460000000043
 20
207.6771349999999927
 30
0.0
 11
110.5152010000000047
 21
213.3952069999999992
 31
0.0
  0
LINE
  5
104
100
AcDbEntity
100
AcDbLine
  8
HACHURE
 62
5
370
-1
  6
CONTINUOUS
 10
110.5172570000000007
 20
210.9415229999999895
 30
0.0
 11
117.5170090000000016
 21
207.6774849999999901
 31
0.0
  0
LINE
  5
105
100
AcDbEntity
100
AcDbLine
  8
HACHURE
 62
5
370
-1
  6
CONTINUOUS
 10
112.2563729999999964
 20
207.6778349999999875
 30
0.0
 11
110.5164510000000035
 21
208.4891739999999913
 31
0.0
  0
ENDBLK
  5
106
100
AcDbEntity
  8
0
100
AcDbBlockEnd
  0
BLOCK
  5
107
100
AcDbEntity
  8
0
100
AcDbBlockBegin
  2
DESENS-G5
 70
0
 10
0.0
 20
0.0
 30
0.0
  3
DESENS-G5
  1

  0
LINE
  5
108
100
AcDbEntity
100
AcDbLine
  8
HACHURE
 62
5
370
-1
  6
CONTINUOUS
 10
111.5465760000000017
 20
219.1726700000000108
 30
0.0
 11
110.5171430000000043
 21
218.4518529999999998
 31
0.0
  0
LINE
  5
109
100
AcDbEntity
100
AcDbLine
  8
HACHURE
 62
5
370
-1
  6
CONTINUOUS
 10
111.6177420000000069
 20
217.6727590000000134
 30
0.0
 11
113.7593760000000032
 21
219.1723479999999995
 31
0.0
  0
LINE
  5
10A
100
AcDbEntity
100
AcDbLine
  8
HACHURE
 62
5
370
-1
  6
CONTINUOUS
 10
115.9721760000000046
 20
219.1720249999999908
 30
0.0
 11
113.8305409999999966
 21
217.6724370000000022
 31
0.0
  0
LINE
  5
10B
100
AcDbEntity
100
AcDbLine
  8
HACHURE
 62
5
370
-1
  6
CONTINUOUS
 10
116.0503259999999983
 20
217.6731499999999926
 30
0.0
 11
118.1919599999999946
 21
219.1727390000000071
 31
0.0
  0
LINE
  5
10C
100
AcDbEntity
100
AcDbLine
  8
HACHURE
 62
5
370
-1
  6
CONTINUOUS
 10
120.404759999999996
 20
219.1724169999999958
 30
0.0
 11
118.2631259999999997
 21
217.6728280000000098
 31
0.0
  0
LINE
  5
10D
100
AcDbEntity
100
AcDbLine
  8
HACHURE
 62
5
370
-1
  6
CONTINUOUS
 10
120.4759260000000012
 20
217.6725059999999985
 30
0.0
 11
122.6175599999999974
 21
219.172095000000013
 31
0.0
  0
LINE
  5
10E
100
AcDbEntity
100
AcDbLine
  8
HACHURE
 62
5
370
-1
  6
CONTINUOUS
 10
124.8303599999999989
 20
219.1717730000000017
 30
0.0
 11
122.6913119999999964
 21
217.6739949999999908
 31
0.0
  0
LINE
  5
10F
100
AcDbEntity
100
AcDbLine
  8
HACHURE
 62
5
370
-1
  6
CONTINUOUS
 10
124.9041119999999978
 20
217.673673000000008
 30
0.0
 11
127.0457470000000058
 21
219.173261999999994
 31
0.0
  0
LINE
  5
110
100
AcDbEntity
100
AcDbLine
  8
HACHURE
 62
5
370
-1
  6
CONTINUOUS
 10
129.258546999999993
 20
219.1729400000000112
 30
0.0
 11
127.1169119999999992
 21
217.6733509999999967
 31
0.0
  0
LINE
  5
111
100
AcDbEntity
100
AcDbLine
  8
HACHURE
 62
5
370
-1
  6
CONTINUOUS
 10
129.3366959999999892
 20
217.674065000000013
 30
0.0
 11
131.4757439999999917
 21
219.1718419999999981
 31
0.0
  0
LINE
  5
112
100
AcDbEntity
100
AcDbLine
  8
HACHURE
 62
5
370
-1
  6
CONTINUOUS
 10
133.6911310000000128
 20
219.1733309999999904
 30
0.0
 11
131.5494960000000049
 21
217.6737430000000018
 31
0.0
  0
LINE
  5
113
100
AcDbEntity
100
AcDbLine
  8
HACHURE
 62
5
370
-1
  6
CONTINUOUS
 10
133.7622959999999921
 20
217.6734209999999905
 30
0.0
 11
135.903931
 21
219.1730090000000075
 31
0.0
  0
LINE
  5
114
100
AcDbEntity
100
AcDbLine
  8
HACHURE
 62
5
370
-1
  6
CONTINUOUS
 10
138.1167309999999873
 20
219.1726869999999963
 30
0.0
 11
135.9750960000000077
 21
217.6730990000000077
 31
0.0
  0
LINE
  5
115
100
AcDbEntity
100
AcDbLine
  8
HACHURE
 62
5
370
-1
  6
CONTINUOUS
 10
138.1904820000000029
 20
217.674588
 30
0.0
 11
140.3295310000000029
 21
219.1723650000000134
 31
0.0
  0
LINE
  5
116
100
AcDbEntity
100
AcDbLine
  8
HACHURE
 62
5
370
-1
  6
CONTINUOUS
 10
142.5423309999999901
 20
219.1720430000000022
 30
0.0
 11
140.4032819999999901
 21
217.6742659999999887
 31
0.0
  0
LINE
  5
117
100
AcDbEntity
100
AcDbLine
  8
HACHURE
 62
5
370
-1
  6
CONTINUOUS
 10
142.6204799999999864
 20
217.673168000000004
 30
0.0
 11
144.7621149999999943
 21
219.1727569999999901
 31
0.0
  0
LINE
  5
118
100
AcDbEntity
100
AcDbLine
  8
HACHURE
 62
5
370
-1
  6
CONTINUOUS
 10
146.97491500000001
 20
219.1724350000000072
 30
0.0
 11
144.8358670000000075
 21
217.6746569999999963
 31
0.0
  0
LINE
  5
119
100
AcDbEntity
100
AcDbLine
  8
HACHURE
 62
5
370
-1
  6
CONTINUOUS
 10
147.0486669999999947
 20
217.6743350000000135
 30
0.0
 11
149.1903010000000052
 21
219.1739239999999995
 31
0.0
  0
LINE
  5
11A
100
AcDbEntity
100
AcDbLine
  8
HACHURE
 62
5
370
-1
  6
CONTINUOUS
 10
151.4031009999999924
 20
219.1736019999999883
 30
0.0
 11
149.2614670000000103
 21
217.6740130000000022
 31
0.0
  0
LINE
  5
11B
100
AcDbEntity
100
AcDbLine
  8
HACHURE
 62
5
370
-1
  6
CONTINUOUS
 10
151.4742660000000001
 20
217.6736909999999909
 30
0.0
 11
153.615901000000008
 21
219.1732800000000054
 31
0.0
  0
LINE
  5
11C
100
AcDbEntity
100
AcDbLine
  8
HACHURE
 62
5
370
-1
  6
CONTINUOUS
 10
155.8287009999999952
 20
219.1729579999999942
 30
0.0
 11
153.6896529999999927
 21
217.6751800000000117
 31
0.0
  0
LINE
  5
11D
100
AcDbEntity
100
AcDbLine
  8
HACHURE
 62
5
370
-1
  6
CONTINUOUS
 10
155.906850999999989
 20
217.6740819999999985
 30
0.0
 11
158.0484849999999994
 21
219.173671000000013
 31
0.0
  0
LINE
  5
11E
100
AcDbEntity
100
AcDbLine
  8
HACHURE
 62
5
370
-1
  6
CONTINUOUS
 10
160.2612849999999867
 20
219.1733490000000018
 30
0.0
 11
158.1196510000000046
 21
217.6737599999999873
 31
0.0
  0
LINE
  5
11F
100
AcDbEntity
100
AcDbLine
  8
HACHURE
 62
5
370
-1
  6
CONTINUOUS
 10
160.3350369999999998
 20
217.675249000000008
 30
0.0
 11
162.4740850000000023
 21
219.1730269999999905
 31
0.0
  0
LINE
  5
120
100
AcDbEntity
100
AcDbLine
  8
HACHURE
 62
5
370
-1
  6
CONTINUOUS
 10
164.6868849999999895
 20
219.1727050000000077
 30
0.0
 11
162.547836999999987
 21
217.6749269999999967
 31
0.0
  0
LINE
  5
121
100
AcDbEntity
100
AcDbLine
  8
HACHURE
 62
5
370
-1
  6
CONTINUOUS
 10
164.7606370000000027
 20
217.6746050000000139
 30
0.0
 11
166.9022720000000106
 21
219.174194
 31
0.0
  0
LINE
  5
122
100
AcDbEntity
100
AcDbLine
  8
HACHURE
 62
5
370
-1
  6
CONTINUOUS
 10
169.1150719999999978
 20
219.1738719999999887
 30
0.0
 11
166.9734369999999899
 21
217.6742830000000026
 31
0.0
  0
LINE
  5
123
100
AcDbEntity
100
AcDbLine
  8
HACHURE
 62
5
370
-1
  6
CONTINUOUS
 10
169.1932209999999941
 20
217.6749969999999905
 30
0.0
 11
171.334856000000002
 21
219.1745850000000075
 31
0.0
  0
LINE
  5
124
100
AcDbEntity
100
AcDbLine
  8
HACHURE
 62
5
370
-1
  6
CONTINUOUS
 10
173.5476559999999893
 20
219.1742629999999963
 30
0.0
 11
171.4060210000000097
 21
217.6746750000000077
 31
0.0
  0
LINE
  5
125
100
AcDbEntity
100
AcDbLine
  8
HACHURE
 62
5
370
-1
  6
CONTINUOUS
 10
173.618820999999997
 20
217.6743529999999964
 30
0.0
 11
175.7604560000000049
 21
219.1739410000000134
 31
0.0
  0
LINE
  5
126
100
AcDbEntity
100
AcDbLine
  8
HACHURE
 62
5
370
-1
  6
CONTINUOUS
 10
177.9732559999999921
 20
219.1736190000000022
 30
0.0
 11
175.8342079999999896
 21
217.6758419999999887
 31
0.0
  0
LINE
  5
127
100
AcDbEntity
100
AcDbLine
  8
HACHURE
 62
5
370
-1
  6
CONTINUOUS
 10
178.0470070000000078
 20
217.6755200000000059
 30
0.0
 11
180.1860560000000078
 21
219.1732969999999909
 31
0.0
  0
LINE
  5
128
100
AcDbEntity
100
AcDbLine
  8
HACHURE
 62
5
370
-1
  6
CONTINUOUS
 10
182.401442000000003
 20
219.1747860000000117
 30
0.0
 11
180.259806999999995
 21
217.6751979999999946
 31
0.0
  0
LINE
  5
129
100
AcDbEntity
100
AcDbLine
  8
HACHURE
 62
5
370
-1
  6
CONTINUOUS
 10
182.4795919999999967
 20
217.6759110000000135
 30
0.0
 11
184.6186399999999992
 21
219.173688999999996
 31
0.0
  0
LINE
  5
12A
100
AcDbEntity
100
AcDbLine
  8
HACHURE
 62
5
370
-1
  6
CONTINUOUS
 10
186.8314399999999864
 20
219.1733670000000131
 30
0.0
 11
184.6923920000000123
 21
217.6755890000000022
 31
0.0
  0
LINE
  5
12B
100
AcDbEntity
100
AcDbLine
  8
HACHURE
 62
5
370
-1
  6
CONTINUOUS
 10
186.9051919999999996
 20
217.675266999999991
 30
0.0
 11
189.04682600000001
 21
219.1748560000000055
 31
0.0
  0
LINE
  5
12C
100
AcDbEntity
100
AcDbLine
  8
HACHURE
 62
5
370
-1
  6
CONTINUOUS
 10
191.2596259999999972
 20
219.1745339999999942
 30
0.0
 11
189.1179909999999893
 21
217.6749450000000081
 31
0.0
  0
LINE
  5
12D
100
AcDbEntity
100
AcDbLine
  8
HACHURE
 62
5
370
-1
  6
CONTINUOUS
 10
191.3307910000000049
 20
217.6746229999999969
 30
0.0
 11
193.4724260000000129
 21
219.1742120000000114
 31
0.0
  0
LINE
  5
12E
100
AcDbEntity
100
AcDbLine
  8
HACHURE
 62
5
370
-1
  6
CONTINUOUS
 10
195.6852260000000001
 20
219.1738900000000001
 30
0.0
 11
193.5461779999999976
 21
217.6761119999999892
 31
0.0
  0
LINE
  5
12F
100
AcDbEntity
100
AcDbLine
  8
HACHURE
 62
5
370
-1
  6
CONTINUOUS
 10
195.7633759999999938
 20
217.6750140000000044
 30
0.0
 11
197.9050100000000043
 21
219.1746029999999905
 31
0.0
  0
LINE
  5
130
100
AcDbEntity
100
AcDbLine
  8
HACHURE
 62
5
370
-1
  6
CONTINUOUS
 10
200.1178099999999915
 20
219.1742810000000077
 30
0.0
 11
197.978761999999989
 21
217.6765029999999967
 31
0.0
  0
LINE
  5
131
100
AcDbEntity
100
AcDbLine
  8
HACHURE
 62
5
370
-1
  6
CONTINUOUS
 10
200.1915620000000047
 20
217.6761810000000139
 30
0.0
 11
202.3306100000000072
 21
219.1739589999999964
 31
0.0
  0
LINE
  5
132
100
AcDbEntity
100
AcDbLine
  8
HACHURE
 62
5
370
-1
  6
CONTINUOUS
 10
204.5459969999999998
 20
219.1754479999999887
 30
0.0
 11
202.4043619999999919
 21
217.6758590000000027
 31
0.0
  0
LINE
  5
133
100
AcDbEntity
100
AcDbLine
  8
HACHURE
 62
5
370
-1
  6
CONTINUOUS
 10
204.6171620000000075
 20
217.6755369999999914
 30
0.0
 11
206.7587969999999871
 21
219.1751260000000059
 31
0.0
  0
LINE
  5
134
100
AcDbEntity
100
AcDbLine
  8
HACHURE
 62
5
370
-1
  6
CONTINUOUS
 10
207.5128019999999935
 20
218.1533450000000016
 30
0.0
 11
206.8299619999999948
 21
217.6752150000000086
 31
0.0
  0
ENDBLK
  5
135
100
AcDbEntity
  8
0
100
AcDbBlockEnd
  0
BLOCK
  5
136
100
AcDbEntity
  8
0
100
AcDbBlockBegin
  2
DESENS-G6
 70
0
 10
0.0
 20
0.0
 30
0.0
  3
DESENS-G6
  1

  0
LINE
  5
137
100
AcDbEntity
100
AcDbLine
  8
HACHURE
 62
5
370
-1
  6
CONTINUOUS
 10
110.6530750000000012
 20
207.6715560000000096
 30
0.0
 11
110.5159900000000022
 21
207.5755680000000041
 31
0.0
  0
LINE
  5
138
100
AcDbEntity
100
AcDbLine
  8
HACHURE
 62
5
370
-1
  6
CONTINUOUS
 10
110.7268270000000001
 20
206.1734559999999874
 30
0.0
 11
112.8658750000000026
 21
207.6712339999999983
 31
0.0
  0
LINE
  5
139
100
AcDbEntity
100
AcDbLine
  8
HACHURE
 62
5
370
-1
  6
CONTINUOUS
 10
115.0812609999999978
 20
207.6727229999999906
 30
0.0
 11
112.9396270000000015
 21
206.1731340000000046
 31
0.0
  0
LINE
  5
13A
100
AcDbEntity
100
AcDbLine
  8
HACHURE
 62
5
370
-1
  6
CONTINUOUS
 10
115.152427000000003
 20
206.1728119999999933
 30
0.0
 11
117.2940609999999992
 21
207.6724010000000078
 31
0.0
  0
LINE
  5
13B
100
AcDbEntity
100
AcDbLine
  8
HACHURE
 62
5
370
-1
  6
CONTINUOUS
 10
119.5112589999999955
 20
207.6713029999999947
 30
0.0
 11
117.372210999999993
 21
206.1735260000000096
 31
0.0
  0
LINE
  5
13C
100
AcDbEntity
100
AcDbLine
  8
HACHURE
 62
5
370
-1
  6
CONTINUOUS
 10
119.5850109999999944
 20
206.1732039999999984
 30
0.0
 11
121.7266460000000023
 21
207.672791999999987
 31
0.0
  0
LINE
  5
13D
100
AcDbEntity
100
AcDbLine
  8
HACHURE
 62
5
370
-1
  6
CONTINUOUS
 10
123.9394460000000038
 20
207.6724700000000041
 30
0.0
 11
121.7978109999999958
 21
206.1728819999999871
 31
0.0
  0
LINE
  5
13E
100
AcDbEntity
100
AcDbLine
  8
HACHURE
 62
5
370
-1
  6
CONTINUOUS
 10
124.0106109999999973
 20
206.1725600000000043
 30
0.0
 11
126.1522449999999935
 21
207.6721479999999929
 31
0.0
  0
LINE
  5
13F
100
AcDbEntity
100
AcDbLine
  8
HACHURE
 62
5
370
-1
  6
CONTINUOUS
 10
128.3650450000000092
 20
207.67182600000001
 30
0.0
 11
126.2259970000000067
 21
206.1740489999999966
 31
0.0
  0
LINE
  5
140
100
AcDbEntity
100
AcDbLine
  8
HACHURE
 62
5
370
-1
  6
CONTINUOUS
 10
128.4387969999999939
 20
206.1737270000000137
 30
0.0
 11
130.5804320000000018
 21
207.6733150000000023
 31
0.0
  0
LINE
  5
141
100
AcDbEntity
100
AcDbLine
  8
HACHURE
 62
5
370
-1
  6
CONTINUOUS
 10
132.7976299999999981
 20
207.6722179999999867
 30
0.0
 11
130.6585809999999981
 21
206.1744400000000041
 31
0.0
  0
LINE
  5
142
100
AcDbEntity
100
AcDbLine
  8
HACHURE
 62
5
370
-1
  6
CONTINUOUS
 10
132.8713810000000137
 20
206.1741179999999929
 30
0.0
 11
135.0104300000000137
 21
207.6718960000000038
 31
0.0
  0
LINE
  5
143
100
AcDbEntity
100
AcDbLine
  8
HACHURE
 62
5
370
-1
  6
CONTINUOUS
 10
137.2258160000000089
 20
207.6733849999999961
 30
0.0
 11
135.0841810000000009
 21
206.1737960000000101
 31
0.0
  0
LINE
  5
144
100
AcDbEntity
100
AcDbLine
  8
HACHURE
 62
5
370
-1
  6
CONTINUOUS
 10
137.2969809999999882
 20
206.1734739999999988
 30
0.0
 11
139.4386159999999961
 21
207.6730630000000133
 31
0.0
  0
LINE
  5
145
100
AcDbEntity
100
AcDbLine
  8
HACHURE
 62
5
370
-1
  6
CONTINUOUS
 10
141.6514160000000118
 20
207.672741000000002
 30
0.0
 11
139.5097810000000038
 21
206.1731519999999875
 31
0.0
  0
LINE
  5
146
100
AcDbEntity
100
AcDbLine
  8
HACHURE
 62
5
370
-1
  6
CONTINUOUS
 10
141.7251679999999965
 20
206.1746410000000083
 30
0.0
 11
143.864215999999999
 21
207.6724189999999908
 31
0.0
  0
LINE
  5
147
100
AcDbEntity
100
AcDbLine
  8
HACHURE
 62
5
370
-1
  6
CONTINUOUS
 10
146.0840000000000032
 20
207.6731320000000096
 30
0.0
 11
143.9423649999999952
 21
206.1735429999999951
 31
0.0
  0
LINE
  5
148
100
AcDbEntity
100
AcDbLine
  8
HACHURE
 62
5
370
-1
  6
CONTINUOUS
 10
146.1551650000000109
 20
206.1732210000000123
 30
0.0
 11
148.2967999999999904
 21
207.6728099999999984
 31
0.0
  0
LINE
  5
149
100
AcDbEntity
100
AcDbLine
  8
HACHURE
 62
5
370
-1
  6
CONTINUOUS
 10
150.509600000000006
 20
207.6724879999999871
 30
0.0
 11
148.3705520000000035
 21
206.1747100000000046
 31
0.0
  0
LINE
  5
14A
100
AcDbEntity
100
AcDbLine
  8
HACHURE
 62
5
370
-1
  6
CONTINUOUS
 10
150.5833519999999908
 20
206.1743879999999933
 30
0.0
 11
152.7249860000000012
 21
207.6739770000000078
 31
0.0
  0
LINE
  5
14B
100
AcDbEntity
100
AcDbLine
  8
HACHURE
 62
5
370
-1
  6
CONTINUOUS
 10
154.9377859999999885
 20
207.6736549999999966
 30
0.0
 11
152.7961520000000064
 21
206.1740660000000105
 31
0.0
  0
LINE
  5
14C
100
AcDbEntity
100
AcDbLine
  8
HACHURE
 62
5
370
-1
  6
CONTINUOUS
 10
155.0089519999999936
 20
206.1737439999999992
 30
0.0
 11
157.1505860000000041
 21
207.6733330000000137
 31
0.0
  0
LINE
  5
14D
100
AcDbEntity
100
AcDbLine
  8
HACHURE
 62
5
370
-1
  6
CONTINUOUS
 10
159.3703710000000058
 20
207.6740460000000041
 30
0.0
 11
157.2287359999999978
 21
206.1744579999999871
 31
0.0
  0
LINE
  5
14E
100
AcDbEntity
100
AcDbLine
  8
HACHURE
 62
5
370
-1
  6
CONTINUOUS
 10
159.4415360000000135
 20
206.1741360000000043
 30
0.0
 11
161.583170999999993
 21
207.6737239999999929
 31
0.0
  0
LINE
  5
14F
100
AcDbEntity
100
AcDbLine
  8
HACHURE
 62
5
370
-1
  6
CONTINUOUS
 10
163.7959700000000112
 20
207.67340200000001
 30
0.0
 11
161.6543360000000007
 21
206.173813999999993
 31
0.0
  0
LINE
  5
150
100
AcDbEntity
100
AcDbLine
  8
HACHURE
 62
5
370
-1
  6
CONTINUOUS
 10
163.8697219999999959
 20
206.1753030000000138
 30
0.0
 11
166.0087699999999984
 21
207.6730799999999988
 31
0.0
  0
LINE
  5
151
100
AcDbEntity
100
AcDbLine
  8
HACHURE
 62
5
370
-1
  6
CONTINUOUS
 10
168.221570000000014
 20
207.6727579999999875
 30
0.0
 11
166.0825220000000115
 21
206.1749810000000025
 31
0.0
  0
LINE
  5
152
100
AcDbEntity
100
AcDbLine
  8
HACHURE
 62
5
370
-1
  6
CONTINUOUS
 10
168.2953219999999988
 20
206.1746589999999912
 30
0.0
 11
170.4369570000000067
 21
207.6742470000000083
 31
0.0
  0
LINE
  5
153
100
AcDbEntity
100
AcDbLine
  8
HACHURE
 62
5
370
-1
  6
CONTINUOUS
 10
172.6541550000000029
 20
207.6731499999999926
 30
0.0
 11
170.515106000000003
 21
206.1753720000000101
 31
0.0
  0
LINE
  5
154
100
AcDbEntity
100
AcDbLine
  8
HACHURE
 62
5
370
-1
  6
CONTINUOUS
 10
172.7279059999999902
 20
206.1750499999999988
 30
0.0
 11
174.8695409999999981
 21
207.6746390000000133
 31
0.0
  0
LINE
  5
155
100
AcDbEntity
100
AcDbLine
  8
HACHURE
 62
5
370
-1
  6
CONTINUOUS
 10
177.0823410000000138
 20
207.6743170000000021
 30
0.0
 11
174.9407060000000058
 21
206.1747279999999876
 31
0.0
  0
LINE
  5
156
100
AcDbEntity
100
AcDbLine
  8
HACHURE
 62
5
370
-1
  6
CONTINUOUS
 10
177.153505999999993
 20
206.1744060000000047
 30
0.0
 11
179.295141000000001
 21
207.6739949999999908
 31
0.0
  0
LINE
  5
157
100
AcDbEntity
100
AcDbLine
  8
HACHURE
 62
5
370
-1
  6
CONTINUOUS
 10
181.5079409999999882
 20
207.673673000000008
 30
0.0
 11
179.3688930000000141
 21
206.175894999999997
 31
0.0
  0
LINE
  5
158
100
AcDbEntity
100
AcDbLine
  8
HACHURE
 62
5
370
-1
  6
CONTINUOUS
 10
181.5816930000000013
 20
206.1755730000000142
 30
0.0
 11
183.7207410000000039
 21
207.6733509999999967
 31
0.0
  0
LINE
  5
159
100
AcDbEntity
100
AcDbLine
  8
HACHURE
 62
5
370
-1
  6
CONTINUOUS
 10
185.940525000000008
 20
207.6740639999999871
 30
0.0
 11
183.7988900000000001
 21
206.174475000000001
 31
0.0
  0
LINE
  5
15A
100
AcDbEntity
100
AcDbLine
  8
HACHURE
 62
5
370
-1
  6
CONTINUOUS
 10
186.0142769999999928
 20
206.1759639999999933
 30
0.0
 11
188.1533249999999953
 21
207.6737420000000043
 31
0.0
  0
LINE
  5
15B
100
AcDbEntity
100
AcDbLine
  8
HACHURE
 62
5
370
-1
  6
CONTINUOUS
 10
190.3661250000000109
 20
207.673419999999993
 30
0.0
 11
188.2270770000000084
 21
206.1756420000000105
 31
0.0
  0
LINE
  5
15C
100
AcDbEntity
100
AcDbLine
  8
HACHURE
 62
5
370
-1
  6
CONTINUOUS
 10
190.4398769999999956
 20
206.1753199999999993
 30
0.0
 11
192.5815110000000061
 21
207.6749090000000137
 31
0.0
  0
LINE
  5
15D
100
AcDbEntity
100
AcDbLine
  8
HACHURE
 62
5
370
-1
  6
CONTINUOUS
 10
194.7943109999999933
 20
207.6745870000000025
 30
0.0
 11
192.6526770000000113
 21
206.174997999999988
 31
0.0
  0
LINE
  5
15E
100
AcDbEntity
100
AcDbLine
  8
HACHURE
 62
5
370
-1
  6
CONTINUOUS
 10
194.8654769999999985
 20
206.1746760000000052
 30
0.0
 11
197.007111000000009
 21
207.6742649999999912
 31
0.0
  0
LINE
  5
15F
100
AcDbEntity
100
AcDbLine
  8
HACHURE
 62
5
370
-1
  6
CONTINUOUS
 10
199.2268960000000106
 20
207.6749790000000075
 30
0.0
 11
197.0852610000000027
 21
206.1753899999999931
 31
0.0
  0
LINE
  5
160
100
AcDbEntity
100
AcDbLine
  8
HACHURE
 62
5
370
-1
  6
CONTINUOUS
 10
199.2980609999999899
 20
206.1750680000000102
 30
0.0
 11
201.4396950000000004
 21
207.6746569999999963
 31
0.0
  0
LINE
  5
161
100
AcDbEntity
100
AcDbLine
  8
HACHURE
 62
5
370
-1
  6
CONTINUOUS
 10
203.6524949999999876
 20
207.6743339999999876
 30
0.0
 11
201.5134470000000135
 21
206.1765570000000025
 31
0.0
  0
LINE
  5
162
100
AcDbEntity
100
AcDbLine
  8
HACHURE
 62
5
370
-1
  6
CONTINUOUS
 10
203.7262470000000008
 20
206.1762349999999913
 30
0.0
 11
205.8652950000000033
 21
207.6740120000000047
 31
0.0
  0
LINE
  5
163
100
AcDbEntity
100
AcDbLine
  8
HACHURE
 62
5
370
-1
  6
CONTINUOUS
 10
207.5116480000000081
 20
207.2770600000000059
 30
0.0
 11
205.939046999999988
 21
206.1759130000000084
 31
0.0
  0
ENDBLK
  5
164
100
AcDbEntity
  8
0
100
AcDbBlockEnd
  0
BLOCK
  5
165
100
AcDbEntity
  8
0
100
AcDbBlockBegin
  2
DESENS-G7
 70
0
 10
0.0
 20
0.0
 30
0.0
  3
DESENS-G7
  1

  0
LINE
  5
166
100
AcDbEntity
100
AcDbLine
  8
HACHURE
 62
5
370
-1
  6
CONTINUOUS
 10
60.5396780000000021
 20
226.6737819999999886
 30
0.0
 11
59.0180870000000013
 21
225.1521899999999903
 31
0.0
  0
LINE
  5
167
100
AcDbEntity
100
AcDbLine
  8
HACHURE
 62
5
370
-1
  6
CONTINUOUS
 10
59.0180909999999983
 20
220.6628179999999873
 30
0.0
 11
65.0290509999999955
 21
226.6737779999999987
 31
0.0
  0
LINE
  5
168
100
AcDbEntity
100
AcDbLine
  8
HACHURE
 62
5
370
-1
  6
CONTINUOUS
 10
69.5211160000000064
 20
226.6737740000000088
 30
0.0
 11
59.0180950000000024
 21
216.1707519999999931
 31
0.0
  0
LINE
  5
169
100
AcDbEntity
100
AcDbLine
  8
HACHURE
 62
5
370
-1
  6
CONTINUOUS
 10
59.0180989999999994
 20
211.6813799999999901
 30
0.0
 11
74.0104890000000069
 21
226.6737699999999904
 31
0.0
  0
LINE
  5
16A
100
AcDbEntity
100
AcDbLine
  8
HACHURE
 62
5
370
-1
  6
CONTINUOUS
 10
78.4998609999999957
 20
226.6737660000000005
 30
0.0
 11
59.0181030000000035
 21
207.1920069999999896
 31
0.0
  0
LINE
  5
16B
100
AcDbEntity
100
AcDbLine
  8
HACHURE
 62
5
370
-1
  6
CONTINUOUS
 10
59.0181070000000005
 20
202.7026349999999866
 30
0.0
 11
71.5988409999999931
 21
215.2833699999999908
 31
0.0
  0
LINE
  5
16C
100
AcDbEntity
100
AcDbLine
  8
HACHURE
 62
5
370
-1
  6
CONTINUOUS
 10
77.9046940000000063
 20
221.5892220000000066
 30
0.0
 11
82.9892339999999962
 21
226.6737620000000106
 31
0.0
  0
LINE
  5
16D
100
AcDbEntity
100
AcDbLine
  8
HACHURE
 62
5
370
-1
  6
CONTINUOUS
 10
87.481299000000007
 20
226.6737579999999923
 30
0.0
 11
81.9012319999999931
 21
221.0936910000000069
 31
0.0
  0
LINE
  5
16E
100
AcDbEntity
100
AcDbLine
  8
HACHURE
 62
5
370
-1
  6
CONTINUOUS
 10
72.0957190000000026
 20
211.2881779999999878
 30
0.0
 11
59.9822339999999983
 21
199.1746929999999907
 31
0.0
  0
LINE
  5
16F
100
AcDbEntity
100
AcDbLine
  8
HACHURE
 62
5
370
-1
  6
CONTINUOUS
 10
64.4716070000000059
 20
199.1746890000000008
 30
0.0
 11
73.9458709999999968
 21
208.6489530000000059
 31
0.0
  0
LINE
  5
170
100
AcDbEntity
100
AcDbLine
  8
HACHURE
 62
5
370
-1
  6
CONTINUOUS
 10
84.5404570000000035
 20
219.2435399999999959
 30
0.0
 11
91.9706719999999933
 21
226.6737540000000024
 31
0.0
  0
LINE
  5
171
100
AcDbEntity
100
AcDbLine
  8
HACHURE
 62
5
370
-1
  6
CONTINUOUS
 10
94.0174180000000064
 20
224.2311239999999941
 30
0.0
 11
86.1792020000000036
 21
216.3929080000000056
 31
0.0
  0
LINE
  5
172
100
AcDbEntity
100
AcDbLine
  8
HACHURE
 62
5
370
-1
  6
CONTINUOUS
 10
76.7965030000000013
 20
207.0102080000000058
 30
0.0
 11
68.9609789999999947
 21
199.1746850000000109
 31
0.0
  0
LINE
  5
173
100
AcDbEntity
100
AcDbLine
  8
HACHURE
 62
5
370
-1
  6
CONTINUOUS
 10
73.453045000000003
 20
199.1746809999999925
 30
0.0
 11
81.3101130000000012
 21
207.0317489999999907
 31
0.0
  0
LINE
  5
174
100
AcDbEntity
100
AcDbLine
  8
HACHURE
 62
5
370
-1
  6
CONTINUOUS
 10
86.1563150000000064
 20
211.8779509999999959
 30
0.0
 11
94.1897799999999989
 21
219.9114160000000027
 31
0.0
  0
LINE
  5
175
100
AcDbEntity
100
AcDbLine
  8
HACHURE
 62
5
370
-1
  6
CONTINUOUS
 10
95.986069999999998
 20
217.2183300000000088
 30
0.0
 11
77.9424170000000061
 21
199.1746770000000026
 31
0.0
  0
LINE
  5
176
100
AcDbEntity
100
AcDbLine
  8
HACHURE
 62
5
370
-1
  6
CONTINUOUS
 10
82.4317900000000066
 20
199.1746730000000127
 30
0.0
 11
97.7823599999999971
 21
214.525242999999989
 31
0.0
  0
LINE
  5
177
100
AcDbEntity
100
AcDbLine
  8
HACHURE
 62
5
370
-1
  6
CONTINUOUS
 10
101.9202850000000069
 20
214.1737919999999917
 30
0.0
 11
86.9211619999999954
 21
199.1746689999999944
 31
0.0
  0
LINE
  5
178
100
AcDbEntity
100
AcDbLine
  8
HACHURE
 62
5
370
-1
  6
CONTINUOUS
 10
91.4132280000000037
 20
199.1746650000000045
 30
0.0
 11
106.4123500000000035
 21
214.1737880000000018
 31
0.0
  0
LINE
  5
179
100
AcDbEntity
100
AcDbLine
  8
HACHURE
 62
5
370
-1
  6
CONTINUOUS
 10
109.0152190000000019
 20
212.2872800000000097
 30
0.0
 11
95.9026000000000067
 21
199.1746609999999862
 31
0.0
  0
LINE
  5
17A
100
AcDbEntity
100
AcDbLine
  8
HACHURE
 62
5
370
-1
  6
CONTINUOUS
 10
100.3919719999999955
 20
199.1746569999999963
 30
0.0
 11
109.015223000000006
 21
207.7979070000000092
 31
0.0
  0
LINE
  5
17B
100
AcDbEntity
100
AcDbLine
  8
HACHURE
 62
5
370
-1
  6
CONTINUOUS
 10
111.8820130000000006
 20
206.1753209999999967
 30
0.0
 11
104.881344999999996
 21
199.1746530000000064
 31
0.0
  0
LINE
  5
17C
100
AcDbEntity
100
AcDbLine
  8
HACHURE
 62
5
370
-1
  6
CONTINUOUS
 10
109.3734100000000069
 20
199.1746489999999881
 30
0.0
 11
116.3740779999999972
 21
206.1753170000000068
 31
0.0
  0
LINE
  5
17D
100
AcDbEntity
100
AcDbLine
  8
HACHURE
 62
5
370
-1
  6
CONTINUOUS
 10
117.5146029999999939
 20
202.8264650000000131
 30
0.0
 11
113.8627829999999932
 21
199.1746449999999982
 31
0.0
  0
ENDBLK
  5
17E
100
AcDbEntity
  8
0
100
AcDbBlockEnd
  0
BLOCK
  5
17F
100
AcDbEntity
  8
0
100
AcDbBlockBegin
  2
DESENS-G8
 70
0
 10
0.0
 20
0.0
 30
0.0
  3
DESENS-G8
  1

  0
LINE
  5
180
100
AcDbEntity
100
AcDbLine
  8
HACHURE
 62
5
370
-1
  6
CONTINUOUS
 10
86.4326630000000051
 20
215.2928949999999872
 30
0.0
 11
80.1360289999999935
 21
221.5895289999999989
 31
0.0
  0
LINE
  5
181
100
AcDbEntity
100
AcDbLine
  8
HACHURE
 62
5
370
-1
  6
CONTINUOUS
 10
77.5109640000000013
 20
221.5208210000000122
 30
0.0
 11
78.8602680000000049
 21
220.1715169999999944
 31
0.0
  0
LINE
  5
182
100
AcDbEntity
100
AcDbLine
  8
HACHURE
 62
5
370
-1
  6
CONTINUOUS
 10
85.0146519999999981
 20
214.0171330000000012
 30
0.0
 11
86.3639550000000042
 21
212.6678300000000092
 31
0.0
  0
LINE
  5
183
100
AcDbEntity
100
AcDbLine
  8
HACHURE
 62
5
370
-1
  6
CONTINUOUS
 10
85.6544310000000024
 20
210.6828899999999862
 30
0.0
 11
84.5302420000000012
 21
211.8070789999999874
 31
0.0
  0
LINE
  5
184
100
AcDbEntity
100
AcDbLine
  8
HACHURE
 62
5
370
-1
  6
CONTINUOUS
 10
76.6502140000000054
 20
219.6871079999999949
 30
0.0
 11
75.5260250000000042
 21
220.8112969999999962
 31
0.0
  0
LINE
  5
185
100
AcDbEntity
100
AcDbLine
  8
HACHURE
 62
5
370
-1
  6
CONTINUOUS
 10
73.9450470000000024
 20
219.6985019999999906
 30
0.0
 11
75.007087999999996
 21
218.6364599999999996
 31
0.0
  0
LINE
  5
186
100
AcDbEntity
100
AcDbLine
  8
HACHURE
 62
5
370
-1
  6
CONTINUOUS
 10
83.4795950000000033
 20
210.1639539999999897
 30
0.0
 11
84.5416359999999969
 21
209.1019129999999961
 31
0.0
  0
LINE
  5
187
100
AcDbEntity
100
AcDbLine
  8
HACHURE
 62
5
370
-1
  6
CONTINUOUS
 10
83.0794300000000021
 20
207.8696549999999945
 30
0.0
 11
81.9876959999999997
 21
208.9613889999999969
 31
0.0
  0
LINE
  5
188
100
AcDbEntity
100
AcDbLine
  8
HACHURE
 62
5
370
-1
  6
CONTINUOUS
 10
73.8045230000000032
 20
217.1445620000000076
 30
0.0
 11
72.7127890000000008
 21
218.2362960000000101
 31
0.0
  0
LINE
  5
189
100
AcDbEntity
100
AcDbLine
  8
HACHURE
 62
5
370
-1
  6
CONTINUOUS
 10
71.8551460000000048
 20
216.4001660000000129
 30
0.0
 11
73.0981069999999988
 21
215.1572050000000047
 31
0.0
  0
LINE
  5
18A
100
AcDbEntity
100
AcDbLine
  8
HACHURE
 62
5
370
-1
  6
CONTINUOUS
 10
80.0003389999999968
 20
208.2549730000000068
 30
0.0
 11
81.243300000000005
 21
207.0120119999999986
 31
0.0
  0
LINE
  5
18B
100
AcDbEntity
100
AcDbLine
  8
HACHURE
 62
5
370
-1
  6
CONTINUOUS
 10
78.8861629999999963
 20
206.6746860000000083
 30
0.0
 11
77.0579740000000015
 21
208.5028739999999914
 31
0.0
  0
LINE
  5
18C
100
AcDbEntity
100
AcDbLine
  8
HACHURE
 62
5
370
-1
  6
CONTINUOUS
 10
73.3460089999999951
 20
212.2148400000000095
 30
0.0
 11
71.5178200000000004
 21
214.0430279999999925
 31
0.0
  0
LINE
  5
18D
100
AcDbEntity
100
AcDbLine
  8
HACHURE
 62
5
370
-1
  6
CONTINUOUS
 10
72.6389020000000016
 20
210.2281729999999982
 30
0.0
 11
75.0713080000000019
 21
207.7957680000000096
 31
0.0
  0
ENDBLK
  5
18E
100
AcDbEntity
  8
0
100
AcDbBlockEnd
  0
BLOCK
  5
18F
100
AcDbEntity
  8
0
100
AcDbBlockBegin
  2
DESENS-G9
 70
0
 10
0.0
 20
0.0
 30
0.0
  3
DESENS-G9
  1

  0
LINE
  5
190
100
AcDbEntity
100
AcDbLine
  8
HACHURE
 62
5
370
-1
  6
CONTINUOUS
 10
60.5875500000000002
 20
249.1733199999999897
 30
0.0
 11
59.0167240000000035
 21
247.6024930000000097
 31
0.0
  0
LINE
  5
191
100
AcDbEntity
100
AcDbLine
  8
HACHURE
 62
5
370
-1
  6
CONTINUOUS
 10
59.016879000000003
 20
243.1126700000000085
 30
0.0
 11
64.0169900000000069
 21
248.1127799999999866
 31
0.0
  0
LINE
  5
192
100
AcDbEntity
100
AcDbLine
  8
HACHURE
 62
5
370
-1
  6
CONTINUOUS
 10
67.5679640000000035
 20
247.1737740000000088
 30
0.0
 11
62.067537999999999
 21
241.6733490000000018
 31
0.0
  0
LINE
  5
193
100
AcDbEntity
100
AcDbLine
  8
HACHURE
 62
5
370
-1
  6
CONTINUOUS
 10
66.5573619999999977
 20
241.6731929999999977
 30
0.0
 11
72.0577870000000047
 21
247.1736190000000022
 31
0.0
  0
LINE
  5
194
100
AcDbEntity
100
AcDbLine
  8
HACHURE
 62
5
370
-1
  6
CONTINUOUS
 10
76.5486240000000038
 20
247.1734629999999981
 30
0.0
 11
71.0487049999999982
 21
241.6735439999999926
 31
0.0
  0
LINE
  5
195
100
AcDbEntity
100
AcDbLine
  8
HACHURE
 62
5
370
-1
  6
CONTINUOUS
 10
75.5385279999999995
 20
241.6733879999999886
 30
0.0
 11
81.0161659999999983
 21
247.1510250000000042
 31
0.0
  0
LINE
  5
196
100
AcDbEntity
100
AcDbLine
  8
HACHURE
 62
5
370
-1
  6
CONTINUOUS
 10
81.0163220000000024
 20
242.661202000000003
 30
0.0
 11
80.0283519999999982
 21
241.6732320000000129
 31
0.0
  0
ENDBLK
  5
197
100
AcDbEntity
  8
0
100
AcDbBlockEnd
  0
BLOCK
  5
198
100
AcDbEntity
  8
0
100
AcDbBlockBegin
  2
DESENS-G10
 70
0
 10
0.0
 20
0.0
 30
0.0
  3
DESENS-G10
  1

  0
LINE
  5
199
100
AcDbEntity
100
AcDbLine
  8
HACHURE
 62
5
370
-1
  6
CONTINUOUS
 10
85.5290219999999977
 20
247.1735470000000134
 30
0.0
 11
85.0169219999999939
 21
246.6614470000000097
 31
0.0
  0
LINE
  5
19A
100
AcDbEntity
100
AcDbLine
  8
HACHURE
 62
5
370
-1
  6
CONTINUOUS
 10
85.0169620000000066
 20
242.171416999999991
 30
0.0
 11
90.0190520000000021
 21
247.1735070000000007
 31
0.0
  0
LINE
  5
19B
100
AcDbEntity
100
AcDbLine
  8
HACHURE
 62
5
370
-1
  6
CONTINUOUS
 10
94.0168689999999998
 20
246.6812549999999931
 30
0.0
 11
89.0091859999999997
 21
241.6735710000000097
 31
0.0
  0
LINE
  5
19C
100
AcDbEntity
100
AcDbLine
  8
HACHURE
 62
5
370
-1
  6
CONTINUOUS
 10
93.4992150000000066
 20
241.6735319999999945
 30
0.0
 11
94.0169089999999983
 21
242.1912250000000029
 31
0.0
  0
ENDBLK
  5
19D
100
AcDbEntity
  8
0
100
AcDbBlockEnd
  0
BLOCK
  5
19E
100
AcDbEntity
  8
0
100
AcDbBlockBegin
  2
DESENS-G11
 70
0
 10
0.0
 20
0.0
 30
0.0
  3
DESENS-G11
  1

  0
LINE
  5
19F
100
AcDbEntity
100
AcDbLine
  8
HACHURE
 62
5
370
-1
  6
CONTINUOUS
 10
85.0169479999999993
 20
245.7950130000000115
 30
0.0
 11
84.2051649999999938
 21
246.1735529999999983
 31
0.0
  0
LINE
  5
1A0
100
AcDbEntity
100
AcDbLine
  8
HACHURE
 62
5
370
-1
  6
CONTINUOUS
 10
81.2003080000000068
 20
246.1735109999999906
 30
0.0
 11
85.0169499999999942
 21
244.3937819999999874
 31
0.0
  0
LINE
  5
1A1
100
AcDbEntity
100
AcDbLine
  8
HACHURE
 62
5
370
-1
  6
CONTINUOUS
 10
85.0170150000000007
 20
242.9923780000000022
 30
0.0
 11
81.0169879999999978
 21
244.8576209999999946
 31
0.0
  0
LINE
  5
1A2
100
AcDbEntity
100
AcDbLine
  8
HACHURE
 62
5
370
-1
  6
CONTINUOUS
 10
81.0169889999999953
 20
243.4563909999999964
 30
0.0
 11
85.0170169999999956
 21
241.5911470000000065
 31
0.0
  0
LINE
  5
1A3
100
AcDbEntity
100
AcDbLine
  8
HACHURE
 62
5
370
-1
  6
CONTINUOUS
 10
85.0169640000000015
 20
240.1897989999999936
 30
0.0
 11
81.0170540000000017
 21
242.0549870000000112
 31
0.0
  0
LINE
  5
1A4
100
AcDbEntity
100
AcDbLine
  8
HACHURE
 62
5
370
-1
  6
CONTINUOUS
 10
81.0170559999999966
 20
240.6537559999999871
 30
0.0
 11
84.1912580000000048
 21
239.1736019999999883
 31
0.0
  0
LINE
  5
1A5
100
AcDbEntity
100
AcDbLine
  8
HACHURE
 62
5
370
-1
  6
CONTINUOUS
 10
81.1858739999999983
 20
239.1736620000000073
 30
0.0
 11
81.0170030000000025
 21
239.2524070000000052
 31
0.0
  0
ENDBLK
  5
1A6
100
AcDbEntity
  8
0
100
AcDbBlockEnd
  0
BLOCK
  5
1A7
100
AcDbEntity
  8
0
100
AcDbBlockBegin
  2
DESENS-G12
 70
0
 10
0.0
 20
0.0
 30
0.0
  3
DESENS-G12
  1

  0
LINE
  5
1A8
100
AcDbEntity
100
AcDbLine
  8
HACHURE
 62
5
370
-1
  6
CONTINUOUS
 10
222.0166759999999897
 20
224.7341439999999864
 30
0.0
 11
220.4006530000000055
 21
229.174129999999991
 31
0.0
  0
LINE
  5
1A9
100
AcDbEntity
100
AcDbLine
  8
HACHURE
 62
5
370
-1
  6
CONTINUOUS
 10
218.1639720000000011
 20
228.8207730000000026
 30
0.0
 11
220.5832749999999862
 21
222.1737929999999892
 31
0.0
  0
LINE
  5
1AA
100
AcDbEntity
100
AcDbLine
  8
HACHURE
 62
5
370
-1
  6
CONTINUOUS
 10
218.2180009999999868
 20
222.173737999999986
 30
0.0
 11
216.4296879999999987
 21
227.0870889999999918
 31
0.0
  0
LINE
  5
1AB
100
AcDbEntity
100
AcDbLine
  8
HACHURE
 62
5
370
-1
  6
CONTINUOUS
 10
214.2154820000000086
 20
226.6743610000000047
 30
0.0
 11
214.7615779999999859
 21
225.1739729999999895
 31
0.0
  0
LINE
  5
1AC
100
AcDbEntity
100
AcDbLine
  8
HACHURE
 62
5
370
-1
  6
CONTINUOUS
 10
215.307674999999989
 20
223.6735850000000028
 30
0.0
 11
215.8534929999999861
 21
222.1739619999999888
 31
0.0
  0
LINE
  5
1AD
100
AcDbEntity
100
AcDbLine
  8
HACHURE
 62
5
370
-1
  6
CONTINUOUS
 10
213.4882200000000125
 20
222.1739059999999881
 30
0.0
 11
212.9429580000000044
 21
223.671999999999997
 31
0.0
  0
LINE
  5
1AE
100
AcDbEntity
100
AcDbLine
  8
HACHURE
 62
5
370
-1
  6
CONTINUOUS
 10
212.3963050000000123
 20
225.1739179999999863
 30
0.0
 11
211.8502090000000067
 21
226.6743060000000014
 31
0.0
  0
LINE
  5
1AF
100
AcDbEntity
100
AcDbLine
  8
HACHURE
 62
5
370
-1
  6
CONTINUOUS
 10
209.4849350000000072
 20
226.6742509999999982
 30
0.0
 11
210.0310320000000104
 21
225.1738630000000114
 31
0.0
  0
LINE
  5
1B0
100
AcDbEntity
100
AcDbLine
  8
HACHURE
 62
5
370
-1
  6
CONTINUOUS
 10
210.5779640000000086
 20
223.67118099999999
 30
0.0
 11
211.1229470000000106
 21
222.1738510000000133
 31
0.0
  0
LINE
  5
1B1
100
AcDbEntity
100
AcDbLine
  8
HACHURE
 62
5
370
-1
  6
CONTINUOUS
 10
208.7576740000000086
 20
222.1737960000000101
 30
0.0
 11
208.2129689999999869
 21
223.670361000000014
 31
0.0
  0
LINE
  5
1B2
100
AcDbEntity
100
AcDbLine
  8
HACHURE
 62
5
370
-1
  6
CONTINUOUS
 10
207.6654809999999998
 20
225.1745730000000094
 30
0.0
 11
207.1196620000000053
 21
226.6741959999999949
 31
0.0
  0
LINE
  5
1B3
100
AcDbEntity
100
AcDbLine
  8
HACHURE
 62
5
370
-1
  6
CONTINUOUS
 10
204.7543890000000033
 20
226.6741409999999917
 30
0.0
 11
205.3002070000000003
 21
225.1745170000000087
 31
0.0
  0
LINE
  5
1B4
100
AcDbEntity
100
AcDbLine
  8
HACHURE
 62
5
370
-1
  6
CONTINUOUS
 10
202.9349339999999984
 20
225.1744620000000054
 30
0.0
 11
202.3891160000000013
 21
226.6740859999999884
 31
0.0
  0
LINE
  5
1B5
100
AcDbEntity
100
AcDbLine
  8
HACHURE
 62
5
370
-1
  6
CONTINUOUS
 10
200.0246080000000006
 20
226.6743089999999938
 30
0.0
 11
200.5707040000000063
 21
225.1739210000000071
 31
0.0
  0
LINE
  5
1B6
100
AcDbEntity
100
AcDbLine
  8
HACHURE
 62
5
370
-1
  6
CONTINUOUS
 10
198.2054310000000044
 20
225.1738660000000039
 30
0.0
 11
197.6593349999999987
 21
226.6742539999999906
 31
0.0
  0
ENDBLK
  5
1B7
100
AcDbEntity
  8
0
100
AcDbBlockEnd
  0
BLOCK
  5
1B8
100
AcDbEntity
  8
0
100
AcDbBlockBegin
  2
DESENS-G13
 70
0
 10
0.0
 20
0.0
 30
0.0
  3
DESENS-G13
  1

  0
LINE
  5
1B9
100
AcDbEntity
100
AcDbLine
  8
HACHURE
 62
5
370
-1
  6
CONTINUOUS
 10
207.3319769999999949
 20
225.1733169999999973
 30
0.0
 11
207.0169390000000078
 21
224.4977169999999944
 31
0.0
  0
LINE
  5
1BA
100
AcDbEntity
100
AcDbLine
  8
HACHURE
 62
5
370
-1
  6
CONTINUOUS
 10
207.8588349999999991
 20
223.6734089999999924
 30
0.0
 11
208.5583839999999896
 21
225.1735960000000034
 31
0.0
  0
LINE
  5
1BB
100
AcDbEntity
100
AcDbLine
  8
HACHURE
 62
5
370
-1
  6
CONTINUOUS
 10
209.7842210000000023
 20
225.173421999999988
 30
0.0
 11
209.0846720000000118
 21
223.6732350000000054
 31
0.0
  0
LINE
  5
1BC
100
AcDbEntity
100
AcDbLine
  8
HACHURE
 62
5
370
-1
  6
CONTINUOUS
 10
210.3110790000000065
 20
223.6735140000000115
 30
0.0
 11
211.0104900000000043
 21
225.1734059999999999
 31
0.0
  0
LINE
  5
1BD
100
AcDbEntity
100
AcDbLine
  8
HACHURE
 62
5
370
-1
  6
CONTINUOUS
 10
212.2364640000000122
 20
225.1735280000000046
 30
0.0
 11
211.5369159999999908
 21
223.6733399999999961
 31
0.0
  0
LINE
  5
1BE
100
AcDbEntity
100
AcDbLine
  8
HACHURE
 62
5
370
-1
  6
CONTINUOUS
 10
212.7631849999999929
 20
223.673324000000008
 30
0.0
 11
213.4627340000000117
 21
225.1735109999999906
 31
0.0
  0
LINE
  5
1BF
100
AcDbEntity
100
AcDbLine
  8
HACHURE
 62
5
370
-1
  6
CONTINUOUS
 10
214.6890030000000138
 20
225.1734950000000026
 30
0.0
 11
213.9894549999999924
 21
223.6733079999999916
 31
0.0
  0
LINE
  5
1C0
100
AcDbEntity
100
AcDbLine
  8
HACHURE
 62
5
370
-1
  6
CONTINUOUS
 10
215.2154290000000003
 20
223.6734289999999987
 30
0.0
 11
215.9149779999999907
 21
225.1736160000000098
 31
0.0
  0
LINE
  5
1C1
100
AcDbEntity
100
AcDbLine
  8
HACHURE
 62
5
370
-1
  6
CONTINUOUS
 10
217.0166079999999909
 20
224.9063099999999906
 30
0.0
 11
216.4416989999999998
 21
223.6734130000000107
 31
0.0
  0
ENDBLK
  5
1C2
100
AcDbEntity
  8
0
100
AcDbBlockEnd
  0
BLOCK
  5
1C3
100
AcDbEntity
  8
0
100
AcDbBlockBegin
  2
DESENS-G14
 70
0
 10
0.0
 20
0.0
 30
0.0
  3
DESENS-G14
  1

  0
LINE
  5
1C4
100
AcDbEntity
100
AcDbLine
  8
HACHURE
 62
5
370
-1
  6
CONTINUOUS
 10
120.8613200000000063
 20
206.1723049999999944
 30
0.0
 11
120.5157080000000036
 21
205.8266930000000059
 31
0.0
  0
LINE
  5
1C5
100
AcDbEntity
100
AcDbLine
  8
HACHURE
 62
5
370
-1
  6
CONTINUOUS
 10
120.5162920000000071
 20
201.338466000000011
 30
0.0
 11
125.3495470000000012
 21
206.1717209999999909
 31
0.0
  0
LINE
  5
1C6
100
AcDbEntity
100
AcDbLine
  8
HACHURE
 62
5
370
-1
  6
CONTINUOUS
 10
129.8413180000000011
 20
206.17113599999999
 30
0.0
 11
122.8422269999999941
 21
199.1720449999999971
 31
0.0
  0
LINE
  5
1C7
100
AcDbEntity
100
AcDbLine
  8
HACHURE
 62
5
370
-1
  6
CONTINUOUS
 10
127.3304540000000031
 20
199.1714599999999962
 30
0.0
 11
134.3313170000000127
 21
206.1723240000000033
 31
0.0
  0
LINE
  5
1C8
100
AcDbEntity
100
AcDbLine
  8
HACHURE
 62
5
370
-1
  6
CONTINUOUS
 10
138.8195440000000076
 20
206.1717390000000023
 30
0.0
 11
131.8204529999999863
 21
199.1726480000000095
 31
0.0
  0
LINE
  5
1C9
100
AcDbEntity
100
AcDbLine
  8
HACHURE
 62
5
370
-1
  6
CONTINUOUS
 10
136.3122250000000122
 20
199.1720630000000085
 30
0.0
 11
143.3130879999999934
 21
206.1729269999999872
 31
0.0
  0
LINE
  5
1CA
100
AcDbEntity
100
AcDbLine
  8
HACHURE
 62
5
370
-1
  6
CONTINUOUS
 10
147.8013149999999882
 20
206.1723419999999862
 30
0.0
 11
140.8022239999999954
 21
199.1732509999999934
 31
0.0
  0
LINE
  5
1CB
100
AcDbEntity
100
AcDbLine
  8
HACHURE
 62
5
370
-1
  6
CONTINUOUS
 10
145.2939949999999953
 20
199.1726659999999924
 30
0.0
 11
152.2948590000000024
 21
206.1735299999999995
 31
0.0
  0
LINE
  5
1CC
100
AcDbEntity
100
AcDbLine
  8
HACHURE
 62
5
370
-1
  6
CONTINUOUS
 10
156.7830859999999973
 20
206.1729449999999986
 30
0.0
 11
149.783994000000007
 21
199.1738540000000057
 31
0.0
  0
LINE
  5
1CD
100
AcDbEntity
100
AcDbLine
  8
HACHURE
 62
5
370
-1
  6
CONTINUOUS
 10
154.2722210000000018
 20
199.1732700000000023
 30
0.0
 11
161.2730850000000089
 21
206.1741330000000119
 31
0.0
  0
LINE
  5
1CE
100
AcDbEntity
100
AcDbLine
  8
HACHURE
 62
5
370
-1
  6
CONTINUOUS
 10
165.7648560000000089
 20
206.1735480000000109
 30
0.0
 11
158.7639929999999993
 21
199.1726850000000013
 31
0.0
  0
LINE
  5
1CF
100
AcDbEntity
100
AcDbLine
  8
HACHURE
 62
5
370
-1
  6
CONTINUOUS
 10
163.2539920000000109
 20
199.1738729999999862
 30
0.0
 11
170.2548549999999921
 21
206.1747359999999958
 31
0.0
  0
LINE
  5
1D0
100
AcDbEntity
100
AcDbLine
  8
HACHURE
 62
5
370
-1
  6
CONTINUOUS
 10
174.7430819999999869
 20
206.1741519999999923
 30
0.0
 11
167.7422180000000083
 21
199.1732880000000137
 31
0.0
  0
LINE
  5
1D1
100
AcDbEntity
100
AcDbLine
  8
HACHURE
 62
5
370
-1
  6
CONTINUOUS
 10
172.2357629999999915
 20
199.174475000000001
 30
0.0
 11
179.2366260000000011
 21
206.1753390000000081
 31
0.0
  0
LINE
  5
1D2
100
AcDbEntity
100
AcDbLine
  8
HACHURE
 62
5
370
-1
  6
CONTINUOUS
 10
183.724852999999996
 20
206.1747550000000047
 30
0.0
 11
176.7239889999999889
 21
199.1738909999999976
 31
0.0
  0
LINE
  5
1D3
100
AcDbEntity
100
AcDbLine
  8
HACHURE
 62
5
370
-1
  6
CONTINUOUS
 10
181.2175340000000006
 20
199.1750780000000134
 30
0.0
 11
188.2183970000000102
 21
206.175941999999992
 31
0.0
  0
LINE
  5
1D4
100
AcDbEntity
100
AcDbLine
  8
HACHURE
 62
5
370
-1
  6
CONTINUOUS
 10
192.706624000000005
 20
206.1753569999999911
 30
0.0
 11
185.7057599999999979
 21
199.1744940000000099
 31
0.0
  0
LINE
  5
1D5
100
AcDbEntity
100
AcDbLine
  8
HACHURE
 62
5
370
-1
  6
CONTINUOUS
 10
190.1957590000000096
 20
199.1756819999999948
 30
0.0
 11
197.1948500000000024
 21
206.1747729999999876
 31
0.0
  0
LINE
  5
1D6
100
AcDbEntity
100
AcDbLine
  8
HACHURE
 62
5
370
-1
  6
CONTINUOUS
 10
197.5144620000000089
 20
202.0020279999999957
 30
0.0
 11
194.687531000000007
 21
199.1750969999999938
 31
0.0
  0
ENDBLK
  5
1D7
100
AcDbEntity
  8
0
100
AcDbBlockEnd
  0
BLOCK
  5
1D8
100
AcDbEntity
  8
0
100
AcDbBlockBegin
  2
DESENS-G15
 70
0
 10
0.0
 20
0.0
 30
0.0
  3
DESENS-G15
  1

  0
LINE
  5
1D9
100
AcDbEntity
100
AcDbLine
  8
HACHURE
 62
5
370
-1
  6
CONTINUOUS
 10
222.0167050000000017
 20
242.8570949999999868
 30
0.0
 11
221.1733450000000119
 21
245.174207999999993
 31
0.0
  0
LINE
  5
1DA
100
AcDbEntity
100
AcDbLine
  8
HACHURE
 62
5
370
-1
  6
CONTINUOUS
 10
218.807990999999987
 20
245.1741230000000087
 30
0.0
 11
220.9920989999999961
 21
239.1733360000000062
 31
0.0
  0
LINE
  5
1DB
100
AcDbEntity
100
AcDbLine
  8
HACHURE
 62
5
370
-1
  6
CONTINUOUS
 10
218.6275100000000009
 20
239.173529000000002
 30
0.0
 11
216.4434019999999919
 21
245.1743170000000021
 31
0.0
  0
LINE
  5
1DC
100
AcDbEntity
100
AcDbLine
  8
HACHURE
 62
5
370
-1
  6
CONTINUOUS
 10
214.0780479999999955
 20
245.1742329999999868
 30
0.0
 11
215.3519949999999881
 21
241.6740920000000017
 31
0.0
  0
LINE
  5
1DD
100
AcDbEntity
100
AcDbLine
  8
HACHURE
 62
5
370
-1
  6
CONTINUOUS
 10
212.9866409999999917
 20
241.6740069999999889
 30
0.0
 11
211.7126939999999991
 21
245.1741480000000024
 31
0.0
  0
LINE
  5
1DE
100
AcDbEntity
100
AcDbLine
  8
HACHURE
 62
5
370
-1
  6
CONTINUOUS
 10
209.3470609999999965
 20
245.1748279999999909
 30
0.0
 11
210.6212869999999953
 21
241.673923000000002
 31
0.0
  0
LINE
  5
1DF
100
AcDbEntity
100
AcDbLine
  8
HACHURE
 62
5
370
-1
  6
CONTINUOUS
 10
208.2566970000000026
 20
241.6741159999999979
 30
0.0
 11
206.98275000000001
 21
245.1742570000000114
 31
0.0
  0
LINE
  5
1E0
100
AcDbEntity
100
AcDbLine
  8
HACHURE
 62
5
370
-1
  6
CONTINUOUS
 10
204.6171180000000049
 20
245.1749369999999999
 30
0.0
 11
205.8913430000000062
 21
241.6740320000000111
 31
0.0
  0
LINE
  5
1E1
100
AcDbEntity
100
AcDbLine
  8
HACHURE
 62
5
370
-1
  6
CONTINUOUS
 10
203.5259890000000098
 20
241.6739469999999983
 30
0.0
 11
202.2517640000000085
 21
245.174853000000013
 31
0.0
  0
LINE
  5
1E2
100
AcDbEntity
100
AcDbLine
  8
HACHURE
 62
5
370
-1
  6
CONTINUOUS
 10
199.8874529999999936
 20
245.1742820000000052
 30
0.0
 11
201.1613999999999862
 21
241.6741409999999917
 31
0.0
  0
LINE
  5
1E3
100
AcDbEntity
100
AcDbLine
  8
HACHURE
 62
5
370
-1
  6
CONTINUOUS
 10
198.7960459999999898
 20
241.6740570000000048
 30
0.0
 11
197.5218209999999885
 21
245.1749619999999936
 31
0.0
  0
ENDBLK
  5
1E4
100
AcDbEntity
  8
0
100
AcDbBlockEnd
  0
BLOCK
  5
1E5
100
AcDbEntity
  8
0
100
AcDbBlockBegin
  2
DESENS-G16
 70
0
 10
0.0
 20
0.0
 30
0.0
  3
DESENS-G16
  1

  0
LINE
  5
1E6
100
AcDbEntity
100
AcDbLine
  8
HACHURE
 62
5
370
-1
  6
CONTINUOUS
 10
352.945020999999997
 20
248.5774230000000102
 30
0.0
 11
352.3483989999999721
 21
249.1740440000000092
 31
0.0
  0
LINE
  5
1E7
100
AcDbEntity
100
AcDbLine
  8
HACHURE
 62
5
370
-1
  6
CONTINUOUS
 10
350.1036710000000198
 20
249.1740110000000072
 30
0.0
 11
352.9449880000000235
 21
246.3326940000000036
 31
0.0
  0
LINE
  5
1E8
100
AcDbEntity
100
AcDbLine
  8
HACHURE
 62
5
370
-1
  6
CONTINUOUS
 10
352.9449559999999906
 20
244.0879659999999944
 30
0.0
 11
350.9451690000000212
 21
246.0877529999999922
 31
0.0
  0
LINE
  5
1E9
100
AcDbEntity
100
AcDbLine
  8
HACHURE
 62
5
370
-1
  6
CONTINUOUS
 10
349.8587289999999825
 20
247.1741930000000025
 30
0.0
 11
347.8589430000000107
 21
249.1739790000000028
 31
0.0
  0
LINE
  5
1EA
100
AcDbEntity
100
AcDbLine
  8
HACHURE
 62
5
370
-1
  6
CONTINUOUS
 10
345.6142150000000015
 20
249.1739469999999983
 30
0.0
 11
347.6140009999999734
 21
247.1741600000000005
 31
0.0
  0
LINE
  5
1EB
100
AcDbEntity
100
AcDbLine
  8
HACHURE
 62
5
370
-1
  6
CONTINUOUS
 10
350.9451369999999883
 20
243.843024000000014
 30
0.0
 11
352.9449230000000171
 21
241.8432380000000137
 31
0.0
  0
LINE
  5
1EC
100
AcDbEntity
100
AcDbLine
  8
HACHURE
 62
5
370
-1
  6
CONTINUOUS
 10
352.9448909999999842
 20
239.596667999999994
 30
0.0
 11
350.9451040000000148
 21
241.5964549999999917
 31
0.0
  0
LINE
  5
1ED
100
AcDbEntity
100
AcDbLine
  8
HACHURE
 62
5
370
-1
  6
CONTINUOUS
 10
345.3674310000000105
 20
247.1741279999999961
 30
0.0
 11
343.3676449999999818
 21
249.1739139999999963
 31
0.0
  0
LINE
  5
1EE
100
AcDbEntity
100
AcDbLine
  8
HACHURE
 62
5
370
-1
  6
CONTINUOUS
 10
341.1229169999999726
 20
249.1738819999999919
 30
0.0
 11
343.1227030000000013
 21
247.1740949999999941
 31
0.0
  0
LINE
  5
1EF
100
AcDbEntity
100
AcDbLine
  8
HACHURE
 62
5
370
-1
  6
CONTINUOUS
 10
350.9450719999999819
 20
239.3517260000000135
 30
0.0
 11
352.9448580000000106
 21
237.3519400000000132
 31
0.0
  0
LINE
  5
1F0
100
AcDbEntity
100
AcDbLine
  8
HACHURE
 62
5
370
-1
  6
CONTINUOUS
 10
352.9448259999999777
 20
235.1072120000000041
 30
0.0
 11
350.9450390000000084
 21
237.1069980000000044
 31
0.0
  0
LINE
  5
1F1
100
AcDbEntity
100
AcDbLine
  8
HACHURE
 62
5
370
-1
  6
CONTINUOUS
 10
340.8779749999999922
 20
247.1740629999999896
 30
0.0
 11
338.8781890000000203
 21
249.1738489999999899
 31
0.0
  0
LINE
  5
1F2
100
AcDbEntity
100
AcDbLine
  8
HACHURE
 62
5
370
-1
  6
CONTINUOUS
 10
336.6334600000000137
 20
249.1738170000000139
 30
0.0
 11
338.633246999999983
 21
247.1740299999999877
 31
0.0
  0
LINE
  5
1F3
100
AcDbEntity
100
AcDbLine
  8
HACHURE
 62
5
370
-1
  6
CONTINUOUS
 10
350.9450069999999755
 20
234.8622699999999952
 30
0.0
 11
352.9447930000000042
 21
232.8624839999999949
 31
0.0
  0
LINE
  5
1F4
100
AcDbEntity
100
AcDbLine
  8
HACHURE
 62
5
370
-1
  6
CONTINUOUS
 10
352.9447610000000282
 20
230.6177549999999883
 30
0.0
 11
350.9449749999999995
 21
232.617541999999986
 31
0.0
  0
LINE
  5
1F5
100
AcDbEntity
100
AcDbLine
  8
HACHURE
 62
5
370
-1
  6
CONTINUOUS
 10
336.3885189999999739
 20
247.1739980000000116
 30
0.0
 11
334.3887320000000045
 21
249.1737840000000119
 31
0.0
  0
LINE
  5
1F6
100
AcDbEntity
100
AcDbLine
  8
HACHURE
 62
5
370
-1
  6
CONTINUOUS
 10
332.1440039999999954
 20
249.1737520000000075
 30
0.0
 11
334.1437900000000241
 21
247.1739650000000097
 31
0.0
  0
LINE
  5
1F7
100
AcDbEntity
100
AcDbLine
  8
HACHURE
 62
5
370
-1
  6
CONTINUOUS
 10
350.9449420000000259
 20
230.3728140000000053
 30
0.0
 11
352.9447279999999978
 21
228.3730270000000075
 31
0.0
  0
LINE
  5
1F8
100
AcDbEntity
100
AcDbLine
  8
HACHURE
 62
5
370
-1
  6
CONTINUOUS
 10
352.9446960000000217
 20
226.1264569999999878
 30
0.0
 11
350.944909999999993
 21
228.126244000000014
 31
0.0
  0
LINE
  5
1F9
100
AcDbEntity
100
AcDbLine
  8
HACHURE
 62
5
370
-1
  6
CONTINUOUS
 10
331.8972210000000018
 20
247.1739330000000052
 30
0.0
 11
329.8974339999999756
 21
249.1737190000000055
 31
0.0
  0
LINE
  5
1FA
100
AcDbEntity
100
AcDbLine
  8
HACHURE
 62
5
370
-1
  6
CONTINUOUS
 10
327.6527060000000233
 20
249.173687000000001
 30
0.0
 11
329.6524919999999952
 21
247.1739000000000033
 31
0.0
  0
LINE
  5
1FB
100
AcDbEntity
100
AcDbLine
  8
HACHURE
 62
5
370
-1
  6
CONTINUOUS
 10
350.9448770000000195
 20
225.8815160000000049
 30
0.0
 11
352.9446629999999914
 21
223.8817290000000071
 31
0.0
  0
LINE
  5
1FC
100
AcDbEntity
100
AcDbLine
  8
HACHURE
 62
5
370
-1
  6
CONTINUOUS
 10
352.9446310000000153
 20
221.6370009999999979
 30
0.0
 11
350.9448449999999866
 21
223.6367869999999982
 31
0.0
  0
LINE
  5
1FD
100
AcDbEntity
100
AcDbLine
  8
HACHURE
 62
5
370
-1
  6
CONTINUOUS
 10
327.407763999999986
 20
247.1738679999999988
 30
0.0
 11
325.4079780000000142
 21
249.1736539999999991
 31
0.0
  0
LINE
  5
1FE
100
AcDbEntity
100
AcDbLine
  8
HACHURE
 62
5
370
-1
  6
CONTINUOUS
 10
323.163250000000005
 20
249.1736219999999946
 30
0.0
 11
325.1630359999999769
 21
247.1738349999999969
 31
0.0
  0
LINE
  5
1FF
100
AcDbEntity
100
AcDbLine
  8
HACHURE
 62
5
370
-1
  6
CONTINUOUS
 10
350.9448120000000131
 20
221.3920589999999891
 30
0.0
 11
352.9445979999999849
 21
219.3922729999999888
 31
0.0
  0
LINE
  5
200
100
AcDbEntity
100
AcDbLine
  8
HACHURE
 62
5
370
-1
  6
CONTINUOUS
 10
352.9445660000000089
 20
217.147545000000008
 30
0.0
 11
350.9447799999999802
 21
219.1473310000000083
 31
0.0
  0
LINE
  5
201
100
AcDbEntity
100
AcDbLine
  8
HACHURE
 62
5
370
-1
  6
CONTINUOUS
 10
322.9183080000000245
 20
247.1738029999999924
 30
0.0
 11
320.9185209999999984
 21
249.1735889999999927
 31
0.0
  0
LINE
  5
202
100
AcDbEntity
100
AcDbLine
  8
HACHURE
 62
5
370
-1
  6
CONTINUOUS
 10
318.6737929999999892
 20
249.1735569999999882
 30
0.0
 11
320.6735800000000154
 21
247.1737699999999904
 31
0.0
  0
LINE
  5
203
100
AcDbEntity
100
AcDbLine
  8
HACHURE
 62
5
370
-1
  6
CONTINUOUS
 10
350.9447470000000067
 20
216.9026029999999992
 30
0.0
 11
352.944533999999976
 21
214.9028160000000014
 31
0.0
  0
LINE
  5
204
100
AcDbEntity
100
AcDbLine
  8
HACHURE
 62
5
370
-1
  6
CONTINUOUS
 10
352.9445010000000025
 20
212.6562470000000076
 30
0.0
 11
350.9447149999999738
 21
214.6560330000000079
 31
0.0
  0
LINE
  5
205
100
AcDbEntity
100
AcDbLine
  8
HACHURE
 62
5
370
-1
  6
CONTINUOUS
 10
318.4270099999999957
 20
247.173737999999986
 30
0.0
 11
316.4272230000000263
 21
249.1735239999999862
 31
0.0
  0
LINE
  5
206
100
AcDbEntity
100
AcDbLine
  8
HACHURE
 62
5
370
-1
  6
CONTINUOUS
 10
314.1824950000000172
 20
249.1734920000000102
 30
0.0
 11
316.1822819999999865
 21
247.1737050000000124
 31
0.0
  0
LINE
  5
207
100
AcDbEntity
100
AcDbLine
  8
HACHURE
 62
5
370
-1
  6
CONTINUOUS
 10
350.9446820000000002
 20
212.4113049999999987
 30
0.0
 11
352.9444690000000264
 21
210.4115180000000009
 31
0.0
  0
LINE
  5
208
100
AcDbEntity
100
AcDbLine
  8
HACHURE
 62
5
370
-1
  6
CONTINUOUS
 10
352.9444359999999961
 20
208.1667899999999918
 30
0.0
 11
350.9446500000000242
 21
210.1665769999999895
 31
0.0
  0
LINE
  5
209
100
AcDbEntity
100
AcDbLine
  8
HACHURE
 62
5
370
-1
  6
CONTINUOUS
 10
314.9457330000000184
 20
246.1654929999999979
 30
0.0
 11
312.9459469999999897
 21
248.1652799999999957
 31
0.0
  0
LINE
  5
20A
100
AcDbEntity
100
AcDbLine
  8
HACHURE
 62
5
370
-1
  6
CONTINUOUS
 10
312.9459140000000161
 20
245.920550999999989
 30
0.0
 11
314.9457009999999855
 21
243.9207649999999887
 31
0.0
  0
LINE
  5
20B
100
AcDbEntity
100
AcDbLine
  8
HACHURE
 62
5
370
-1
  6
CONTINUOUS
 10
350.9446169999999938
 20
207.9218480000000113
 30
0.0
 11
352.94440400000002
 21
205.922062000000011
 31
0.0
  0
LINE
  5
20C
100
AcDbEntity
100
AcDbLine
  8
HACHURE
 62
5
370
-1
  6
CONTINUOUS
 10
352.4481069999999931
 20
204.1735979999999984
 30
0.0
 11
350.9445850000000178
 21
205.6771200000000022
 31
0.0
  0
LINE
  5
20D
100
AcDbEntity
100
AcDbLine
  8
HACHURE
 62
5
370
-1
  6
CONTINUOUS
 10
314.9456680000000119
 20
241.676037000000008
 30
0.0
 11
312.9458819999999832
 21
243.6758230000000083
 31
0.0
  0
LINE
  5
20E
100
AcDbEntity
100
AcDbLine
  8
HACHURE
 62
5
370
-1
  6
CONTINUOUS
 10
312.9458490000000097
 20
241.4310949999999991
 30
0.0
 11
314.945635999999979
 21
239.4313089999999988
 31
0.0
  0
LINE
  5
20F
100
AcDbEntity
100
AcDbLine
  8
HACHURE
 62
5
370
-1
  6
CONTINUOUS
 10
314.9456030000000055
 20
237.1847390000000075
 30
0.0
 11
312.9458169999999768
 21
239.1845250000000078
 31
0.0
  0
LINE
  5
210
100
AcDbEntity
100
AcDbLine
  8
HACHURE
 62
5
370
-1
  6
CONTINUOUS
 10
312.9457840000000033
 20
236.9397969999999987
 30
0.0
 11
314.9455709999999726
 21
234.9400109999999984
 31
0.0
  0
LINE
  5
211
100
AcDbEntity
100
AcDbLine
  8
HACHURE
 62
5
370
-1
  6
CONTINUOUS
 10
314.9455379999999991
 20
232.6952829999999892
 30
0.0
 11
312.9457520000000272
 21
234.6950689999999895
 31
0.0
  0
LINE
  5
212
100
AcDbEntity
100
AcDbLine
  8
HACHURE
 62
5
370
-1
  6
CONTINUOUS
 10
312.9457189999999969
 20
232.4503410000000088
 30
0.0
 11
314.9455060000000231
 21
230.450554000000011
 31
0.0
  0
LINE
  5
213
100
AcDbEntity
100
AcDbLine
  8
HACHURE
 62
5
370
-1
  6
CONTINUOUS
 10
314.9454729999999927
 20
228.2058260000000018
 30
0.0
 11
312.9456870000000208
 21
230.2056120000000021
 31
0.0
  0
LINE
  5
214
100
AcDbEntity
100
AcDbLine
  8
HACHURE
 62
5
370
-1
  6
CONTINUOUS
 10
312.9456539999999904
 20
227.960883999999993
 30
0.0
 11
314.9454410000000166
 21
225.9610979999999927
 31
0.0
  0
LINE
  5
215
100
AcDbEntity
100
AcDbLine
  8
HACHURE
 62
5
370
-1
  6
CONTINUOUS
 10
314.9454079999999863
 20
223.7145280000000014
 30
0.0
 11
312.9456220000000144
 21
225.7143149999999991
 31
0.0
  0
LINE
  5
216
100
AcDbEntity
100
AcDbLine
  8
HACHURE
 62
5
370
-1
  6
CONTINUOUS
 10
312.945588999999984
 20
223.4695859999999925
 30
0.0
 11
314.9453760000000102
 21
221.4697999999999922
 31
0.0
  0
LINE
  5
217
100
AcDbEntity
100
AcDbLine
  8
HACHURE
 62
5
370
-1
  6
CONTINUOUS
 10
314.9453429999999798
 20
219.2250720000000115
 30
0.0
 11
312.945557000000008
 21
221.2248580000000118
 31
0.0
  0
LINE
  5
218
100
AcDbEntity
100
AcDbLine
  8
HACHURE
 62
5
370
-1
  6
CONTINUOUS
 10
312.9455239999999776
 20
218.9801300000000026
 30
0.0
 11
314.9453110000000038
 21
216.9803440000000023
 31
0.0
  0
LINE
  5
219
100
AcDbEntity
100
AcDbLine
  8
HACHURE
 62
5
370
-1
  6
CONTINUOUS
 10
314.9452779999999734
 20
214.7356149999999957
 30
0.0
 11
312.9454920000000016
 21
216.7354019999999934
 31
0.0
  0
LINE
  5
21A
100
AcDbEntity
100
AcDbLine
  8
HACHURE
 62
5
370
-1
  6
CONTINUOUS
 10
312.945459000000028
 20
214.4906729999999868
 30
0.0
 11
314.9452459999999974
 21
212.4908869999999865
 31
0.0
  0
LINE
  5
21B
100
AcDbEntity
100
AcDbLine
  8
HACHURE
 62
5
370
-1
  6
CONTINUOUS
 10
314.9452130000000238
 20
210.2443169999999952
 30
0.0
 11
312.9454269999999951
 21
212.244103999999993
 31
0.0
  0
LINE
  5
21C
100
AcDbEntity
100
AcDbLine
  8
HACHURE
 62
5
370
-1
  6
CONTINUOUS
 10
312.9453940000000216
 20
209.9993760000000123
 30
0.0
 11
314.9451809999999909
 21
207.9995889999999861
 31
0.0
  0
LINE
  5
21D
100
AcDbEntity
100
AcDbLine
  8
HACHURE
 62
5
370
-1
  6
CONTINUOUS
 10
314.9451480000000174
 20
205.7548610000000053
 30
0.0
 11
312.9453619999999887
 21
207.7546470000000056
 31
0.0
  0
LINE
  5
21E
100
AcDbEntity
100
AcDbLine
  8
HACHURE
 62
5
370
-1
  6
CONTINUOUS
 10
312.9453290000000152
 20
205.5099189999999965
 30
0.0
 11
314.2812829999999735
 21
204.1739660000000072
 31
0.0
  0
ENDBLK
  5
21F
100
AcDbEntity
  8
0
100
AcDbBlockEnd
  0
BLOCK
  5
220
100
AcDbEntity
  8
0
100
AcDbBlockBegin
  2
DESENS-G17
 70
0
 10
0.0
 20
0.0
 30
0.0
  3
DESENS-G17
  1

  0
LINE
  5
221
100
AcDbEntity
100
AcDbLine
  8
HACHURE
 62
5
370
-1
  6
CONTINUOUS
 10
348.9447880000000168
 20
244.4032269999999869
 30
0.0
 11
348.6640469999999823
 21
245.1745579999999904
 31
0.0
  0
LINE
  5
222
100
AcDbEntity
100
AcDbLine
  8
HACHURE
 62
5
370
-1
  6
CONTINUOUS
 10
346.2986280000000079
 20
245.1738259999999912
 30
0.0
 11
348.945007999999973
 21
237.9029549999999915
 31
0.0
  0
LINE
  5
223
100
AcDbEntity
100
AcDbLine
  8
HACHURE
 62
5
370
-1
  6
CONTINUOUS
 10
348.9451389999999833
 20
231.4059750000000122
 30
0.0
 11
343.9338309999999979
 21
245.174430000000001
 31
0.0
  0
LINE
  5
224
100
AcDbEntity
100
AcDbLine
  8
HACHURE
 62
5
370
-1
  6
CONTINUOUS
 10
341.5684120000000235
 20
245.1736980000000017
 30
0.0
 11
348.9453589999999963
 21
224.9057029999999884
 31
0.0
  0
LINE
  5
225
100
AcDbEntity
100
AcDbLine
  8
HACHURE
 62
5
370
-1
  6
CONTINUOUS
 10
347.5752709999999865
 20
222.1733670000000131
 30
0.0
 11
339.2036150000000134
 21
245.174301000000014
 31
0.0
  0
LINE
  5
226
100
AcDbEntity
100
AcDbLine
  8
HACHURE
 62
5
370
-1
  6
CONTINUOUS
 10
336.8381959999999822
 20
245.1735689999999863
 30
0.0
 11
339.5447859999999878
 21
237.7372729999999876
 31
0.0
  0
LINE
  5
227
100
AcDbEntity
100
AcDbLine
  8
HACHURE
 62
5
370
-1
  6
CONTINUOUS
 10
340.2901049999999827
 20
235.6895260000000007
 30
0.0
 11
345.209495000000004
 21
222.1736139999999864
 31
0.0
  0
LINE
  5
228
100
AcDbEntity
100
AcDbLine
  8
HACHURE
 62
5
370
-1
  6
CONTINUOUS
 10
341.7530840000000012
 20
225.17340200000001
 30
0.0
 11
339.6785179999999968
 21
230.8732249999999908
 31
0.0
  0
LINE
  5
229
100
AcDbEntity
100
AcDbLine
  8
HACHURE
 62
5
370
-1
  6
CONTINUOUS
 10
335.9811379999999872
 20
241.0316939999999875
 30
0.0
 11
334.4733989999999721
 21
245.1741729999999961
 31
0.0
  0
LINE
  5
22A
100
AcDbEntity
100
AcDbLine
  8
HACHURE
 62
5
370
-1
  6
CONTINUOUS
 10
332.1079799999999977
 20
245.1734409999999968
 30
0.0
 11
333.38663600000001
 21
241.6603609999999946
 31
0.0
  0
LINE
  5
22B
100
AcDbEntity
100
AcDbLine
  8
HACHURE
 62
5
370
-1
  6
CONTINUOUS
 10
338.0954699999999775
 20
228.7229470000000049
 30
0.0
 11
339.3873080000000186
 21
225.1736490000000117
 31
0.0
  0
LINE
  5
22C
100
AcDbEntity
100
AcDbLine
  8
HACHURE
 62
5
370
-1
  6
CONTINUOUS
 10
337.0225120000000061
 20
225.1742529999999931
 30
0.0
 11
336.2052259999999819
 21
227.4197269999999946
 31
0.0
  0
LINE
  5
22D
100
AcDbEntity
100
AcDbLine
  8
HACHURE
 62
5
370
-1
  6
CONTINUOUS
 10
331.1009320000000002
 20
241.4436599999999942
 30
0.0
 11
329.7431829999999877
 21
245.1740440000000092
 31
0.0
  0
LINE
  5
22E
100
AcDbEntity
100
AcDbLine
  8
HACHURE
 62
5
370
-1
  6
CONTINUOUS
 10
327.3777640000000133
 20
245.1733120000000099
 30
0.0
 11
329.0490310000000136
 21
240.5815430000000106
 31
0.0
  0
LINE
  5
22F
100
AcDbEntity
100
AcDbLine
  8
HACHURE
 62
5
370
-1
  6
CONTINUOUS
 10
334.0792210000000182
 20
226.7612100000000055
 30
0.0
 11
334.6570929999999748
 21
225.1735209999999938
 31
0.0
  0
LINE
  5
230
100
AcDbEntity
100
AcDbLine
  8
HACHURE
 62
5
370
-1
  6
CONTINUOUS
 10
332.2922960000000216
 20
225.1741240000000062
 30
0.0
 11
331.7090799999999717
 21
226.7764960000000087
 31
0.0
  0
LINE
  5
231
100
AcDbEntity
100
AcDbLine
  8
HACHURE
 62
5
370
-1
  6
CONTINUOUS
 10
327.2432239999999979
 20
239.0463359999999966
 30
0.0
 11
325.0129670000000033
 21
245.1739149999999938
 31
0.0
  0
LINE
  5
232
100
AcDbEntity
100
AcDbLine
  8
HACHURE
 62
5
370
-1
  6
CONTINUOUS
 10
322.647547999999972
 20
245.173183999999992
 30
0.0
 11
325.8101649999999836
 21
236.4839629999999886
 31
0.0
  0
LINE
  5
233
100
AcDbEntity
100
AcDbLine
  8
HACHURE
 62
5
370
-1
  6
CONTINUOUS
 10
328.9642319999999813
 20
227.8182360000000131
 30
0.0
 11
329.9265199999999822
 21
225.1743710000000078
 31
0.0
  0
LINE
  5
234
100
AcDbEntity
100
AcDbLine
  8
HACHURE
 62
5
370
-1
  6
CONTINUOUS
 10
327.5620799999999804
 20
225.1739959999999883
 30
0.0
 11
320.2827510000000188
 21
245.1737870000000044
 31
0.0
  0
LINE
  5
235
100
AcDbEntity
100
AcDbLine
  8
HACHURE
 62
5
370
-1
  6
CONTINUOUS
 10
317.9173319999999876
 20
245.1730550000000051
 30
0.0
 11
325.1963039999999978
 21
225.1742429999999899
 31
0.0
  0
LINE
  5
236
100
AcDbEntity
100
AcDbLine
  8
HACHURE
 62
5
370
-1
  6
CONTINUOUS
 10
322.8315079999999853
 20
225.1748460000000023
 30
0.0
 11
316.9451990000000023
 21
241.3473470000000134
 31
0.0
  0
LINE
  5
237
100
AcDbEntity
100
AcDbLine
  8
HACHURE
 62
5
370
-1
  6
CONTINUOUS
 10
316.9454190000000153
 20
234.8470749999999896
 30
0.0
 11
321.5577030000000036
 21
222.1749279999999942
 31
0.0
  0
LINE
  5
238
100
AcDbEntity
100
AcDbLine
  8
HACHURE
 62
5
370
-1
  6
CONTINUOUS
 10
319.1932620000000043
 20
222.1745530000000031
 30
0.0
 11
316.945904999999982
 21
228.3491170000000068
 31
0.0
  0
ENDBLK
  5
239
100
AcDbEntity
  8
0
100
AcDbBlockEnd
  0
BLOCK
  5
23A
100
AcDbEntity
  8
0
100
AcDbBlockBegin
  2
DESENS-G18
 70
0
 10
0.0
 20
0.0
 30
0.0
  3
DESENS-G18
  1

  0
LINE
  5
23B
100
AcDbEntity
100
AcDbLine
  8
HACHURE
 62
5
370
-1
  6
CONTINUOUS
 10
326.333293000000026
 20
217.5534780000000126
 30
0.0
 11
324.8732279999999832
 21
219.0135429999999985
 31
0.0
  0
LINE
  5
23C
100
AcDbEntity
100
AcDbLine
  8
HACHURE
 62
5
370
-1
  6
CONTINUOUS
 10
323.0612489999999752
 20
219.0293609999999944
 30
0.0
 11
327.25454000000002
 21
214.8360700000000065
 31
0.0
  0
LINE
  5
23D
100
AcDbEntity
100
AcDbLine
  8
HACHURE
 62
5
370
-1
  6
CONTINUOUS
 10
327.6117580000000089
 20
212.6830589999999859
 30
0.0
 11
325.7795409999999947
 21
214.5152760000000001
 31
0.0
  0
LINE
  5
23E
100
AcDbEntity
100
AcDbLine
  8
HACHURE
 62
5
370
-1
  6
CONTINUOUS
 10
323.0654660000000149
 20
217.2293510000000083
 30
0.0
 11
321.9968880000000127
 21
218.2979290000000105
 31
0.0
  0
LINE
  5
23F
100
AcDbEntity
100
AcDbLine
  8
HACHURE
 62
5
370
-1
  6
CONTINUOUS
 10
321.4011689999999817
 20
217.097487000000001
 30
0.0
 11
322.5842840000000251
 21
215.914371999999986
 31
0.0
  0
LINE
  5
240
100
AcDbEntity
100
AcDbLine
  8
HACHURE
 62
5
370
-1
  6
CONTINUOUS
 10
322.1299870000000283
 20
214.5725089999999966
 30
0.0
 11
320.947055999999975
 21
215.7554389999999955
 31
0.0
  0
LINE
  5
241
100
AcDbEntity
100
AcDbLine
  8
HACHURE
 62
5
370
-1
  6
CONTINUOUS
 10
320.4927589999999782
 20
214.4135760000000062
 30
0.0
 11
321.6758740000000216
 21
213.2304609999999911
 31
0.0
  0
LINE
  5
242
100
AcDbEntity
100
AcDbLine
  8
HACHURE
 62
5
370
-1
  6
CONTINUOUS
 10
327.232923000000028
 20
207.6734120000000132
 30
0.0
 11
327.9451859999999783
 21
206.961149000000006
 31
0.0
  0
LINE
  5
243
100
AcDbEntity
100
AcDbLine
  8
HACHURE
 62
5
370
-1
  6
CONTINUOUS
 10
326.9369879999999853
 20
206.1735539999999958
 30
0.0
 11
325.4371479999999792
 21
207.6733940000000018
 31
0.0
  0
LINE
  5
244
100
AcDbEntity
100
AcDbLine
  8
HACHURE
 62
5
370
-1
  6
CONTINUOUS
 10
321.4451250000000186
 20
211.6654169999999908
 30
0.0
 11
320.0408560000000193
 21
213.0696869999999876
 31
0.0
  0
LINE
  5
245
100
AcDbEntity
100
AcDbLine
  8
HACHURE
 62
5
370
-1
  6
CONTINUOUS
 10
319.9450840000000085
 20
211.3692979999999864
 30
0.0
 11
321.4451070000000072
 21
209.8692739999999901
 31
0.0
  0
LINE
  5
246
100
AcDbEntity
100
AcDbLine
  8
HACHURE
 62
5
370
-1
  6
CONTINUOUS
 10
323.6410050000000069
 20
207.6733759999999904
 30
0.0
 11
325.1406610000000228
 21
206.173720000000003
 31
0.0
  0
LINE
  5
247
100
AcDbEntity
100
AcDbLine
  8
HACHURE
 62
5
370
-1
  6
CONTINUOUS
 10
323.3445179999999937
 20
206.1737019999999916
 30
0.0
 11
319.9450659999999971
 21
209.5731550000000141
 31
0.0
  0
LINE
  5
248
100
AcDbEntity
100
AcDbLine
  8
HACHURE
 62
5
370
-1
  6
CONTINUOUS
 10
320.2562480000000278
 20
207.4661800000000085
 30
0.0
 11
321.2377270000000067
 21
206.4847010000000012
 31
0.0
  0
ENDBLK
  5
249
100
AcDbEntity
  8
0
100
AcDbBlockEnd
  0
BLOCK
  5
24A
100
AcDbEntity
  8
0
100
AcDbBlockBegin
  2
DESENS-G19
 70
0
 10
0.0
 20
0.0
 30
0.0
  3
DESENS-G19
  1

  0
LINE
  5
24B
100
AcDbEntity
100
AcDbLine
  8
HACHURE
 62
5
370
-1
  6
CONTINUOUS
 10
342.4023329999999987
 20
219.1569700000000012
 30
0.0
 11
338.033095000000003
 21
216.0975970000000075
 31
0.0
  0
LINE
  5
24C
100
AcDbEntity
100
AcDbLine
  8
HACHURE
 62
5
370
-1
  6
CONTINUOUS
 10
337.9449749999999995
 20
214.4854469999999935
 30
0.0
 11
339.4608329999999796
 21
215.5468630000000019
 31
0.0
  0
LINE
  5
24D
100
AcDbEntity
100
AcDbLine
  8
HACHURE
 62
5
370
-1
  6
CONTINUOUS
 10
342.4490309999999909
 20
217.6392219999999895
 30
0.0
 11
343.9392910000000256
 21
218.6827130000000068
 31
0.0
  0
LINE
  5
24E
100
AcDbEntity
100
AcDbLine
  8
HACHURE
 62
5
370
-1
  6
CONTINUOUS
 10
344.9693980000000124
 20
217.8535540000000026
 30
0.0
 11
343.7280840000000239
 21
216.984376999999995
 31
0.0
  0
LINE
  5
24F
100
AcDbEntity
100
AcDbLine
  8
HACHURE
 62
5
370
-1
  6
CONTINUOUS
 10
339.4450279999999793
 20
213.9853490000000136
 30
0.0
 11
337.9449559999999906
 21
212.9349870000000067
 31
0.0
  0
LINE
  5
250
100
AcDbEntity
100
AcDbLine
  8
HACHURE
 62
5
370
-1
  6
CONTINUOUS
 10
337.9452150000000188
 20
211.3850390000000061
 30
0.0
 11
339.4450729999999794
 21
212.4352509999999938
 31
0.0
  0
LINE
  5
251
100
AcDbEntity
100
AcDbLine
  8
HACHURE
 62
5
370
-1
  6
CONTINUOUS
 10
344.3665990000000079
 20
215.8813399999999945
 30
0.0
 11
345.6439639999999827
 21
216.7757609999999886
 31
0.0
  0
LINE
  5
252
100
AcDbEntity
100
AcDbLine
  8
HACHURE
 62
5
370
-1
  6
CONTINUOUS
 10
345.9415280000000052
 20
215.4336700000000064
 30
0.0
 11
344.4450820000000135
 21
214.38584800000001
 31
0.0
  0
LINE
  5
253
100
AcDbEntity
100
AcDbLine
  8
HACHURE
 62
5
370
-1
  6
CONTINUOUS
 10
339.4450550000000248
 20
210.884791000000007
 30
0.0
 11
337.9524490000000014
 21
209.8396569999999883
 31
0.0
  0
LINE
  5
254
100
AcDbEntity
100
AcDbLine
  8
HACHURE
 62
5
370
-1
  6
CONTINUOUS
 10
338.2715580000000273
 20
208.5126520000000028
 30
0.0
 11
339.5410299999999779
 21
209.4015459999999962
 31
0.0
  0
LINE
  5
255
100
AcDbEntity
100
AcDbLine
  8
HACHURE
 62
5
370
-1
  6
CONTINUOUS
 10
344.4450630000000046
 20
212.8353869999999972
 30
0.0
 11
345.9451349999999934
 21
213.8857490000000041
 31
0.0
  0
LINE
  5
256
100
AcDbEntity
100
AcDbLine
  8
HACHURE
 62
5
370
-1
  6
CONTINUOUS
 10
345.945116999999982
 20
212.3352889999999888
 30
0.0
 11
344.4450449999999933
 21
211.2849270000000104
 31
0.0
  0
LINE
  5
257
100
AcDbEntity
100
AcDbLine
  8
HACHURE
 62
5
370
-1
  6
CONTINUOUS
 10
340.2082790000000045
 20
208.3183119999999917
 30
0.0
 11
338.9631249999999909
 21
207.4464460000000088
 31
0.0
  0
LINE
  5
258
100
AcDbEntity
100
AcDbLine
  8
HACHURE
 62
5
370
-1
  6
CONTINUOUS
 10
340.0126450000000204
 20
206.6308799999999906
 30
0.0
 11
341.5312759999999912
 21
207.6942369999999869
 31
0.0
  0
LINE
  5
259
100
AcDbEntity
100
AcDbLine
  8
HACHURE
 62
5
370
-1
  6
CONTINUOUS
 10
344.4181469999999763
 20
209.7156459999999925
 30
0.0
 11
345.9453110000000038
 21
210.7849769999999978
 31
0.0
  0
LINE
  5
25A
100
AcDbEntity
100
AcDbLine
  8
HACHURE
 62
5
370
-1
  6
CONTINUOUS
 10
345.8361360000000104
 20
209.1584029999999927
 30
0.0
 11
341.5857179999999858
 21
206.1822280000000092
 31
0.0
  0
ENDBLK
  5
25B
100
AcDbEntity
  8
0
100
AcDbBlockEnd
  0
BLOCK
  5
25C
100
AcDbEntity
  8
0
100
AcDbBlockBegin
  2
DESENS-G20
 70
0
 10
0.0
 20
0.0
 30
0.0
  3
DESENS-G20
  1

  0
LINE
  5
25D
100
AcDbEntity
100
AcDbLine
  8
HACHURE
 62
5
370
-1
  6
CONTINUOUS
 10
317.447037000000023
 20
214.173798000000005
 30
0.0
 11
314.9446239999999761
 21
211.6713860000000125
 31
0.0
  0
LINE
  5
25E
100
AcDbEntity
100
AcDbLine
  8
HACHURE
 62
5
370
-1
  6
CONTINUOUS
 10
314.9447119999999813
 20
207.1810600000000022
 30
0.0
 11
318.9451409999999782
 21
211.1814889999999991
 31
0.0
  0
LINE
  5
25F
100
AcDbEntity
100
AcDbLine
  8
HACHURE
 62
5
370
-1
  6
CONTINUOUS
 10
318.9452289999999834
 20
206.6911629999999889
 30
0.0
 11
312.9449030000000107
 21
200.6908369999999877
 31
0.0
  0
LINE
  5
260
100
AcDbEntity
100
AcDbLine
  8
HACHURE
 62
5
370
-1
  6
CONTINUOUS
 10
315.9175179999999727
 20
199.1743089999999938
 30
0.0
 11
322.9171569999999747
 21
206.1739479999999958
 31
0.0
  0
LINE
  5
261
100
AcDbEntity
100
AcDbLine
  8
HACHURE
 62
5
370
-1
  6
CONTINUOUS
 10
328.944800999999984
 20
212.2015910000000076
 30
0.0
 11
330.9167449999999917
 21
214.1735349999999869
 31
0.0
  0
LINE
  5
262
100
AcDbEntity
100
AcDbLine
  8
HACHURE
 62
5
370
-1
  6
CONTINUOUS
 10
335.4070709999999735
 20
214.1734470000000101
 30
0.0
 11
328.9448879999999917
 21
207.7112649999999974
 31
0.0
  0
LINE
  5
263
100
AcDbEntity
100
AcDbLine
  8
HACHURE
 62
5
370
-1
  6
CONTINUOUS
 10
327.4074840000000108
 20
206.1738599999999906
 30
0.0
 11
320.4078450000000089
 21
199.1742209999999886
 31
0.0
  0
LINE
  5
264
100
AcDbEntity
100
AcDbLine
  8
HACHURE
 62
5
370
-1
  6
CONTINUOUS
 10
324.8981709999999907
 20
199.1741330000000119
 30
0.0
 11
336.9445640000000139
 21
211.2205260000000067
 31
0.0
  0
LINE
  5
265
100
AcDbEntity
100
AcDbLine
  8
HACHURE
 62
5
370
-1
  6
CONTINUOUS
 10
336.9446510000000217
 20
206.7301999999999964
 30
0.0
 11
329.3884969999999726
 21
199.1740460000000041
 31
0.0
  0
LINE
  5
266
100
AcDbEntity
100
AcDbLine
  8
HACHURE
 62
5
370
-1
  6
CONTINUOUS
 10
333.8775529999999776
 20
199.1739579999999989
 30
0.0
 11
340.5442990000000236
 21
205.8407039999999881
 31
0.0
  0
LINE
  5
267
100
AcDbEntity
100
AcDbLine
  8
HACHURE
 62
5
370
-1
  6
CONTINUOUS
 10
340.544386999999972
 20
201.3503780000000063
 30
0.0
 11
338.3678790000000163
 21
199.1738699999999938
 31
0.0
  0
ENDBLK
  5
268
100
AcDbEntity
  8
0
100
AcDbBlockEnd
  0
BLOCK
  5
269
100
AcDbEntity
  8
0
100
AcDbBlockBegin
  2
DESENS-G21
 70
0
 10
0.0
 20
0.0
 30
0.0
  3
DESENS-G21
  1

  0
LINE
  5
26A
100
AcDbEntity
100
AcDbLine
  8
HACHURE
 62
5
370
-1
  6
CONTINUOUS
 10
348.8772670000000176
 20
214.1733910000000094
 30
0.0
 11
346.9451070000000072
 21
212.2412300000000016
 31
0.0
  0
LINE
  5
26B
100
AcDbEntity
100
AcDbLine
  8
HACHURE
 62
5
370
-1
  6
CONTINUOUS
 10
343.5451239999999871
 20
204.3511680000000013
 30
0.0
 11
345.367369999999994
 21
206.1734130000000107
 31
0.0
  0
LINE
  5
26C
100
AcDbEntity
100
AcDbLine
  8
HACHURE
 62
5
370
-1
  6
CONTINUOUS
 10
346.9451199999999744
 20
207.7511629999999911
 30
0.0
 11
350.9451030000000173
 21
211.7511460000000056
 31
0.0
  0
LINE
  5
26D
100
AcDbEntity
100
AcDbLine
  8
HACHURE
 62
5
370
-1
  6
CONTINUOUS
 10
350.945114999999987
 20
207.2610789999999952
 30
0.0
 11
343.5451370000000111
 21
199.8610999999999933
 31
0.0
  0
LINE
  5
26E
100
AcDbEntity
100
AcDbLine
  8
HACHURE
 62
5
370
-1
  6
CONTINUOUS
 10
347.3478049999999939
 20
199.173688999999996
 30
0.0
 11
352.3476210000000037
 21
204.1735050000000058
 31
0.0
  0
LINE
  5
26F
100
AcDbEntity
100
AcDbLine
  8
HACHURE
 62
5
370
-1
  6
CONTINUOUS
 10
352.9450239999999894
 20
200.2808280000000138
 30
0.0
 11
351.8378720000000044
 21
199.1736760000000004
 31
0.0
  0
ENDBLK
  5
270
100
AcDbEntity
  8
0
100
AcDbBlockEnd
  0
BLOCK
  5
271
100
AcDbEntity
  8
0
100
AcDbBlockBegin
  2
DESENS-G22
 70
0
 10
0.0
 20
0.0
 30
0.0
  3
DESENS-G22
  1

  0
LINE
  5
272
100
AcDbEntity
100
AcDbLine
  8
HACHURE
 62
5
370
-1
  6
CONTINUOUS
 10
344.2676759999999945
 20
216.1791450000000054
 30
0.0
 11
341.2332260000000019
 21
217.5941320000000019
 31
0.0
  0
LINE
  5
273
100
AcDbEntity
100
AcDbLine
  8
HACHURE
 62
5
370
-1
  6
CONTINUOUS
 10
339.537524000000019
 20
215.9326010000000053
 30
0.0
 11
344.445067999999992
 21
213.6441759999999874
 31
0.0
  0
LINE
  5
274
100
AcDbEntity
100
AcDbLine
  8
HACHURE
 62
5
370
-1
  6
CONTINUOUS
 10
344.4451520000000073
 20
211.1918860000000109
 30
0.0
 11
339.4451179999999795
 21
213.5234399999999937
 31
0.0
  0
LINE
  5
275
100
AcDbEntity
100
AcDbLine
  8
HACHURE
 62
5
370
-1
  6
CONTINUOUS
 10
339.4450540000000274
 20
211.0712200000000109
 30
0.0
 11
344.1307419999999979
 21
208.8862479999999948
 31
0.0
  0
LINE
  5
276
100
AcDbEntity
100
AcDbLine
  8
HACHURE
 62
5
370
-1
  6
CONTINUOUS
 10
341.3707469999999944
 20
207.7210039999999935
 30
0.0
 11
340.3479060000000231
 21
208.1979629999999872
 31
0.0
  0
ENDBLK
  5
277
100
AcDbEntity
  8
0
100
AcDbBlockEnd
  0
BLOCK
  5
278
100
AcDbEntity
  8
0
100
AcDbBlockBegin
  2
DESENS-G23
 70
0
 10
0.0
 20
0.0
 30
0.0
  3
DESENS-G23
  1

  0
LINE
  5
279
100
AcDbEntity
100
AcDbLine
  8
HACHURE
 62
5
370
-1
  6
CONTINUOUS
 10
322.834889999999973
 20
220.6734399999999994
 30
0.0
 11
322.1354240000000004
 21
219.1734299999999962
 31
0.0
  0
LINE
  5
27A
100
AcDbEntity
100
AcDbLine
  8
HACHURE
 62
5
370
-1
  6
CONTINUOUS
 10
323.3615239999999744
 20
219.1734930000000077
 30
0.0
 11
324.0609900000000039
 21
220.6735030000000108
 31
0.0
  0
LINE
  5
27B
100
AcDbEntity
100
AcDbLine
  8
HACHURE
 62
5
370
-1
  6
CONTINUOUS
 10
325.2872090000000185
 20
220.6735109999999906
 30
0.0
 11
324.587742999999989
 21
219.17349999999999
 31
0.0
  0
LINE
  5
27C
100
AcDbEntity
100
AcDbLine
  8
HACHURE
 62
5
370
-1
  6
CONTINUOUS
 10
325.8138430000000199
 20
219.1735630000000015
 30
0.0
 11
325.9450309999999718
 21
219.4548959999999909
 31
0.0
  0
ENDBLK
  5
27D
100
AcDbEntity
  8
0
100
AcDbBlockEnd
  0
BLOCK
  5
27E
100
AcDbEntity
  8
0
100
AcDbBlockBegin
  2
DESENS-G24
 70
0
 10
0.0
 20
0.0
 30
0.0
  3
DESENS-G24
  1

  0
LINE
  5
27F
100
AcDbEntity
100
AcDbLine
  8
HACHURE
 62
5
370
-1
  6
CONTINUOUS
 10
340.2786340000000109
 20
220.6735040000000083
 30
0.0
 11
339.9451060000000098
 21
219.9582530000000133
 31
0.0
  0
LINE
  5
280
100
AcDbEntity
100
AcDbLine
  8
HACHURE
 62
5
370
-1
  6
CONTINUOUS
 10
340.8052129999999806
 20
219.1734390000000019
 30
0.0
 11
341.5046790000000101
 21
220.6734490000000051
 31
0.0
  0
LINE
  5
281
100
AcDbEntity
100
AcDbLine
  8
HACHURE
 62
5
370
-1
  6
CONTINUOUS
 10
342.730952000000002
 20
220.6735749999999996
 30
0.0
 11
342.0314309999999978
 21
219.1734460000000126
 31
0.0
  0
LINE
  5
282
100
AcDbEntity
100
AcDbLine
  8
HACHURE
 62
5
370
-1
  6
CONTINUOUS
 10
343.2575320000000261
 20
219.1735089999999957
 30
0.0
 11
343.9450570000000198
 21
220.6479109999999935
 31
0.0
  0
ENDBLK
  5
283
100
AcDbEntity
  8
0
100
AcDbBlockEnd
  0
BLOCK
  5
284
100
AcDbEntity
  8
0
100
AcDbBlockBegin
  2
DESENS-G25
 70
0
 10
0.0
 20
0.0
 30
0.0
  3
DESENS-G25
  1

  0
LINE
  5
285
100
AcDbEntity
100
AcDbLine
  8
HACHURE
 62
5
370
-1
  6
CONTINUOUS
 10
331.2909960000000069
 20
241.488710999999995
 30
0.0
 11
325.6296530000000189
 21
235.827368000000007
 31
0.0
  0
LINE
  5
286
100
AcDbEntity
100
AcDbLine
  8
HACHURE
 62
5
370
-1
  6
CONTINUOUS
 10
325.6852410000000191
 20
232.2907979999999952
 30
0.0
 11
334.8275649999999928
 21
241.4331229999999948
 31
0.0
  0
LINE
  5
287
100
AcDbEntity
100
AcDbLine
  8
HACHURE
 62
5
370
-1
  6
CONTINUOUS
 10
337.2799969999999803
 20
240.2933969999999988
 30
0.0
 11
326.8249670000000151
 21
229.8383670000000052
 31
0.0
  0
LINE
  5
288
100
AcDbEntity
100
AcDbLine
  8
HACHURE
 62
5
370
-1
  6
CONTINUOUS
 10
328.6231179999999767
 20
228.0443600000000117
 30
0.0
 11
339.0740040000000022
 21
238.4952460000000087
 31
0.0
  0
LINE
  5
289
100
AcDbEntity
100
AcDbLine
  8
HACHURE
 62
5
370
-1
  6
CONTINUOUS
 10
340.2092420000000175
 20
236.0383260000000121
 30
0.0
 11
331.0800380000000018
 21
226.9091219999999964
 31
0.0
  0
LINE
  5
28A
100
AcDbEntity
100
AcDbLine
  8
HACHURE
 62
5
370
-1
  6
CONTINUOUS
 10
334.6276560000000018
 20
226.8645830000000103
 30
0.0
 11
340.2537810000000036
 21
232.4907080000000121
 31
0.0
  0
ENDBLK
  5
28B
100
AcDbEntity
  8
0
100
AcDbBlockEnd
  0
ENDSEC
  0
SECTION
  2
ENTITIES
  0
LINE
  5
28C
100
AcDbEntity
100
AcDbLine
  8
FORT
 62
7
370
-1
  6
CONTINUOUS
 10
10.0
 20
287.0
 30
0.0
 11
410.0
 21
287.0
 31
0.0
  0
LINE
  5
28D
100
AcDbEntity
100
AcDbLine
  8
FORT
 62
7
370
-1
  6
CONTINUOUS
 10
10.0
 20
10.0
 30
0.0
 11
10.0
 21
287.0
 31
0.0
  0
LINE
  5
28E
100
AcDbEntity
100
AcDbLine
  8
FORT
 62
7
370
-1
  6
CONTINUOUS
 10
10.0
 20
10.0
 30
0.0
 11
220.0
 21
10.0
 31
0.0
  0
LINE
  5
28F
100
AcDbEntity
100
AcDbLine
  8
FIN
 62
5
370
-1
  6
CONTINUOUS
 10
250.0
 20
10.0
 30
0.0
 11
250.0
 21
41.0
 31
0.0
  0
LINE
  5
290
100
AcDbEntity
100
AcDbLine
  8
FIN
 62
5
370
-1
  6
CONTINUOUS
 10
220.0
 20
20.5
 30
0.0
 11
410.0
 21
20.5
 31
0.0
  0
LINE
  5
291
100
AcDbEntity
100
AcDbLine
  8
FORT
 62
7
370
-1
  6
CONTINUOUS
 10
410.0
 20
41.0
 30
0.0
 11
410.0
 21
287.0
 31
0.0
  0
LINE
  5
292
100
AcDbEntity
100
AcDbLine
  8
RENFORCE
 62
256
370
-1
  6
ByLayer
 10
410.0
 20
41.0
 30
0.0
 11
410.0
 21
10.0
 31
0.0
  0
LINE
  5
293
100
AcDbEntity
100
AcDbLine
  8
RENFORCE
 62
7
370
-1
  6
CONTINUOUS
 10
220.0
 20
41.0
 30
0.0
 11
410.0
 21
41.0
 31
0.0
  0
LINE
  5
294
100
AcDbEntity
100
AcDbLine
  8
RENFORCE
 62
7
370
-1
  6
CONTINUOUS
 10
220.0
 20
10.0
 30
0.0
 11
220.0
 21
41.0
 31
0.0
  0
LINE
  5
295
100
AcDbEntity
100
AcDbLine
  8
RENFORCE
 62
7
370
-1
  6
CONTINUOUS
 10
220.0
 20
10.0
 30
0.0
 11
410.0
 21
10.0
 31
0.0
  0
MTEXT
  5
296
100
AcDbEntity
100
AcDbMText
  8
TEXTE
 62
7
370
70
  6
CONTINUOUS
 10
231.0037869999999884
 20
11.9279770000000003
 30
0.0
 40
7.0
 41
100.0
 71
7
 72
2
  1
A3
  7
ISO9
 50
0.0
 73
1
 44
1.0
  0
MTEXT
  5
297
100
AcDbEntity
100
AcDbMText
  8
TEXTE
 62
7
370
70
  6
CONTINUOUS
 10
259.7666446877470321
 20
27.0
 30
0.0
 40
7.0
 41
100.0
 71
7
 72
2
  1
POTENTIOMETRE\~AJUSTABLE
  7
ISO9
 50
0.0
 73
1
 44
1.0
  0
MTEXT
  5
298
100
AcDbEntity
100
AcDbMText
  8
TEXTE
 62
7
370
-1
  6
CONTINUOUS
 10
300.4322973162055632
 20
12.6947080000000003
 30
0.0
 40
5.0
 41
100.0
 71
7
 72
2
  1
Dessin\~d'ensemble
  7
ISO9
 50
0.0
 73
1
 44
1.0
  0
LINE
  5
299
100
AcDbEntity
100
AcDbLine
  8
FIN
 62
256
370
-1
  6
ByLayer
 10
220.0
 20
30.5
 30
0.0
 11
250.0
 21
30.5
 31
0.0
  0
MTEXT
  5
29A
100
AcDbEntity
100
AcDbMText
  8
TEXTE
 62
7
370
-1
  6
CONTINUOUS
 10
223.4693541101975995
 20
33.0074783960474463
 30
0.0
 40
5.0
 41
100.0
 71
7
 72
2
  1
Ech.\~5:1
  7
ISO9
 50
0.0
 73
1
 44
1.0
  0
LINE
  5
29B
100
AcDbEntity
100
AcDbLine
  8
FORT
 62
256
370
-1
  6
ByLayer
 10
224.5402077201278246
 20
26.9142135623730958
 30
0.0
 11
224.5402077201278246
 21
24.0857864376269042
 31
0.0
  0
LINE
  5
29C
100
AcDbEntity
100
AcDbLine
  8
FORT
 62
256
370
-1
  6
ByLayer
 10
236.5402077201278246
 20
28.5
 30
0.0
 11
236.5402077201278246
 21
22.5
 31
0.0
  0
LINE
  5
29D
100
AcDbEntity
100
AcDbLine
  8
FORT
 62
256
370
-1
  6
ByLayer
 10
236.5402077201278246
 20
28.5
 30
0.0
 11
224.5402077201278246
 21
26.9142135623730958
 31
0.0
  0
LINE
  5
29E
100
AcDbEntity
100
AcDbLine
  8
FORT
 62
256
370
-1
  6
ByLayer
 10
236.5402077201278246
 20
22.5
 30
0.0
 11
224.5402077201278246
 21
24.0857864376269042
 31
0.0
  0
CIRCLE
  5
29F
100
AcDbEntity
100
AcDbCircle
  8
FORT
 62
256
370
-1
  6
ByLayer
 10
242.6368524758590297
 20
25.5
 30
0.0
 40
3.0
  0
CIRCLE
  5
2A0
100
AcDbEntity
100
AcDbCircle
  8
FORT
 62
256
370
-1
  6
ByLayer
 10
242.6368524758590297
 20
25.5
 30
0.0
 40
1.4142135623730951
  0
LINE
  5
2A1
100
AcDbEntity
100
AcDbLine
  8
AXE
 62
256
370
-1
  6
ByLayer
 10
242.6368524758590297
 20
29.5
 30
0.0
 11
242.6368524758590297
 21
21.5
 31
0.0
  0
LINE
  5
2A2
100
AcDbEntity
100
AcDbLine
  8
AXE
 62
256
370
-1
  6
ByLayer
 10
222.3155606663133312
 20
25.5
 30
0.0
 11
247.6334488790523665
 21
25.5
 31
0.0
  0
LINE
  5
2A3
100
AcDbEntity
100
AcDbLine
  8
FORT
 62
7
370
-1
  6
CONTINUOUS
 10
62.8490348102766703
 20
61.6473160197628687
 30
0.0
 11
262.8490348102766916
 21
61.6473160197628687
 31
0.0
  0
LINE
  5
2A4
100
AcDbEntity
100
AcDbLine
  8
FORT
 62
7
370
-1
  6
CONTINUOUS
 10
62.8490348102766703
 20
101.6473160197628687
 30
0.0
 11
262.8490348102766916
 21
101.6473160197628687
 31
0.0
  0
LINE
  5
2A5
100
AcDbEntity
100
AcDbLine
  8
FORT
 62
7
370
-1
  6
CONTINUOUS
 10
67.8490348102766774
 20
63.6473160197628687
 30
0.0
 11
257.8490348102766916
 21
63.6473160197628687
 31
0.0
  0
LINE
  5
2A6
100
AcDbEntity
100
AcDbLine
  8
FORT
 62
7
370
-1
  6
CONTINUOUS
 10
67.8490348102766774
 20
99.6473160197628687
 30
0.0
 11
257.8490348102766916
 21
99.6473160197628687
 31
0.0
  0
LINE
  5
2A7
100
AcDbEntity
100
AcDbLine
  8
FORT
 62
7
370
-1
  6
CONTINUOUS
 10
62.8490348102766703
 20
245.8889540197628776
 30
0.0
 11
262.8490348102766916
 21
245.8889540197628776
 31
0.0
  0
LINE
  5
2A8
100
AcDbEntity
100
AcDbLine
  8
FORT
 62
7
370
-1
  6
CONTINUOUS
 10
67.8490348102766774
 20
243.8889540197628776
 30
0.0
 11
257.8490348102766916
 21
243.8889540197628776
 31
0.0
  0
LWPOLYLINE
  5
2A9
  8
HACHURE
 62
5
370
-1
  6
CONTINUOUS
100
AcDbEntity
100
AcDbPolyline
 90
4
 70
1
 10
257.8490348102766916
 20
245.8889540197628776
 10
67.8490348102766774
 20
245.8889540197628776
 10
67.8490348102766774
 20
243.8889540197628776
 10
257.8490348102766916
 20
243.8889540197628776
  0
INSERT
  5
2AA
100
AcDbEntity
100
AcDbBlockReference
  8
HACHURE
 62
256
370
-1
  6
ByLayer
  2
DESENS-G1
 10
3.8320158102766726
 20
-3.2845849802371276
 30
0.0
  0
LWPOLYLINE
  5
2AB
  8
HACHURE
 62
5
370
-1
  6
CONTINUOUS
100
AcDbEntity
100
AcDbPolyline
 90
2
 70
1
 10
250.3490348102766916
 20
210.8889540197628776
 42
0.9999999999999999
 10
235.3490348102766916
 20
210.8889540197628776
 42
0.9999999999999999
  0
LWPOLYLINE
  5
2AC
  8
HACHURE
 62
5
370
-1
  6
CONTINUOUS
100
AcDbEntity
100
AcDbPolyline
 90
15
 70
1
 10
262.8490348102766916
 20
245.8889540197628776
 10
257.8490348102766916
 20
245.8889540197628776
 10
257.8490348102766916
 20
243.8889540197628776
 10
227.8490348102766916
 20
243.8889540197628776
 10
227.8490348102766916
 20
235.8889540197628776
 10
247.8490348102766916
 20
235.8889540197628776
 10
247.8490348102766916
 20
225.8889540197628776
 10
227.8490348102766916
 20
225.8889540197628776
 10
227.8490348102766916
 20
216.8889540197628776
 10
223.8490348102766916
 20
210.8889540197628776
 10
212.8490348102766916
 20
210.8889540197628776
 10
212.8490348102766916
 20
202.8889540197628776
 10
204.3490348102766916
 20
202.8889540197628776
 10
204.3490348102766916
 20
195.8889540197628776
 10
262.8490348102766916
 20
195.8889540197628776
  0
INSERT
  5
2AD
100
AcDbEntity
100
AcDbBlockReference
  8
HACHURE
 62
256
370
-1
  6
ByLayer
  2
DESENS-G2
 10
3.8320158102766726
 20
-3.2845849802371276
 30
0.0
  0
LINE
  5
2AE
100
AcDbEntity
100
AcDbLine
  8
FORT
 62
7
370
-1
  6
CONTINUOUS
 10
204.3490348102766916
 20
195.8889540197628776
 30
0.0
 11
262.8490348102766916
 21
195.8889540197628776
 31
0.0
  0
CIRCLE
  5
2AF
100
AcDbEntity
100
AcDbCircle
  8
FORT
 62
7
370
-1
  6
CONTINUOUS
 10
242.8490348102766916
 20
210.8889540197628776
 30
0.0
 40
6.0
  0
CIRCLE
  5
2B0
100
AcDbEntity
100
AcDbCircle
  8
FORT
 62
7
370
-1
  6
CONTINUOUS
 10
242.8490348102766916
 20
210.8889540197628776
 30
0.0
 40
7.5
  0
LWPOLYLINE
  5
2B1
  8
HACHURE
 62
5
370
-1
  6
CONTINUOUS
100
AcDbEntity
100
AcDbPolyline
 90
2
 70
1
 10
236.8490348102766916
 20
210.8889540197628776
 42
0.9999999999999999
 10
248.8490348102766916
 20
210.8889540197628776
 42
0.9999999999999999
  0
LWPOLYLINE
  5
2B2
  8
HACHURE
 62
5
370
-1
  6
CONTINUOUS
100
AcDbEntity
100
AcDbPolyline
 90
2
 70
1
 10
235.3490348102766916
 20
210.8889540197628776
 42
0.9999999999999999
 10
250.3490348102766916
 20
210.8889540197628776
 42
0.9999999999999999
  0
INSERT
  5
2B3
100
AcDbEntity
100
AcDbBlockReference
  8
HACHURE
 62
256
370
-1
  6
ByLayer
  2
DESENS-G3
 10
3.8320158102766726
 20
-3.2845849802371276
 30
0.0
  0
LINE
  5
2B4
100
AcDbEntity
100
AcDbLine
  8
FIN
 62
5
370
-1
  6
CONTINUOUS
 10
263.8320158102766868
 20
146.7154150197628724
 30
0.0
 11
247.0734178102766805
 21
205.5671110197628764
 31
0.0
  0
LINE
  5
2B5
100
AcDbEntity
100
AcDbLine
  8
FORT
 62
7
370
-1
  6
CONTINUOUS
 10
105.8490348102766774
 20
89.1473160197628687
 30
0.0
 11
200.8490348102766916
 21
89.1473160197628687
 31
0.0
  0
LINE
  5
2B6
100
AcDbEntity
100
AcDbLine
  8
FORT
 62
7
370
-1
  6
CONTINUOUS
 10
114.3490348102766774
 20
68.6473160197628687
 30
0.0
 11
200.8490348102766916
 21
68.6473160197628687
 31
0.0
  0
LINE
  5
2B7
100
AcDbEntity
100
AcDbLine
  8
FORT
 62
7
370
-1
  6
CONTINUOUS
 10
112.8490348102766774
 20
67.6473160197628687
 30
0.0
 11
200.8490348102766916
 21
67.6473160197628687
 31
0.0
  0
LINE
  5
2B8
100
AcDbEntity
100
AcDbLine
  8
FORT
 62
7
370
-1
  6
CONTINUOUS
 10
112.8490348102766774
 20
95.6473160197628687
 30
0.0
 11
200.8490348102766916
 21
95.6473160197628687
 31
0.0
  0
LINE
  5
2B9
100
AcDbEntity
100
AcDbLine
  8
FIN
 62
5
370
-1
  6
CONTINUOUS
 10
103.3490348102766774
 20
76.6473160197628687
 30
0.0
 11
200.8490348102766916
 21
76.6473160197628687
 31
0.0
  0
LINE
  5
2BA
100
AcDbEntity
100
AcDbLine
  8
FIN
 62
5
370
-1
  6
CONTINUOUS
 10
103.3490348102766774
 20
86.6473160197628687
 30
0.0
 11
200.8490348102766916
 21
86.6473160197628687
 31
0.0
  0
CIRCLE
  5
2BB
100
AcDbEntity
100
AcDbCircle
  8
FIN
 62
5
370
-1
  6
CONTINUOUS
 10
122.8490348102766774
 20
72.6473160197628687
 30
0.0
 40
1.5
  0
LINE
  5
2BC
100
AcDbEntity
100
AcDbLine
  8
FORT
 62
7
370
-1
  6
CONTINUOUS
 10
97.8490348102766774
 20
63.6473160197628687
 30
0.0
 11
97.8490348102766774
 21
99.6473160197628687
 31
0.0
  0
LINE
  5
2BD
100
AcDbEntity
100
AcDbLine
  8
FORT
 62
7
370
-1
  6
CONTINUOUS
 10
101.8490348102766774
 20
63.6473160197628687
 30
0.0
 11
101.8490348102766774
 21
76.6473160197628687
 31
0.0
  0
LINE
  5
2BE
100
AcDbEntity
100
AcDbLine
  8
FORT
 62
7
370
-1
  6
CONTINUOUS
 10
112.8490348102766774
 20
67.6473160197628687
 30
0.0
 11
112.8490348102766774
 21
74.1473160197628687
 31
0.0
  0
LINE
  5
2BF
100
AcDbEntity
100
AcDbLine
  8
FORT
 62
7
370
-1
  6
CONTINUOUS
 10
67.8490348102766774
 20
101.6473160197628687
 30
0.0
 11
67.8490348102766774
 21
61.6473160197628687
 31
0.0
  0
LINE
  5
2C0
100
AcDbEntity
100
AcDbLine
  8
FORT
 62
7
370
-1
  6
CONTINUOUS
 10
62.8490348102766703
 20
61.6473160197628687
 30
0.0
 11
62.8490348102766703
 21
101.6473160197628687
 31
0.0
  0
LINE
  5
2C1
100
AcDbEntity
100
AcDbLine
  8
FORT
 62
7
370
-1
  6
CONTINUOUS
 10
88.8490348102766774
 20
63.6473160197628687
 30
0.0
 11
88.8490348102766774
 21
99.6473160197628687
 31
0.0
  0
LINE
  5
2C2
100
AcDbEntity
100
AcDbLine
  8
FORT
 62
7
370
-1
  6
CONTINUOUS
 10
84.8490348102766774
 20
63.6473160197628687
 30
0.0
 11
84.8490348102766774
 21
99.6473160197628687
 31
0.0
  0
LINE
  5
2C3
100
AcDbEntity
100
AcDbLine
  8
FORT
 62
7
370
-1
  6
CONTINUOUS
 10
114.3490348102766774
 20
68.6473160197628687
 30
0.0
 11
114.3490348102766774
 21
74.1473160197628687
 31
0.0
  0
LINE
  5
2C4
100
AcDbEntity
100
AcDbLine
  8
FORT
 62
7
370
-1
  6
CONTINUOUS
 10
84.8490348102766774
 20
65.6473160197628687
 30
0.0
 11
88.8490348102766774
 21
65.6473160197628687
 31
0.0
  0
LINE
  5
2C5
100
AcDbEntity
100
AcDbLine
  8
FORT
 62
7
370
-1
  6
CONTINUOUS
 10
56.8490348102766703
 20
70.6473160197628687
 30
0.0
 11
62.8490348102766703
 21
70.6473160197628687
 31
0.0
  0
LINE
  5
2C6
100
AcDbEntity
100
AcDbLine
  8
FORT
 62
7
370
-1
  6
CONTINUOUS
 10
56.8490348102766703
 20
92.6473160197628687
 30
0.0
 11
62.8490348102766703
 21
92.6473160197628687
 31
0.0
  0
ARC
  5
2C7
100
AcDbEntity
  8
FORT
 62
7
370
-1
  6
CONTINUOUS
100
AcDbCircle
 10
56.8490348102766703
 20
72.6473160197628687
 30
0.0
 40
2.0
100
AcDbArc
 50
180.0
 51
270.0
  0
LINE
  5
2C8
100
AcDbEntity
100
AcDbLine
  8
FORT
 62
7
370
-1
  6
CONTINUOUS
 10
54.8490348102766703
 20
72.6473160197628687
 30
0.0
 11
54.8490348102766703
 21
90.6473160197628687
 31
0.0
  0
ARC
  5
2C9
100
AcDbEntity
  8
FORT
 62
7
370
-1
  6
CONTINUOUS
100
AcDbCircle
 10
56.8490348102766703
 20
90.6473160197628687
 30
0.0
 40
2.0
100
AcDbArc
 50
90.0
 51
180.0
  0
LINE
  5
2CA
100
AcDbEntity
100
AcDbLine
  8
FORT
 62
7
370
-1
  6
CONTINUOUS
 10
101.8490348102766774
 20
86.6473160197628687
 30
0.0
 11
101.8490348102766774
 21
99.6473160197628687
 31
0.0
  0
LINE
  5
2CB
100
AcDbEntity
100
AcDbLine
  8
FORT
 62
7
370
-1
  6
CONTINUOUS
 10
112.8490348102766774
 20
89.1473160197628687
 30
0.0
 11
112.8490348102766774
 21
95.6473160197628687
 31
0.0
  0
LINE
  5
2CC
100
AcDbEntity
100
AcDbLine
  8
FORT
 62
7
370
-1
  6
CONTINUOUS
 10
114.3490348102766774
 20
89.1473160197628687
 30
0.0
 11
114.3490348102766774
 21
94.6473160197628687
 31
0.0
  0
LINE
  5
2CD
100
AcDbEntity
100
AcDbLine
  8
FORT
 62
7
370
-1
  6
CONTINUOUS
 10
105.8490348102766774
 20
89.1473160197628687
 30
0.0
 11
105.8490348102766774
 21
74.1473160197628687
 31
0.0
  0
LINE
  5
2CE
100
AcDbEntity
100
AcDbLine
  8
FORT
 62
7
370
-1
  6
CONTINUOUS
 10
105.8490348102766774
 20
89.1473160197628687
 30
0.0
 11
103.3490348102766774
 21
86.6473160197628687
 31
0.0
  0
LINE
  5
2CF
100
AcDbEntity
100
AcDbLine
  8
FORT
 62
7
370
-1
  6
CONTINUOUS
 10
105.8490348102766774
 20
74.1473160197628687
 30
0.0
 11
103.3490348102766774
 21
76.6473160197628687
 31
0.0
  0
LINE
  5
2D0
100
AcDbEntity
100
AcDbLine
  8
FORT
 62
7
370
-1
  6
CONTINUOUS
 10
103.3490348102766774
 20
76.6473160197628687
 30
0.0
 11
103.3490348102766774
 21
86.6473160197628687
 31
0.0
  0
LINE
  5
2D1
100
AcDbEntity
100
AcDbLine
  8
FORT
 62
7
370
-1
  6
CONTINUOUS
 10
97.8490348102766774
 20
76.6473160197628687
 30
0.0
 11
103.3490348102766774
 21
76.6473160197628687
 31
0.0
  0
LINE
  5
2D2
100
AcDbEntity
100
AcDbLine
  8
FORT
 62
7
370
-1
  6
CONTINUOUS
 10
97.8490348102766774
 20
86.6473160197628687
 30
0.0
 11
103.3490348102766774
 21
86.6473160197628687
 31
0.0
  0
LINE
  5
2D3
100
AcDbEntity
100
AcDbLine
  8
FORT
 62
7
370
-1
  6
CONTINUOUS
 10
84.8490348102766774
 20
97.6473160197628687
 30
0.0
 11
88.8490348102766774
 21
97.6473160197628687
 31
0.0
  0
LINE
  5
2D4
100
AcDbEntity
100
AcDbLine
  8
FORT
 62
7
370
-1
  6
CONTINUOUS
 10
200.8490348102766916
 20
97.6473160197628687
 30
0.0
 11
200.8490348102766916
 21
65.6473160197628687
 31
0.0
  0
LINE
  5
2D5
100
AcDbEntity
100
AcDbLine
  8
FORT
 62
7
370
-1
  6
CONTINUOUS
 10
227.8490348102766916
 20
99.6473160197628687
 30
0.0
 11
227.8490348102766916
 21
63.6473160197628687
 31
0.0
  0
LINE
  5
2D6
100
AcDbEntity
100
AcDbLine
  8
FORT
 62
7
370
-1
  6
CONTINUOUS
 10
225.8490348102766916
 20
65.6473160197628687
 30
0.0
 11
225.8490348102766916
 21
97.6473160197628687
 31
0.0
  0
LINE
  5
2D7
100
AcDbEntity
100
AcDbLine
  8
FORT
 62
7
370
-1
  6
CONTINUOUS
 10
200.8490348102766916
 20
65.6473160197628687
 30
0.0
 11
225.8490348102766916
 21
65.6473160197628687
 31
0.0
  0
LINE
  5
2D8
100
AcDbEntity
100
AcDbLine
  8
FORT
 62
7
370
-1
  6
CONTINUOUS
 10
223.8490348102766916
 20
63.6473160197628687
 30
0.0
 11
223.8490348102766916
 21
65.6473160197628687
 31
0.0
  0
CIRCLE
  5
2D9
100
AcDbEntity
100
AcDbCircle
  8
FIN
 62
5
370
-1
  6
CONTINUOUS
 10
162.8490348102766916
 20
90.6473160197628687
 30
0.0
 40
1.5
  0
LINE
  5
2DA
100
AcDbEntity
100
AcDbLine
  8
FORT
 62
7
370
-1
  6
CONTINUOUS
 10
225.8490348102766916
 20
86.6473160197628687
 30
0.0
 11
227.8490348102766916
 21
86.6473160197628687
 31
0.0
  0
LINE
  5
2DB
100
AcDbEntity
100
AcDbLine
  8
FORT
 62
7
370
-1
  6
CONTINUOUS
 10
225.8490348102766916
 20
76.6473160197628687
 30
0.0
 11
227.8490348102766916
 21
76.6473160197628687
 31
0.0
  0
LINE
  5
2DC
100
AcDbEntity
100
AcDbLine
  8
FORT
 62
7
370
-1
  6
CONTINUOUS
 10
200.8490348102766916
 20
97.6473160197628687
 30
0.0
 11
225.8490348102766916
 21
97.6473160197628687
 31
0.0
  0
LINE
  5
2DD
100
AcDbEntity
100
AcDbLine
  8
FORT
 62
7
370
-1
  6
CONTINUOUS
 10
223.8490348102766916
 20
97.6473160197628687
 30
0.0
 11
223.8490348102766916
 21
99.6473160197628687
 31
0.0
  0
CIRCLE
  5
2DE
100
AcDbEntity
100
AcDbCircle
  8
FIN
 62
5
370
-1
  6
CONTINUOUS
 10
202.8490348102766916
 20
72.6473160197628687
 30
0.0
 40
1.5
  0
LINE
  5
2DF
100
AcDbEntity
100
AcDbLine
  8
FORT
 62
7
370
-1
  6
CONTINUOUS
 10
105.8490348102766774
 20
238.3889540197628776
 30
0.0
 11
219.8490348102766916
 21
238.3889540197628776
 31
0.0
  0
LINE
  5
2E0
100
AcDbEntity
100
AcDbLine
  8
FORT
 62
7
370
-1
  6
CONTINUOUS
 10
105.8490348102766774
 20
223.3889540197628776
 30
0.0
 11
219.8490348102766916
 21
223.3889540197628776
 31
0.0
  0
LINE
  5
2E1
100
AcDbEntity
100
AcDbLine
  8
FORT
 62
7
370
-1
  6
CONTINUOUS
 10
112.8490348102766774
 20
202.8889540197628776
 30
0.0
 11
212.8490348102766916
 21
202.8889540197628776
 31
0.0
  0
LINE
  5
2E2
100
AcDbEntity
100
AcDbLine
  8
FORT
 62
7
370
-1
  6
CONTINUOUS
 10
114.3490348102766774
 20
204.3889540197628776
 30
0.0
 11
211.3490348102766916
 21
204.3889540197628776
 31
0.0
  0
LINE
  5
2E3
100
AcDbEntity
100
AcDbLine
  8
FORT
 62
7
370
-1
  6
CONTINUOUS
 10
114.3490348102766774
 20
214.3889540197628776
 30
0.0
 11
211.3490348102766916
 21
214.3889540197628776
 31
0.0
  0
LINE
  5
2E4
100
AcDbEntity
100
AcDbLine
  8
FORT
 62
7
370
-1
  6
CONTINUOUS
 10
114.3490348102766774
 20
215.8889540197628776
 30
0.0
 11
211.3490348102766916
 21
215.8889540197628776
 31
0.0
  0
LWPOLYLINE
  5
2E5
  8
HACHURE
 62
5
370
-1
  6
CONTINUOUS
100
AcDbEntity
100
AcDbPolyline
 90
4
 70
1
 10
211.3490348102766916
 20
214.3889540197628776
 10
114.3490348102766774
 20
214.3889540197628776
 10
114.3490348102766774
 20
204.3889540197628776
 10
211.3490348102766916
 20
204.3889540197628776
  0
INSERT
  5
2E6
100
AcDbEntity
100
AcDbBlockReference
  8
HACHURE
 62
256
370
-1
  6
ByLayer
  2
DESENS-G4
 10
3.8320158102766726
 20
-3.2845849802371276
 30
0.0
  0
LWPOLYLINE
  5
2E7
  8
HACHURE
 62
5
370
-1
  6
CONTINUOUS
100
AcDbEntity
100
AcDbPolyline
 90
4
 70
1
 10
211.3490348102766916
 20
215.8889540197628776
 10
114.3490348102766774
 20
215.8889540197628776
 10
114.3490348102766774
 20
214.3889540197628776
 10
211.3490348102766916
 20
214.3889540197628776
  0
INSERT
  5
2E8
100
AcDbEntity
100
AcDbBlockReference
  8
HACHURE
 62
256
370
-1
  6
ByLayer
  2
DESENS-G5
 10
3.8320158102766726
 20
-3.2845849802371276
 30
0.0
  0
LWPOLYLINE
  5
2E9
  8
HACHURE
 62
5
370
-1
  6
CONTINUOUS
100
AcDbEntity
100
AcDbPolyline
 90
4
 70
1
 10
211.3490348102766916
 20
204.3889540197628776
 10
114.3490348102766774
 20
204.3889540197628776
 10
114.3490348102766774
 20
202.8889540197628776
 10
211.3490348102766916
 20
202.8889540197628776
  0
INSERT
  5
2EA
100
AcDbEntity
100
AcDbBlockReference
  8
HACHURE
 62
256
370
-1
  6
ByLayer
  2
DESENS-G6
 10
3.8320158102766726
 20
-3.2845849802371276
 30
0.0
  0
LINE
  5
2EB
100
AcDbEntity
100
AcDbLine
  8
FIN
 62
5
370
-1
  6
CONTINUOUS
 10
103.3490348102766774
 20
225.8889540197628776
 30
0.0
 11
222.3490348102766916
 21
225.8889540197628776
 31
0.0
  0
LINE
  5
2EC
100
AcDbEntity
100
AcDbLine
  8
FIN
 62
5
370
-1
  6
CONTINUOUS
 10
103.3490348102766774
 20
235.8889540197628776
 30
0.0
 11
222.3490348102766916
 21
235.8889540197628776
 31
0.0
  0
LINE
  5
2ED
100
AcDbEntity
100
AcDbLine
  8
FIN
 62
5
370
-1
  6
CONTINUOUS
 10
93.8320158102766726
 20
146.7154150197628724
 30
0.0
 11
122.8490348102766774
 21
185.8678490197628719
 31
0.0
  0
LINE
  5
2EE
100
AcDbEntity
100
AcDbLine
  8
FORT
 62
7
370
-1
  6
CONTINUOUS
 10
113.8320158102766726
 20
146.7154150197628724
 30
0.0
 11
123.8320158102766726
 21
146.7154150197628724
 31
0.0
  0
LINE
  5
2EF
100
AcDbEntity
100
AcDbLine
  8
FORT
 62
7
370
-1
  6
CONTINUOUS
 10
121.3490348102766774
 20
175.8889540197628776
 30
0.0
 11
124.3490348102766774
 21
175.8889540197628776
 31
0.0
  0
ARC
  5
2F0
100
AcDbEntity
  8
FORT
 62
7
370
-1
  6
CONTINUOUS
100
AcDbCircle
 10
122.8490348102766774
 20
177.1941010197628827
 30
0.0
 40
1.988318
100
AcDbArc
 50
221.0264650000000017
 51
318.9735350000000267
  0
LINE
  5
2F1
100
AcDbEntity
100
AcDbLine
  8
FORT
 62
7
370
-1
  6
CONTINUOUS
 10
113.8320158102766726
 20
266.7154150197628724
 30
0.0
 11
123.8320158102766726
 21
266.7154150197628724
 31
0.0
  0
LINE
  5
2F2
100
AcDbEntity
100
AcDbLine
  8
FORT
 62
7
370
-1
  6
CONTINUOUS
 10
62.8490348102766703
 20
245.8889540197628776
 30
0.0
 11
62.8490348102766703
 21
195.8889540197628776
 31
0.0
  0
LWPOLYLINE
  5
2F3
  8
HACHURE
 62
5
370
-1
  6
CONTINUOUS
100
AcDbEntity
100
AcDbPolyline
 90
2
 70
1
 10
90.3490348102766774
 20
210.8889540197628776
 42
0.9999999999999999
 10
75.3490348102766774
 20
210.8889540197628776
 42
0.9999999999999999
  0
LWPOLYLINE
  5
2F4
  8
HACHURE
 62
5
370
-1
  6
CONTINUOUS
100
AcDbEntity
100
AcDbPolyline
 90
9
 70
1
 10
121.3490348102766774
 20
202.8889540197628776
 10
112.8490348102766774
 20
202.8889540197628776
 10
112.8490348102766774
 20
210.8889540197628776
 10
101.8490348102766774
 20
210.8889540197628776
 10
97.8490348102766774
 20
216.8889540197628776
 10
97.8490348102766774
 20
223.3889540197628776
 10
62.8490348102766703
 20
223.3889540197628776
 10
62.8490348102766703
 20
195.8889540197628776
 10
121.3490348102766774
 20
195.8889540197628776
  0
INSERT
  5
2F5
100
AcDbEntity
100
AcDbBlockReference
  8
HACHURE
 62
256
370
-1
  6
ByLayer
  2
DESENS-G7
 10
3.8320158102766726
 20
-3.2845849802371276
 30
0.0
  0
ARC
  5
2F6
100
AcDbEntity
  8
FORT
 62
7
370
-1
  6
CONTINUOUS
100
AcDbCircle
 10
56.8490348102766703
 20
221.8889540197628776
 30
0.0
 40
2.0
100
AcDbArc
 50
180.0
 51
270.0
  0
LINE
  5
2F7
100
AcDbEntity
100
AcDbLine
  8
FORT
 62
7
370
-1
  6
CONTINUOUS
 10
97.8490348102766774
 20
216.8889540197628776
 30
0.0
 11
97.8490348102766774
 21
225.8889540197628776
 31
0.0
  0
LINE
  5
2F8
100
AcDbEntity
100
AcDbLine
  8
FORT
 62
7
370
-1
  6
CONTINUOUS
 10
53.8320158102766726
 20
146.7154150197628724
 30
0.0
 11
63.8320158102766726
 21
146.7154150197628724
 31
0.0
  0
LINE
  5
2F9
100
AcDbEntity
100
AcDbLine
  8
FORT
 62
7
370
-1
  6
CONTINUOUS
 10
56.8490348102766703
 20
219.8889540197628776
 30
0.0
 11
62.8490348102766703
 21
219.8889540197628776
 31
0.0
  0
MTEXT
  5
2FA
100
AcDbEntity
100
AcDbMText
  8
TEXTE
 62
7
370
-1
  6
CONTINUOUS
 10
56.8320158102766726
 20
148.7154150197628724
 30
0.0
 40
5.0
 41
100.0
 71
7
 72
2
  1
1
  7
ISO9
 50
0.0
 73
1
 44
1.0
  0
LINE
  5
2FB
100
AcDbEntity
100
AcDbLine
  8
FIN
 62
5
370
-1
  6
CONTINUOUS
 10
63.8320158102766726
 20
146.7154150197628724
 30
0.0
 11
69.9219808102766791
 21
201.9143770197628669
 31
0.0
  0
LINE
  5
2FC
100
AcDbEntity
100
AcDbLine
  8
FORT
 62
7
370
-1
  6
CONTINUOUS
 10
121.3490348102766774
 20
175.8889540197628776
 30
0.0
 11
121.3490348102766774
 21
202.8889540197628776
 31
0.0
  0
LINE
  5
2FD
100
AcDbEntity
100
AcDbLine
  8
FORT
 62
7
370
-1
  6
CONTINUOUS
 10
83.8320158102766726
 20
146.7154150197628724
 30
0.0
 11
93.8320158102766726
 21
146.7154150197628724
 31
0.0
  0
MTEXT
  5
2FE
100
AcDbEntity
100
AcDbMText
  8
TEXTE
 62
7
370
-1
  6
CONTINUOUS
 10
117.8320158102766726
 20
148.7154150197628724
 30
0.0
 40
5.0
 41
100.0
 71
7
 72
2
  1
6
  7
ISO9
 50
0.0
 73
1
 44
1.0
  0
MTEXT
  5
2FF
100
AcDbEntity
100
AcDbMText
  8
TEXTE
 62
7
370
-1
  6
CONTINUOUS
 10
87.8320158102766726
 20
148.7154150197628724
 30
0.0
 40
5.0
 41
100.0
 71
7
 72
2
  1
7
  7
ISO9
 50
0.0
 73
1
 44
1.0
  0
LINE
  5
300
100
AcDbEntity
100
AcDbLine
  8
FORT
 62
7
370
-1
  6
CONTINUOUS
 10
97.8490348102766774
 20
216.8889540197628776
 30
0.0
 11
101.8490348102766774
 21
210.8889540197628776
 31
0.0
  0
LINE
  5
301
100
AcDbEntity
100
AcDbLine
  8
FORT
 62
7
370
-1
  6
CONTINUOUS
 10
114.3490348102766774
 20
202.8889540197628776
 30
0.0
 11
114.3490348102766774
 21
215.8889540197628776
 31
0.0
  0
CIRCLE
  5
302
100
AcDbEntity
100
AcDbCircle
  8
FORT
 62
7
370
-1
  6
CONTINUOUS
 10
82.8490348102766774
 20
210.8889540197628776
 30
0.0
 40
6.0
  0
CIRCLE
  5
303
100
AcDbEntity
100
AcDbCircle
  8
FORT
 62
7
370
-1
  6
CONTINUOUS
 10
82.8490348102766774
 20
210.8889540197628776
 30
0.0
 40
7.5
  0
LWPOLYLINE
  5
304
  8
HACHURE
 62
5
370
-1
  6
CONTINUOUS
100
AcDbEntity
100
AcDbPolyline
 90
2
 70
1
 10
88.8490348102766774
 20
210.8889540197628776
 42
0.9999999999999999
 10
76.8490348102766774
 20
210.8889540197628776
 42
0.9999999999999999
  0
LWPOLYLINE
  5
305
  8
HACHURE
 62
5
370
-1
  6
CONTINUOUS
100
AcDbEntity
100
AcDbPolyline
 90
2
 70
1
 10
90.3490348102766774
 20
210.8889540197628776
 42
-0.9999999999999999
 10
75.3490348102766774
 20
210.8889540197628776
 42
-0.9999999999999999
  0
INSERT
  5
306
100
AcDbEntity
100
AcDbBlockReference
  8
HACHURE
 62
256
370
-1
  6
ByLayer
  2
DESENS-G8
 10
3.8320158102766726
 20
-3.2845849802371276
 30
0.0
  0
LINE
  5
307
100
AcDbEntity
100
AcDbLine
  8
FORT
 62
7
370
-1
  6
CONTINUOUS
 10
62.8490348102766703
 20
195.8889540197628776
 30
0.0
 11
121.3490348102766774
 21
195.8889540197628776
 31
0.0
  0
CIRCLE
  5
308
100
AcDbEntity
100
AcDbCircle
  8
FORT
 62
7
370
-1
  6
CONTINUOUS
 10
69.9219808102766791
 20
201.9143770197628669
 30
0.0
 40
0.25
  0
MTEXT
  5
309
100
AcDbEntity
100
AcDbMText
  8
TEXTE
 62
5
370
-1
  6
CONTINUOUS
 10
117.3787288102766695
 20
186.7154150197628724
 30
0.0
 40
3.5
 41
100.0
 71
7
 72
2
  1
A
  7
ISO9
 50
0.0
 73
1
 44
1.0
  0
LINE
  5
30A
100
AcDbEntity
100
AcDbLine
  8
FORT
 62
7
370
-1
  6
CONTINUOUS
 10
101.8490348102766774
 20
210.8889540197628776
 30
0.0
 11
114.3490348102766774
 21
210.8889540197628776
 31
0.0
  0
LINE
  5
30B
100
AcDbEntity
100
AcDbLine
  8
FORT
 62
7
370
-1
  6
CONTINUOUS
 10
112.8490348102766774
 20
202.8889540197628776
 30
0.0
 11
112.8490348102766774
 21
210.8889540197628776
 31
0.0
  0
LINE
  5
30C
100
AcDbEntity
100
AcDbLine
  8
FORT
 62
7
370
-1
  6
CONTINUOUS
 10
56.8490348102766703
 20
241.8889540197628776
 30
0.0
 11
62.8490348102766703
 21
241.8889540197628776
 31
0.0
  0
LINE
  5
30D
100
AcDbEntity
100
AcDbLine
  8
FORT
 62
7
370
-1
  6
CONTINUOUS
 10
53.8320158102766726
 20
266.7154150197628724
 30
0.0
 11
63.8320158102766726
 21
266.7154150197628724
 31
0.0
  0
MTEXT
  5
30E
100
AcDbEntity
100
AcDbMText
  8
TEXTE
 62
7
370
-1
  6
CONTINUOUS
 10
57.8320158102766726
 20
268.7154150197628724
 30
0.0
 40
5.0
 41
100.0
 71
7
 72
2
  1
3
  7
ISO9
 50
0.0
 73
1
 44
1.0
  0
LINE
  5
30F
100
AcDbEntity
100
AcDbLine
  8
FORT
 62
7
370
-1
  6
CONTINUOUS
 10
54.8490348102766703
 20
221.8889540197628776
 30
0.0
 11
54.8490348102766703
 21
229.3889540197628776
 31
0.0
  0
LINE
  5
310
100
AcDbEntity
100
AcDbLine
  8
FORT
 62
7
370
-1
  6
CONTINUOUS
 10
57.8490348102766703
 20
229.3889540197628776
 30
0.0
 11
57.8490348102766703
 21
232.3889540197628776
 31
0.0
  0
LINE
  5
311
100
AcDbEntity
100
AcDbLine
  8
FORT
 62
7
370
-1
  6
CONTINUOUS
 10
54.8490348102766703
 20
229.3889540197628776
 30
0.0
 11
57.8490348102766703
 21
229.3889540197628776
 31
0.0
  0
ARC
  5
312
100
AcDbEntity
  8
FORT
 62
7
370
-1
  6
CONTINUOUS
100
AcDbCircle
 10
56.8490348102766703
 20
239.8889540197628776
 30
0.0
 40
2.0
100
AcDbArc
 50
90.0
 51
180.0
  0
LINE
  5
313
100
AcDbEntity
100
AcDbLine
  8
FORT
 62
7
370
-1
  6
CONTINUOUS
 10
54.8490348102766703
 20
232.3889540197628776
 30
0.0
 11
57.8490348102766703
 21
232.3889540197628776
 31
0.0
  0
LINE
  5
314
100
AcDbEntity
100
AcDbLine
  8
FORT
 62
7
370
-1
  6
CONTINUOUS
 10
54.8490348102766703
 20
232.3889540197628776
 30
0.0
 11
54.8490348102766703
 21
239.8889540197628776
 31
0.0
  0
LINE
  5
315
100
AcDbEntity
100
AcDbLine
  8
FIN
 62
5
370
-1
  6
CONTINUOUS
 10
63.8320158102766726
 20
266.7154150197628724
 30
0.0
 11
86.763298810276666
 21
238.8544740197628755
 31
0.0
  0
LINE
  5
316
100
AcDbEntity
100
AcDbLine
  8
FORT
 62
7
370
-1
  6
CONTINUOUS
 10
62.8490348102766703
 20
223.3889540197628776
 30
0.0
 11
97.8490348102766774
 21
223.3889540197628776
 31
0.0
  0
LINE
  5
317
100
AcDbEntity
100
AcDbLine
  8
FORT
 62
7
370
-1
  6
CONTINUOUS
 10
62.8490348102766703
 20
238.3889540197628776
 30
0.0
 11
84.8490348102766774
 21
238.3889540197628776
 31
0.0
  0
LWPOLYLINE
  5
318
  8
HACHURE
 62
5
370
-1
  6
CONTINUOUS
100
AcDbEntity
100
AcDbPolyline
 90
6
 70
1
 10
84.8490348102766774
 20
243.8889540197628776
 10
67.8490348102766774
 20
243.8889540197628776
 10
67.8490348102766774
 20
245.8889540197628776
 10
62.8490348102766703
 20
245.8889540197628776
 10
62.8490348102766703
 20
238.3889540197628776
 10
84.8490348102766774
 20
238.3889540197628776
  0
INSERT
  5
319
100
AcDbEntity
100
AcDbBlockReference
  8
HACHURE
 62
256
370
-1
  6
ByLayer
  2
DESENS-G9
 10
3.8320158102766726
 20
-3.2845849802371276
 30
0.0
  0
LINE
  5
31A
100
AcDbEntity
100
AcDbLine
  8
FORT
 62
7
370
-1
  6
CONTINUOUS
 10
62.8490348102766703
 20
225.8889540197628776
 30
0.0
 11
69.8490348102766774
 21
225.8889540197628776
 31
0.0
  0
LINE
  5
31B
100
AcDbEntity
100
AcDbLine
  8
FORT
 62
7
370
-1
  6
CONTINUOUS
 10
62.8490348102766703
 20
235.8889540197628776
 30
0.0
 11
69.8490348102766774
 21
235.8889540197628776
 31
0.0
  0
LINE
  5
31C
100
AcDbEntity
100
AcDbLine
  8
FORT
 62
7
370
-1
  6
CONTINUOUS
 10
105.8490348102766774
 20
238.3889540197628776
 30
0.0
 11
105.8490348102766774
 21
223.3889540197628776
 31
0.0
  0
LINE
  5
31D
100
AcDbEntity
100
AcDbLine
  8
FORT
 62
7
370
-1
  6
CONTINUOUS
 10
92.8490348102766774
 20
223.3889540197628776
 30
0.0
 11
95.3490348102766774
 21
225.8889540197628776
 31
0.0
  0
LINE
  5
31E
100
AcDbEntity
100
AcDbLine
  8
FORT
 62
7
370
-1
  6
CONTINUOUS
 10
105.8490348102766774
 20
223.3889540197628776
 30
0.0
 11
103.3490348102766774
 21
225.8889540197628776
 31
0.0
  0
LINE
  5
31F
100
AcDbEntity
100
AcDbLine
  8
FORT
 62
7
370
-1
  6
CONTINUOUS
 10
69.8490348102766774
 20
223.3889540197628776
 30
0.0
 11
69.8490348102766774
 21
238.3889540197628776
 31
0.0
  0
LINE
  5
320
100
AcDbEntity
100
AcDbLine
  8
FORT
 62
7
370
-1
  6
CONTINUOUS
 10
92.8490348102766774
 20
238.3889540197628776
 30
0.0
 11
92.8490348102766774
 21
223.3889540197628776
 31
0.0
  0
LINE
  5
321
100
AcDbEntity
100
AcDbLine
  8
FORT
 62
7
370
-1
  6
CONTINUOUS
 10
84.8490348102766774
 20
223.3889540197628776
 30
0.0
 11
84.8490348102766774
 21
243.8889540197628776
 31
0.0
  0
LINE
  5
322
100
AcDbEntity
100
AcDbLine
  8
FORT
 62
7
370
-1
  6
CONTINUOUS
 10
88.8490348102766774
 20
223.3889540197628776
 30
0.0
 11
88.8490348102766774
 21
243.8889540197628776
 31
0.0
  0
LINE
  5
323
100
AcDbEntity
100
AcDbLine
  8
FORT
 62
7
370
-1
  6
CONTINUOUS
 10
67.8490348102766774
 20
243.8889540197628776
 30
0.0
 11
67.8490348102766774
 21
245.8889540197628776
 31
0.0
  0
LINE
  5
324
100
AcDbEntity
100
AcDbLine
  8
FORT
 62
7
370
-1
  6
CONTINUOUS
 10
95.3490348102766774
 20
235.8889540197628776
 30
0.0
 11
95.3490348102766774
 21
225.8889540197628776
 31
0.0
  0
LINE
  5
325
100
AcDbEntity
100
AcDbLine
  8
FORT
 62
7
370
-1
  6
CONTINUOUS
 10
103.3490348102766774
 20
225.8889540197628776
 30
0.0
 11
103.3490348102766774
 21
235.8889540197628776
 31
0.0
  0
LINE
  5
326
100
AcDbEntity
100
AcDbLine
  8
FORT
 62
7
370
-1
  6
CONTINUOUS
 10
95.3490348102766774
 20
225.8889540197628776
 30
0.0
 11
103.3490348102766774
 21
225.8889540197628776
 31
0.0
  0
LINE
  5
327
100
AcDbEntity
100
AcDbLine
  8
FORT
 62
7
370
-1
  6
CONTINUOUS
 10
97.8490348102766774
 20
243.8889540197628776
 30
0.0
 11
97.8490348102766774
 21
235.8889540197628776
 31
0.0
  0
LINE
  5
328
100
AcDbEntity
100
AcDbLine
  8
FORT
 62
7
370
-1
  6
CONTINUOUS
 10
92.8490348102766774
 20
238.3889540197628776
 30
0.0
 11
95.3490348102766774
 21
235.8889540197628776
 31
0.0
  0
LINE
  5
329
100
AcDbEntity
100
AcDbLine
  8
FORT
 62
7
370
-1
  6
CONTINUOUS
 10
88.8490348102766774
 20
238.3889540197628776
 30
0.0
 11
97.8490348102766774
 21
238.3889540197628776
 31
0.0
  0
LINE
  5
32A
100
AcDbEntity
100
AcDbLine
  8
FORT
 62
7
370
-1
  6
CONTINUOUS
 10
105.8490348102766774
 20
238.3889540197628776
 30
0.0
 11
103.3490348102766774
 21
235.8889540197628776
 31
0.0
  0
LINE
  5
32B
100
AcDbEntity
100
AcDbLine
  8
FORT
 62
7
370
-1
  6
CONTINUOUS
 10
95.3490348102766774
 20
235.8889540197628776
 30
0.0
 11
103.3490348102766774
 21
235.8889540197628776
 31
0.0
  0
LWPOLYLINE
  5
32C
  8
HACHURE
 62
5
370
-1
  6
CONTINUOUS
100
AcDbEntity
100
AcDbPolyline
 90
4
 70
1
 10
97.8490348102766774
 20
243.8889540197628776
 10
88.8490348102766774
 20
243.8889540197628776
 10
88.8490348102766774
 20
238.3889540197628776
 10
97.8490348102766774
 20
238.3889540197628776
  0
INSERT
  5
32D
100
AcDbEntity
100
AcDbBlockReference
  8
HACHURE
 62
256
370
-1
  6
ByLayer
  2
DESENS-G10
 10
3.8320158102766726
 20
-3.2845849802371276
 30
0.0
  0
LINE
  5
32E
100
AcDbEntity
100
AcDbLine
  8
FORT
 62
7
370
-1
  6
CONTINUOUS
 10
84.8490348102766774
 20
225.8889540197628776
 30
0.0
 11
88.8490348102766774
 21
225.8889540197628776
 31
0.0
  0
LINE
  5
32F
100
AcDbEntity
100
AcDbLine
  8
FORT
 62
7
370
-1
  6
CONTINUOUS
 10
84.8490348102766774
 20
235.8889540197628776
 30
0.0
 11
88.8490348102766774
 21
235.8889540197628776
 31
0.0
  0
LINE
  5
330
100
AcDbEntity
100
AcDbLine
  8
FORT
 62
7
370
-1
  6
CONTINUOUS
 10
84.8490348102766774
 20
242.8889540197628776
 30
0.0
 11
88.8490348102766774
 21
242.8889540197628776
 31
0.0
  0
LWPOLYLINE
  5
331
  8
HACHURE
 62
5
370
-1
  6
CONTINUOUS
100
AcDbEntity
100
AcDbPolyline
 90
4
 70
1
 10
88.8490348102766774
 20
242.8889540197628776
 10
84.8490348102766774
 20
242.8889540197628776
 10
84.8490348102766774
 20
235.8889540197628776
 10
88.8490348102766774
 20
235.8889540197628776
  0
INSERT
  5
332
100
AcDbEntity
100
AcDbBlockReference
  8
HACHURE
 62
256
370
-1
  6
ByLayer
  2
DESENS-G11
 10
3.8320158102766726
 20
-3.2845849802371276
 30
0.0
  0
CIRCLE
  5
333
100
AcDbEntity
100
AcDbCircle
  8
FORT
 62
7
370
-1
  6
CONTINUOUS
 10
86.763298810276666
 20
238.8544740197628755
 30
0.0
 40
0.25
  0
MTEXT
  5
334
100
AcDbEntity
100
AcDbMText
  8
TEXTE
 62
7
370
-1
  6
CONTINUOUS
 10
115.8320158102766726
 20
268.7154150197628724
 30
0.0
 40
5.0
 41
100.0
 71
7
 72
2
  1
10
  7
ISO9
 50
0.0
 73
1
 44
1.0
  0
LINE
  5
335
100
AcDbEntity
100
AcDbLine
  8
FORT
 62
7
370
-1
  6
CONTINUOUS
 10
83.8320158102766726
 20
266.7154150197628724
 30
0.0
 11
93.8320158102766726
 21
266.7154150197628724
 31
0.0
  0
MTEXT
  5
336
100
AcDbEntity
100
AcDbMText
  8
TEXTE
 62
7
370
-1
  6
CONTINUOUS
 10
87.8320158102766726
 20
268.7154150197628724
 30
0.0
 40
5.0
 41
100.0
 71
7
 72
2
  1
2
  7
ISO9
 50
0.0
 73
1
 44
1.0
  0
LWPOLYLINE
  5
337
  8
HACHURE
 62
5
370
-1
  6
CONTINUOUS
100
AcDbEntity
100
AcDbPolyline
 90
10
 70
1
 10
225.8490348102766916
 20
225.8889540197628776
 10
222.3490348102766916
 20
225.8889540197628776
 10
219.8490348102766916
 20
223.3889540197628776
 10
200.8490348102766916
 20
223.3889540197628776
 10
200.8490348102766916
 20
221.8889540197628776
 10
220.8490348102766916
 20
221.8889540197628776
 10
220.8490348102766916
 20
220.3889540197628776
 10
210.8490348102766916
 20
220.3846460197628687
 10
210.8490348102766916
 20
218.8889540197628776
 10
225.8490348102766916
 20
218.8889540197628776
  0
INSERT
  5
338
100
AcDbEntity
100
AcDbBlockReference
  8
HACHURE
 62
256
370
-1
  6
ByLayer
  2
DESENS-G12
 10
3.8320158102766726
 20
-3.2845849802371276
 30
0.0
  0
LINE
  5
339
100
AcDbEntity
100
AcDbLine
  8
FORT
 62
7
370
-1
  6
CONTINUOUS
 10
225.8490348102766916
 20
225.8889540197628776
 30
0.0
 11
225.8490348102766916
 21
218.8889540197628776
 31
0.0
  0
LINE
  5
33A
100
AcDbEntity
100
AcDbLine
  8
FORT
 62
7
370
-1
  6
CONTINUOUS
 10
227.8490348102766916
 20
216.8889540197628776
 30
0.0
 11
227.8490348102766916
 21
225.8889540197628776
 31
0.0
  0
LWPOLYLINE
  5
33B
  8
HACHURE
 62
5
370
-1
  6
CONTINUOUS
100
AcDbEntity
100
AcDbPolyline
 90
5
 70
1
 10
220.8490348102766916
 20
221.8889540197628776
 10
210.8490348102766916
 20
221.8889540197628776
 10
210.8490348102766916
 20
220.3846460197628687
 42
-0.0146799999999998
 10
210.9957368102766679
 20
220.3889540197628492
 10
220.8490348102766916
 20
220.3889540197628776
  0
INSERT
  5
33C
100
AcDbEntity
100
AcDbBlockReference
  8
HACHURE
 62
256
370
-1
  6
ByLayer
  2
DESENS-G13
 10
3.8320158102766726
 20
-3.2845849802371276
 30
0.0
  0
LINE
  5
33D
100
AcDbEntity
100
AcDbLine
  8
FORT
 62
7
370
-1
  6
CONTINUOUS
 10
200.8490348102766916
 20
218.8889540197628776
 30
0.0
 11
200.8490348102766916
 21
223.3889540197628776
 31
0.0
  0
LINE
  5
33E
100
AcDbEntity
100
AcDbLine
  8
FORT
 62
7
370
-1
  6
CONTINUOUS
 10
210.8490348102766916
 20
218.8889540197628776
 30
0.0
 11
210.8490348102766916
 21
221.8889540197628776
 31
0.0
  0
ARC
  5
33F
100
AcDbEntity
  8
FORT
 62
7
370
-1
  6
CONTINUOUS
100
AcDbCircle
 10
210.4992228102766489
 20
219.3889540197628776
 30
0.0
 40
2.5
100
AcDbArc
 50
90.0
 51
126.6299999999999812
  0
LINE
  5
340
100
AcDbEntity
100
AcDbLine
  8
FORT
 62
7
370
-1
  6
CONTINUOUS
 10
220.8490348102766916
 20
220.3889540197628776
 30
0.0
 11
220.8490348102766916
 21
221.8889540197628776
 31
0.0
  0
LINE
  5
341
100
AcDbEntity
100
AcDbLine
  8
FORT
 62
7
370
-1
  6
CONTINUOUS
 10
124.3490348102766774
 20
195.8889540197628776
 30
0.0
 11
201.3490348102766916
 21
195.8889540197628776
 31
0.0
  0
LWPOLYLINE
  5
342
  8
HACHURE
 62
5
370
-1
  6
CONTINUOUS
100
AcDbEntity
100
AcDbPolyline
 90
4
 70
1
 10
201.3490348102766916
 20
202.8889540197628776
 10
124.3490348102766774
 20
202.8889540197628776
 10
124.3490348102766774
 20
195.8889540197628776
 10
201.3490348102766916
 20
195.8889540197628776
  0
INSERT
  5
343
100
AcDbEntity
100
AcDbBlockReference
  8
HACHURE
 62
256
370
-1
  6
ByLayer
  2
DESENS-G14
 10
3.8320158102766726
 20
-3.2845849802371276
 30
0.0
  0
LINE
  5
344
100
AcDbEntity
100
AcDbLine
  8
FIN
 62
5
370
-1
  6
CONTINUOUS
 10
123.8320158102766726
 20
146.7154150197628724
 30
0.0
 11
147.3787288102766979
 21
208.9558990197628816
 31
0.0
  0
LINE
  5
345
100
AcDbEntity
100
AcDbLine
  8
FORT
 62
7
370
-1
  6
CONTINUOUS
 10
124.3490348102766774
 20
175.8889540197628776
 30
0.0
 11
124.3490348102766774
 21
202.8889540197628776
 31
0.0
  0
LINE
  5
346
100
AcDbEntity
100
AcDbLine
  8
FORT
 62
7
370
-1
  6
CONTINUOUS
 10
161.3490348102766916
 20
175.8889540197628776
 30
0.0
 11
161.3490348102766916
 21
195.8889540197628776
 31
0.0
  0
LINE
  5
347
100
AcDbEntity
100
AcDbLine
  8
FORT
 62
7
370
-1
  6
CONTINUOUS
 10
164.3490348102766916
 20
175.8889540197628776
 30
0.0
 11
164.3490348102766916
 21
195.8889540197628776
 31
0.0
  0
LINE
  5
348
100
AcDbEntity
100
AcDbLine
  8
FIN
 62
5
370
-1
  6
CONTINUOUS
 10
153.8320158102766868
 20
146.7154150197628724
 30
0.0
 11
162.8490348102766916
 21
184.9595180197628679
 31
0.0
  0
LINE
  5
349
100
AcDbEntity
100
AcDbLine
  8
FORT
 62
7
370
-1
  6
CONTINUOUS
 10
143.8320158102766868
 20
146.7154150197628724
 30
0.0
 11
153.8320158102766868
 21
146.7154150197628724
 31
0.0
  0
LINE
  5
34A
100
AcDbEntity
100
AcDbLine
  8
FORT
 62
7
370
-1
  6
CONTINUOUS
 10
161.3490348102766916
 20
175.8889540197628776
 30
0.0
 11
164.3490348102766916
 21
175.8889540197628776
 31
0.0
  0
ARC
  5
34B
100
AcDbEntity
  8
FORT
 62
7
370
-1
  6
CONTINUOUS
100
AcDbCircle
 10
162.8490348102766916
 20
177.1941010197628827
 30
0.0
 40
1.988318
100
AcDbArc
 50
221.0264650000000017
 51
318.9735350000000267
  0
MTEXT
  5
34C
100
AcDbEntity
100
AcDbMText
  8
TEXTE
 62
7
370
-1
  6
CONTINUOUS
 10
147.8320158102766868
 20
148.7154150197628724
 30
0.0
 40
5.0
 41
100.0
 71
7
 72
2
  1
9
  7
ISO9
 50
0.0
 73
1
 44
1.0
  0
CIRCLE
  5
34D
100
AcDbEntity
100
AcDbCircle
  8
FORT
 62
7
370
-1
  6
CONTINUOUS
 10
122.8490348102766774
 20
185.8678490197628719
 30
0.0
 40
0.25
  0
MTEXT
  5
34E
100
AcDbEntity
100
AcDbMText
  8
TEXTE
 62
5
370
-1
  6
CONTINUOUS
 10
157.4652338102766862
 20
186.7154150197628724
 30
0.0
 40
3.5
 41
100.0
 71
7
 72
2
  1
C
  7
ISO9
 50
0.0
 73
1
 44
1.0
  0
CIRCLE
  5
34F
100
AcDbEntity
100
AcDbCircle
  8
FORT
 62
7
370
-1
  6
CONTINUOUS
 10
162.8490348102766916
 20
184.9595180197628679
 30
0.0
 40
0.25
  0
CIRCLE
  5
350
100
AcDbEntity
100
AcDbCircle
  8
FORT
 62
7
370
-1
  6
CONTINUOUS
 10
147.3787288102766979
 20
208.9558990197628816
 30
0.0
 40
0.25
  0
LINE
  5
351
100
AcDbEntity
100
AcDbLine
  8
FIN
 62
5
370
-1
  6
CONTINUOUS
 10
233.8320158102766868
 20
146.7154150197628724
 30
0.0
 11
213.9198438102766886
 21
221.1811730197628663
 31
0.0
  0
LINE
  5
352
100
AcDbEntity
100
AcDbLine
  8
FORT
 62
7
370
-1
  6
CONTINUOUS
 10
201.3490348102766916
 20
175.8889540197628776
 30
0.0
 11
201.3490348102766916
 21
202.8889540197628776
 31
0.0
  0
LINE
  5
353
100
AcDbEntity
100
AcDbLine
  8
FORT
 62
7
370
-1
  6
CONTINUOUS
 10
204.3490348102766916
 20
175.8889540197628776
 30
0.0
 11
204.3490348102766916
 21
202.8889540197628776
 31
0.0
  0
LINE
  5
354
100
AcDbEntity
100
AcDbLine
  8
FORT
 62
7
370
-1
  6
CONTINUOUS
 10
233.8320158102766868
 20
146.7154150197628724
 30
0.0
 11
243.8320158102766868
 21
146.7154150197628724
 31
0.0
  0
LINE
  5
355
100
AcDbEntity
100
AcDbLine
  8
FORT
 62
7
370
-1
  6
CONTINUOUS
 10
202.8490348102766916
 20
163.5371920197628697
 30
0.0
 11
200.0490348102766802
 21
164.4705250197628743
 31
0.0
  0
LINE
  5
356
100
AcDbEntity
100
AcDbLine
  8
FORT
 62
7
370
-1
  6
CONTINUOUS
 10
202.8490348102766916
 20
163.5371920197628697
 30
0.0
 11
200.0490348102766802
 21
162.603859019762865
 31
0.0
  0
LINE
  5
357
100
AcDbEntity
100
AcDbLine
  8
FORT
 62
7
370
-1
  6
CONTINUOUS
 10
193.4304228102766956
 20
163.5371920197628697
 30
0.0
 11
202.8490348102766916
 21
163.5371920197628697
 31
0.0
  0
LINE
  5
358
100
AcDbEntity
100
AcDbLine
  8
FORT
 62
7
370
-1
  6
CONTINUOUS
 10
201.3490348102766916
 20
175.8889540197628776
 30
0.0
 11
204.3490348102766916
 21
175.8889540197628776
 31
0.0
  0
ARC
  5
359
100
AcDbEntity
  8
FORT
 62
7
370
-1
  6
CONTINUOUS
100
AcDbCircle
 10
202.8490348102766916
 20
177.1941010197628827
 30
0.0
 40
1.988318
100
AcDbArc
 50
221.0264650000000017
 51
318.9735350000000267
  0
MTEXT
  5
35A
100
AcDbEntity
100
AcDbMText
  8
TEXTE
 62
7
370
-1
  6
CONTINUOUS
 10
237.8320158102766868
 20
148.7154150197628724
 30
0.0
 40
5.0
 41
100.0
 71
7
 72
2
  1
5
  7
ISO9
 50
0.0
 73
1
 44
1.0
  0
MTEXT
  5
35B
100
AcDbEntity
100
AcDbMText
  8
TEXTE
 62
7
370
-1
  6
CONTINUOUS
 10
201.697773810276658
 20
151.813621019762877
 30
0.0
 40
5.0
 41
100.0
 71
7
 72
2
  1
B
  7
ISO9
 50
0.0
 73
1
 44
1.0
  0
LINE
  5
35C
100
AcDbEntity
100
AcDbLine
  8
FORT
 62
7
370
-1
  6
CONTINUOUS
 10
202.8490348102766916
 20
169.87052501976288
 30
0.0
 11
202.8490348102766916
 21
171.87052501976288
 31
0.0
  0
LINE
  5
35D
100
AcDbEntity
100
AcDbLine
  8
FORT
 62
7
370
-1
  6
CONTINUOUS
 10
202.8490348102766916
 20
158.87052501976288
 30
0.0
 11
202.8490348102766916
 21
168.87052501976288
 31
0.0
  0
LINE
  5
35E
100
AcDbEntity
100
AcDbLine
  8
FORT
 62
7
370
-1
  6
CONTINUOUS
 10
202.8490348102766916
 20
167.2038590197628594
 30
0.0
 11
202.8490348102766916
 21
158.87052501976288
 31
0.0
  0
LINE
  5
35F
100
AcDbEntity
100
AcDbLine
  8
FORT
 62
7
370
-1
  6
CONTINUOUS
 10
202.8490348102766916
 20
167.2038590197628594
 30
0.0
 11
202.8490348102766916
 21
158.87052501976288
 31
0.0
  0
LINE
  5
360
100
AcDbEntity
100
AcDbLine
  8
FORT
 62
7
370
-1
  6
CONTINUOUS
 10
202.8490348102766916
 20
172.87052501976288
 30
0.0
 11
202.8490348102766916
 21
177.87052501976288
 31
0.0
  0
LINE
  5
361
100
AcDbEntity
100
AcDbLine
  8
FORT
 62
7
370
-1
  6
CONTINUOUS
 10
211.3490348102766916
 20
202.8889540197628776
 30
0.0
 11
211.3490348102766916
 21
215.8889540197628776
 31
0.0
  0
LINE
  5
362
100
AcDbEntity
100
AcDbLine
  8
FORT
 62
7
370
-1
  6
CONTINUOUS
 10
223.8490348102766916
 20
210.8889540197628776
 30
0.0
 11
227.8490348102766916
 21
216.8889540197628776
 31
0.0
  0
MTEXT
  5
363
100
AcDbEntity
100
AcDbMText
  8
TEXTE
 62
5
370
-1
  6
CONTINUOUS
 10
197.7420508102766803
 20
186.7154150197628724
 30
0.0
 40
3.5
 41
100.0
 71
7
 72
2
  1
B
  7
ISO9
 50
0.0
 73
1
 44
1.0
  0
LINE
  5
364
100
AcDbEntity
100
AcDbLine
  8
FORT
 62
7
370
-1
  6
CONTINUOUS
 10
211.3490348102766916
 20
210.8889540197628776
 30
0.0
 11
223.8490348102766916
 21
210.8889540197628776
 31
0.0
  0
LINE
  5
365
100
AcDbEntity
100
AcDbLine
  8
FORT
 62
7
370
-1
  6
CONTINUOUS
 10
212.8490348102766916
 20
202.8889540197628776
 30
0.0
 11
212.8490348102766916
 21
210.8889540197628776
 31
0.0
  0
CIRCLE
  5
366
100
AcDbEntity
100
AcDbCircle
  8
FORT
 62
7
370
-1
  6
CONTINUOUS
 10
247.0734178102766805
 20
205.5671110197628764
 30
0.0
 40
0.25
  0
LINE
  5
367
100
AcDbEntity
100
AcDbLine
  8
FORT
 62
7
370
-1
  6
CONTINUOUS
 10
200.5199418102766913
 20
216.6789340197628633
 30
0.0
 11
201.414909810276697
 21
217.8826910197628592
 31
0.0
  0
LINE
  5
368
100
AcDbEntity
100
AcDbLine
  8
FORT
 62
7
370
-1
  6
CONTINUOUS
 10
200.5199418102766913
 20
216.6789340197628633
 30
0.0
 11
200.9183958102766496
 21
216.3826910197628592
 31
0.0
  0
LINE
  5
369
100
AcDbEntity
100
AcDbLine
  8
FORT
 62
7
370
-1
  6
CONTINUOUS
 10
208.1506708102766652
 20
218.8889540197628776
 30
0.0
 11
225.8490348102766916
 21
218.8889540197628776
 31
0.0
  0
LINE
  5
36A
100
AcDbEntity
100
AcDbLine
  8
FORT
 62
7
370
-1
  6
CONTINUOUS
 10
210.9957368102766964
 20
220.3889540197628776
 30
0.0
 11
220.8490348102766916
 21
220.3889540197628776
 31
0.0
  0
LINE
  5
36B
100
AcDbEntity
100
AcDbLine
  8
FORT
 62
7
370
-1
  6
CONTINUOUS
 10
204.7796738102766767
 20
216.3826910197628592
 30
0.0
 11
209.504123810276667
 21
219.8952170197628675
 31
0.0
  0
LINE
  5
36C
100
AcDbEntity
100
AcDbLine
  8
FORT
 62
7
370
-1
  6
CONTINUOUS
 10
204.2831598102766861
 20
217.8826910197628592
 30
0.0
 11
209.0076098102766764
 21
221.3952170197628675
 31
0.0
  0
ARC
  5
36D
100
AcDbEntity
  8
FORT
 62
7
370
-1
  6
CONTINUOUS
100
AcDbCircle
 10
203.2880608102766473
 20
218.3889540197628776
 30
0.0
 40
2.5
100
AcDbArc
 50
270.0
 51
306.6299999999999955
  0
ARC
  5
36E
100
AcDbEntity
  8
FORT
 62
7
370
-1
  6
CONTINUOUS
100
AcDbCircle
 10
202.7915468102766567
 20
219.8889540197628776
 30
0.0
 40
2.5
100
AcDbArc
 50
270.0
 51
306.6299999999999955
  0
ARC
  5
36F
100
AcDbEntity
  8
FORT
 62
7
370
-1
  6
CONTINUOUS
100
AcDbCircle
 10
202.9065228102766696
 20
219.8889540197628776
 30
0.0
 40
2.5
100
AcDbArc
 50
233.3699999999999761
 51
270.0
  0
ARC
  5
370
100
AcDbEntity
  8
FORT
 62
7
370
-1
  6
CONTINUOUS
100
AcDbCircle
 10
202.410008810276679
 20
218.3889540197628776
 30
0.0
 40
2.5
100
AcDbArc
 50
233.3699999999999761
 51
270.0
  0
LINE
  5
371
100
AcDbEntity
100
AcDbLine
  8
FORT
 62
7
370
-1
  6
CONTINUOUS
 10
200.8490348102766916
 20
218.8889540197628776
 30
0.0
 11
205.6366128102766879
 21
218.8889540197628776
 31
0.0
  0
ARC
  5
372
100
AcDbEntity
  8
FORT
 62
7
370
-1
  6
CONTINUOUS
100
AcDbCircle
 10
210.9957368102766964
 20
217.8889540197628776
 30
0.0
 40
2.5
100
AcDbArc
 50
90.0
 51
126.6299999999999812
  0
CIRCLE
  5
373
100
AcDbEntity
100
AcDbCircle
  8
FORT
 62
7
370
-1
  6
CONTINUOUS
 10
213.9198438102766886
 20
221.1811730197628663
 30
0.0
 40
0.25
  0
LINE
  5
374
100
AcDbEntity
100
AcDbLine
  8
FIN
 62
5
370
-1
  6
CONTINUOUS
 10
123.8320158102766726
 20
266.7154150197628724
 30
0.0
 11
134.4629948102766548
 21
244.878961019762869
 31
0.0
  0
CIRCLE
  5
375
100
AcDbEntity
100
AcDbCircle
  8
FORT
 62
7
370
-1
  6
CONTINUOUS
 10
134.4629948102766548
 20
244.878961019762869
 30
0.0
 40
0.25
  0
MTEXT
  5
376
100
AcDbEntity
100
AcDbMText
  8
TEXTE
 62
7
370
-1
  6
CONTINUOUS
 10
150.1501478102766782
 20
269.4840380197628633
 30
0.0
 40
5.0
 41
100.0
 71
7
 72
2
  1
A-A
  7
ISO9
 50
0.0
 73
1
 44
1.0
  0
LINE
  5
377
100
AcDbEntity
100
AcDbLine
  8
FIN
 62
5
370
-1
  6
CONTINUOUS
 10
233.8320158102766868
 20
266.7154150197628724
 30
0.0
 11
216.6761588102766609
 21
240.0133790197628798
 31
0.0
  0
LINE
  5
378
100
AcDbEntity
100
AcDbLine
  8
FORT
 62
7
370
-1
  6
CONTINUOUS
 10
202.8490348102766916
 20
259.66872501976286
 30
0.0
 11
200.0490348102766802
 21
260.6020580197628647
 31
0.0
  0
LINE
  5
379
100
AcDbEntity
100
AcDbLine
  8
FORT
 62
7
370
-1
  6
CONTINUOUS
 10
202.8490348102766916
 20
256.0020580197628988
 30
0.0
 11
202.8490348102766916
 21
264.3353920197628781
 31
0.0
  0
LINE
  5
37A
100
AcDbEntity
100
AcDbLine
  8
FORT
 62
7
370
-1
  6
CONTINUOUS
 10
202.8490348102766916
 20
256.0020580197628988
 30
0.0
 11
202.8490348102766916
 21
264.3353920197628781
 31
0.0
  0
LINE
  5
37B
100
AcDbEntity
100
AcDbLine
  8
FORT
 62
7
370
-1
  6
CONTINUOUS
 10
202.8490348102766916
 20
264.3353920197628781
 30
0.0
 11
202.8490348102766916
 21
254.3353920197628781
 31
0.0
  0
LINE
  5
37C
100
AcDbEntity
100
AcDbLine
  8
FORT
 62
7
370
-1
  6
CONTINUOUS
 10
202.8490348102766916
 20
253.3353920197628781
 30
0.0
 11
202.8490348102766916
 21
251.3353920197628781
 31
0.0
  0
LINE
  5
37D
100
AcDbEntity
100
AcDbLine
  8
FORT
 62
7
370
-1
  6
CONTINUOUS
 10
219.8490348102766916
 20
238.3889540197628776
 30
0.0
 11
219.8490348102766916
 21
223.3889540197628776
 31
0.0
  0
LINE
  5
37E
100
AcDbEntity
100
AcDbLine
  8
FORT
 62
7
370
-1
  6
CONTINUOUS
 10
219.8490348102766916
 20
223.3889540197628776
 30
0.0
 11
222.3490348102766916
 21
225.8889540197628776
 31
0.0
  0
LINE
  5
37F
100
AcDbEntity
100
AcDbLine
  8
FORT
 62
7
370
-1
  6
CONTINUOUS
 10
200.8490348102766916
 20
221.8889540197628776
 30
0.0
 11
220.8490348102766916
 21
221.8889540197628776
 31
0.0
  0
LINE
  5
380
100
AcDbEntity
100
AcDbLine
  8
FORT
 62
7
370
-1
  6
CONTINUOUS
 10
222.3490348102766916
 20
235.8889540197628776
 30
0.0
 11
222.3490348102766916
 21
225.8889540197628776
 31
0.0
  0
LINE
  5
381
100
AcDbEntity
100
AcDbLine
  8
FORT
 62
7
370
-1
  6
CONTINUOUS
 10
247.8490348102766916
 20
225.8889540197628776
 30
0.0
 11
247.8490348102766916
 21
235.8889540197628776
 31
0.0
  0
LINE
  5
382
100
AcDbEntity
100
AcDbLine
  8
FORT
 62
7
370
-1
  6
CONTINUOUS
 10
242.8490348102766916
 20
225.8889540197628776
 30
0.0
 11
242.8490348102766916
 21
235.8889540197628776
 31
0.0
  0
LINE
  5
383
100
AcDbEntity
100
AcDbLine
  8
FORT
 62
7
370
-1
  6
CONTINUOUS
 10
244.8490348102766916
 20
227.8889540197628776
 30
0.0
 11
244.8490348102766916
 21
233.8889540197628776
 31
0.0
  0
LINE
  5
384
100
AcDbEntity
100
AcDbLine
  8
FORT
 62
7
370
-1
  6
CONTINUOUS
 10
222.3490348102766916
 20
225.8889540197628776
 30
0.0
 11
247.8490348102766916
 21
225.8889540197628776
 31
0.0
  0
LINE
  5
385
100
AcDbEntity
100
AcDbLine
  8
FORT
 62
7
370
-1
  6
CONTINUOUS
 10
242.8490348102766916
 20
225.8889540197628776
 30
0.0
 11
244.8490348102766916
 21
227.8889540197628776
 31
0.0
  0
LINE
  5
386
100
AcDbEntity
100
AcDbLine
  8
FORT
 62
7
370
-1
  6
CONTINUOUS
 10
200.8490348102766916
 20
241.8889540197628776
 30
0.0
 11
225.8490348102766916
 21
241.8889540197628776
 31
0.0
  0
LWPOLYLINE
  5
387
  8
HACHURE
 62
5
370
-1
  6
CONTINUOUS
100
AcDbEntity
100
AcDbPolyline
 90
6
 70
1
 10
225.8490348102766916
 20
241.8889540197628776
 10
200.8490348102766916
 20
241.8889540197628776
 10
200.8490348102766916
 20
238.3889540197628776
 10
219.8490348102766916
 20
238.3889540197628776
 10
222.3490348102766916
 20
235.8889540197628776
 10
225.8490348102766916
 20
235.8889540197628776
  0
INSERT
  5
388
100
AcDbEntity
100
AcDbBlockReference
  8
HACHURE
 62
256
370
-1
  6
ByLayer
  2
DESENS-G15
 10
3.8320158102766726
 20
-3.2845849802371276
 30
0.0
  0
LINE
  5
389
100
AcDbEntity
100
AcDbLine
  8
FORT
 62
7
370
-1
  6
CONTINUOUS
 10
200.8490348102766916
 20
238.3889540197628776
 30
0.0
 11
200.8490348102766916
 21
241.8889540197628776
 31
0.0
  0
LINE
  5
38A
100
AcDbEntity
100
AcDbLine
  8
FORT
 62
7
370
-1
  6
CONTINUOUS
 10
222.3490348102766916
 20
235.8889540197628776
 30
0.0
 11
247.8490348102766916
 21
235.8889540197628776
 31
0.0
  0
LINE
  5
38B
100
AcDbEntity
100
AcDbLine
  8
FORT
 62
7
370
-1
  6
CONTINUOUS
 10
227.8490348102766916
 20
243.8889540197628776
 30
0.0
 11
227.8490348102766916
 21
235.8889540197628776
 31
0.0
  0
LINE
  5
38C
100
AcDbEntity
100
AcDbLine
  8
FORT
 62
7
370
-1
  6
CONTINUOUS
 10
219.8490348102766916
 20
238.3889540197628776
 30
0.0
 11
222.3490348102766916
 21
235.8889540197628776
 31
0.0
  0
LINE
  5
38D
100
AcDbEntity
100
AcDbLine
  8
FORT
 62
7
370
-1
  6
CONTINUOUS
 10
225.8490348102766916
 20
235.8889540197628776
 30
0.0
 11
225.8490348102766916
 21
241.8889540197628776
 31
0.0
  0
LINE
  5
38E
100
AcDbEntity
100
AcDbLine
  8
FORT
 62
7
370
-1
  6
CONTINUOUS
 10
242.8490348102766916
 20
235.8889540197628776
 30
0.0
 11
244.8490348102766916
 21
233.8889540197628776
 31
0.0
  0
CIRCLE
  5
38F
100
AcDbEntity
100
AcDbCircle
  8
FORT
 62
7
370
-1
  6
CONTINUOUS
 10
216.6761588102766609
 20
240.0133790197628798
 30
0.0
 40
0.25
  0
LINE
  5
390
100
AcDbEntity
100
AcDbLine
  8
FORT
 62
7
370
-1
  6
CONTINUOUS
 10
202.8490348102766916
 20
250.3353920197628781
 30
0.0
 11
202.8490348102766916
 21
245.3353920197628781
 31
0.0
  0
LINE
  5
391
100
AcDbEntity
100
AcDbLine
  8
FIN
 62
5
370
-1
  6
CONTINUOUS
 10
219.8490348102766916
 20
223.3889540197628776
 30
0.0
 11
225.8490348102766916
 21
223.3889540197628776
 31
0.0
  0
LINE
  5
392
100
AcDbEntity
100
AcDbLine
  8
FIN
 62
5
370
-1
  6
CONTINUOUS
 10
219.8490348102766916
 20
238.3889540197628776
 30
0.0
 11
225.8490348102766916
 21
238.3889540197628776
 31
0.0
  0
LINE
  5
393
100
AcDbEntity
100
AcDbLine
  8
FORT
 62
7
370
-1
  6
CONTINUOUS
 10
193.4304228102766956
 20
259.66872501976286
 30
0.0
 11
202.8490348102766916
 21
259.66872501976286
 31
0.0
  0
LINE
  5
394
100
AcDbEntity
100
AcDbLine
  8
FORT
 62
7
370
-1
  6
CONTINUOUS
 10
202.8490348102766916
 20
259.66872501976286
 30
0.0
 11
200.0490348102766802
 21
258.7353920197628554
 31
0.0
  0
LINE
  5
395
100
AcDbEntity
100
AcDbLine
  8
FORT
 62
7
370
-1
  6
CONTINUOUS
 10
233.8320158102766868
 20
266.7154150197628724
 30
0.0
 11
243.8320158102766868
 21
266.7154150197628724
 31
0.0
  0
MTEXT
  5
396
100
AcDbEntity
100
AcDbMText
  8
TEXTE
 62
7
370
-1
  6
CONTINUOUS
 10
237.8320158102766868
 20
268.7154150197628724
 30
0.0
 40
5.0
 41
100.0
 71
7
 72
2
  1
4
  7
ISO9
 50
0.0
 73
1
 44
1.0
  0
MTEXT
  5
397
100
AcDbEntity
100
AcDbMText
  8
TEXTE
 62
7
370
-1
  6
CONTINUOUS
 10
201.697773810276658
 20
266.3922960197628527
 30
0.0
 40
5.0
 41
100.0
 71
7
 72
2
  1
B
  7
ISO9
 50
0.0
 73
1
 44
1.0
  0
LINE
  5
398
100
AcDbEntity
100
AcDbLine
  8
FORT
 62
7
370
-1
  6
CONTINUOUS
 10
257.8490348102766916
 20
61.6473160197628687
 30
0.0
 11
257.8490348102766916
 21
101.6473160197628687
 31
0.0
  0
LINE
  5
399
100
AcDbEntity
100
AcDbLine
  8
FORT
 62
7
370
-1
  6
CONTINUOUS
 10
262.8490348102766916
 20
61.6473160197628687
 30
0.0
 11
262.8490348102766916
 21
101.6473160197628687
 31
0.0
  0
LINE
  5
39A
100
AcDbEntity
100
AcDbLine
  8
FORT
 62
7
370
-1
  6
CONTINUOUS
 10
262.8490348102766916
 20
195.8889540197628776
 30
0.0
 11
262.8490348102766916
 21
245.8889540197628776
 31
0.0
  0
LWPOLYLINE
  5
39B
  8
HACHURE
 62
5
370
-1
  6
CONTINUOUS
100
AcDbEntity
100
AcDbPolyline
 90
8
 70
1
 10
318.7771858102767055
 20
243.8889540197628776
 10
354.7771858102767055
 20
243.8889540197628776
 10
354.7771858102767055
 20
200.8889540197628776
 10
356.7771858102767055
 20
200.8889540197628776
 10
356.7771858102767055
 20
245.8889540197628776
 10
316.7771858102767055
 20
245.8889540197628776
 10
316.7771858102767055
 20
200.8889540197628776
 10
318.7771858102767055
 20
200.8889540197628776
  0
INSERT
  5
39C
100
AcDbEntity
100
AcDbBlockReference
  8
HACHURE
 62
256
370
-1
  6
ByLayer
  2
DESENS-G16
 10
3.8320158102766726
 20
-3.2845849802371276
 30
0.0
  0
LINE
  5
39D
100
AcDbEntity
100
AcDbLine
  8
FORT
 62
7
370
-1
  6
CONTINUOUS
 10
316.7771858102767055
 20
195.8889540197628776
 30
0.0
 11
316.7771858102767055
 21
245.8889540197628776
 31
0.0
  0
LINE
  5
39E
100
AcDbEntity
100
AcDbLine
  8
FORT
 62
7
370
-1
  6
CONTINUOUS
 10
318.7771858102767055
 20
200.8889540197628776
 30
0.0
 11
318.7771858102767055
 21
243.8889540197628776
 31
0.0
  0
LINE
  5
39F
100
AcDbEntity
100
AcDbLine
  8
FORT
 62
7
370
-1
  6
CONTINUOUS
 10
354.7771858102767055
 20
243.8889540197628776
 30
0.0
 11
354.7771858102767055
 21
200.8889540197628776
 31
0.0
  0
LINE
  5
3A0
100
AcDbEntity
100
AcDbLine
  8
FORT
 62
7
370
-1
  6
CONTINUOUS
 10
356.7771858102767055
 20
245.8889540197628776
 30
0.0
 11
356.7771858102767055
 21
195.8889540197628776
 31
0.0
  0
LWPOLYLINE
  5
3A1
  8
HACHURE
 62
5
370
-1
  6
CONTINUOUS
100
AcDbEntity
100
AcDbPolyline
 90
2
 70
1
 10
344.2771858102767055
 20
230.8889540197628776
 42
0.9999999999999999
 10
329.2771858102767055
 20
230.8889540197628776
 42
0.9999999999999999
  0
LWPOLYLINE
  5
3A2
  8
HACHURE
 62
5
370
-1
  6
CONTINUOUS
100
AcDbEntity
100
AcDbPolyline
 90
8
 70
1
 10
352.7771858102767055
 20
241.8889540197628776
 10
320.7771858102767055
 20
241.8889540197628776
 10
320.7771858102767055
 20
218.8889540197628776
 10
325.7771858102767055
 20
218.8889540197628776
 10
325.7771858102767055
 20
221.8889540197628776
 10
347.7771858102767055
 20
221.8889540197628776
 10
347.7771858102767055
 20
218.8889540197628776
 10
352.7771858102767055
 20
218.8889540197628776
  0
INSERT
  5
3A3
100
AcDbEntity
100
AcDbBlockReference
  8
HACHURE
 62
256
370
-1
  6
ByLayer
  2
DESENS-G17
 10
3.8320158102766726
 20
-3.2845849802371276
 30
0.0
  0
LINE
  5
3A4
100
AcDbEntity
100
AcDbLine
  8
FORT
 62
7
370
-1
  6
CONTINUOUS
 10
320.7771858102767055
 20
218.8889540197628776
 30
0.0
 11
320.7771858102767055
 21
241.8889540197628776
 31
0.0
  0
LINE
  5
3A5
100
AcDbEntity
100
AcDbLine
  8
FORT
 62
7
370
-1
  6
CONTINUOUS
 10
352.7771858102767055
 20
218.8889540197628776
 30
0.0
 11
352.7771858102767055
 21
241.8889540197628776
 31
0.0
  0
ARC
  5
3A6
100
AcDbEntity
  8
FORT
 62
7
370
-1
  6
CONTINUOUS
100
AcDbCircle
 10
316.57718581027666
 20
220.0889540197628662
 30
0.0
 40
1.8
100
AcDbArc
 50
90.0
 51
180.0
  0
LINE
  5
3A7
100
AcDbEntity
100
AcDbLine
  8
FORT
 62
7
370
-1
  6
CONTINUOUS
 10
325.7771858102767055
 20
215.8889540197628776
 30
0.0
 11
325.7771858102767055
 21
221.8889540197628776
 31
0.0
  0
LINE
  5
3A8
100
AcDbEntity
100
AcDbLine
  8
FORT
 62
7
370
-1
  6
CONTINUOUS
 10
329.7771858102767055
 20
215.8889540197628776
 30
0.0
 11
329.7771858102767055
 21
221.8889540197628776
 31
0.0
  0
LINE
  5
3A9
100
AcDbEntity
100
AcDbLine
  8
FORT
 62
7
370
-1
  6
CONTINUOUS
 10
343.7771858102767055
 20
215.8889540197628776
 30
0.0
 11
343.7771858102767055
 21
221.8889540197628776
 31
0.0
  0
LINE
  5
3AA
100
AcDbEntity
100
AcDbLine
  8
FORT
 62
7
370
-1
  6
CONTINUOUS
 10
347.7771858102767055
 20
215.8889540197628776
 30
0.0
 11
347.7771858102767055
 21
221.8889540197628776
 31
0.0
  0
ARC
  5
3AB
100
AcDbEntity
  8
FORT
 62
7
370
-1
  6
CONTINUOUS
100
AcDbCircle
 10
356.9771858102766942
 20
220.0889540197628662
 30
0.0
 40
1.8
100
AcDbArc
 50
0.0
 51
90.0
  0
LINE
  5
3AC
100
AcDbEntity
100
AcDbLine
  8
FORT
 62
7
370
-1
  6
CONTINUOUS
 10
345.7771858102767055
 20
216.7858750197628694
 30
0.0
 11
345.7771858102767055
 21
222.7116190197628782
 31
0.0
  0
LINE
  5
3AD
100
AcDbEntity
100
AcDbLine
  8
FIN
 62
5
370
-1
  6
CONTINUOUS
 10
303.8320158102766868
 20
146.7154150197628724
 30
0.0
 11
326.3222758102766647
 21
203.5735490197628792
 31
0.0
  0
LINE
  5
3AE
100
AcDbEntity
100
AcDbLine
  8
FORT
 62
7
370
-1
  6
CONTINUOUS
 10
263.8320158102766868
 20
146.7154150197628724
 30
0.0
 11
273.8320158102766868
 21
146.7154150197628724
 31
0.0
  0
LINE
  5
3AF
100
AcDbEntity
100
AcDbLine
  8
FORT
 62
7
370
-1
  6
CONTINUOUS
 10
293.8320158102766868
 20
146.7154150197628724
 30
0.0
 11
303.8320158102766868
 21
146.7154150197628724
 31
0.0
  0
MTEXT
  5
3B0
100
AcDbEntity
100
AcDbMText
  8
TEXTE
 62
7
370
-1
  6
CONTINUOUS
 10
266.8320158102766868
 20
148.7154150197628724
 30
0.0
 40
5.0
 41
100.0
 71
7
 72
2
  1
11
  7
ISO9
 50
0.0
 73
1
 44
1.0
  0
MTEXT
  5
3B1
100
AcDbEntity
100
AcDbMText
  8
TEXTE
 62
7
370
-1
  6
CONTINUOUS
 10
297.8320158102766868
 20
148.7154150197628724
 30
0.0
 40
5.0
 41
100.0
 71
7
 72
2
  1
8
  7
ISO9
 50
0.0
 73
1
 44
1.0
  0
LINE
  5
3B2
100
AcDbEntity
100
AcDbLine
  8
FORT
 62
7
370
-1
  6
CONTINUOUS
 10
347.3771858102766714
 20
175.8889540197628776
 30
0.0
 11
347.3771858102766714
 21
202.8889540197628776
 31
0.0
  0
LINE
  5
3B3
100
AcDbEntity
100
AcDbLine
  8
FORT
 62
7
370
-1
  6
CONTINUOUS
 10
344.3771858102766714
 20
175.8889540197628776
 30
0.0
 11
344.3771858102766714
 21
202.8889540197628776
 31
0.0
  0
LINE
  5
3B4
100
AcDbEntity
100
AcDbLine
  8
FORT
 62
7
370
-1
  6
CONTINUOUS
 10
344.3771858102766714
 20
175.8889540197628776
 30
0.0
 11
347.3771858102766714
 21
175.8889540197628776
 31
0.0
  0
ARC
  5
3B5
100
AcDbEntity
  8
FORT
 62
7
370
-1
  6
CONTINUOUS
100
AcDbCircle
 10
345.8771858102766714
 20
177.1941010197628827
 30
0.0
 40
1.988318
100
AcDbArc
 50
221.0264650000000017
 51
318.9735350000000267
  0
LINE
  5
3B6
100
AcDbEntity
100
AcDbLine
  8
FORT
 62
7
370
-1
  6
CONTINUOUS
 10
345.7771858102767055
 20
163.5371920197628697
 30
0.0
 11
348.57718581027666
 21
164.4705250197628743
 31
0.0
  0
LINE
  5
3B7
100
AcDbEntity
100
AcDbLine
  8
FORT
 62
7
370
-1
  6
CONTINUOUS
 10
345.7771858102767055
 20
163.5371920197628697
 30
0.0
 11
348.57718581027666
 21
162.603859019762865
 31
0.0
  0
LINE
  5
3B8
100
AcDbEntity
100
AcDbLine
  8
FORT
 62
7
370
-1
  6
CONTINUOUS
 10
355.195796810276704
 20
163.5371920197628697
 30
0.0
 11
345.7771858102767055
 21
163.5371920197628697
 31
0.0
  0
LINE
  5
3B9
100
AcDbEntity
100
AcDbLine
  8
FORT
 62
7
370
-1
  6
CONTINUOUS
 10
345.7771858102767055
 20
169.87052501976288
 30
0.0
 11
345.7771858102767055
 21
171.87052501976288
 31
0.0
  0
LINE
  5
3BA
100
AcDbEntity
100
AcDbLine
  8
FORT
 62
7
370
-1
  6
CONTINUOUS
 10
345.7771858102767055
 20
158.87052501976288
 30
0.0
 11
345.7771858102767055
 21
168.87052501976288
 31
0.0
  0
LINE
  5
3BB
100
AcDbEntity
100
AcDbLine
  8
FORT
 62
7
370
-1
  6
CONTINUOUS
 10
345.7771858102767055
 20
167.2038590197628594
 30
0.0
 11
345.7771858102767055
 21
158.87052501976288
 31
0.0
  0
LINE
  5
3BC
100
AcDbEntity
100
AcDbLine
  8
FORT
 62
7
370
-1
  6
CONTINUOUS
 10
345.7771858102767055
 20
167.2038590197628594
 30
0.0
 11
345.7771858102767055
 21
158.87052501976288
 31
0.0
  0
LINE
  5
3BD
100
AcDbEntity
100
AcDbLine
  8
FORT
 62
7
370
-1
  6
CONTINUOUS
 10
345.7771858102767055
 20
172.87052501976288
 30
0.0
 11
345.7771858102767055
 21
177.87052501976288
 31
0.0
  0
MTEXT
  5
3BE
100
AcDbEntity
100
AcDbMText
  8
TEXTE
 62
7
370
-1
  6
CONTINUOUS
 10
344.1828418102766705
 20
151.9319400197628624
 30
0.0
 40
5.0
 41
100.0
 71
7
 72
2
  1
A
  7
ISO9
 50
0.0
 73
1
 44
1.0
  0
LWPOLYLINE
  5
3BF
  8
HACHURE
 62
5
370
-1
  6
CONTINUOUS
100
AcDbEntity
100
AcDbPolyline
 90
20
 70
1
 10
326.781794810276665
 20
213.7095670197628863
 42
-0.3215460000000041
 10
327.7290048102767059
 20
214.3889540197628776
 10
327.8253658102767076
 20
214.3889540197628776
 42
-0.3215460000000058
 10
328.7725768102767461
 20
213.7095670197629147
 10
330.3563698102767034
 20
209.030450019762867
 10
331.7771858102767055
 20
209.5113700197628646
 10
330.1933918102766938
 20
214.1904870197628838
 42
0.3215459999999971
 10
327.8253658102767076
 20
215.8889540197628776
 10
327.7290048102767059
 20
215.8889540197628776
 42
0.3215459999999971
 10
325.3609788102767197
 20
214.1904870197628554
 10
323.9091598102766625
 20
209.9012710197628735
 42
0.0817759999933221
 10
323.7771858102767624
 20
209.0997390198291725
 10
323.7771858102767055
 20
205.3889540197628776
 42
0.4142140000360066
 10
326.2771858102767055
 20
202.8889540197628776
 10
331.7771858102767055
 20
202.8889540197628776
 10
331.7771858102767055
 20
204.3889540197628776
 10
326.2771858102767055
 20
204.3889540197628776
 42
-0.4142140000192108
 10
325.2771858102767055
 20
205.3889540198284465
 10
325.2771858102767055
 20
208.8527600197628828
 42
-0.0817759999875169
 10
325.4091598102766056
 20
209.6542920197628916
  0
INSERT
  5
3C0
100
AcDbEntity
100
AcDbBlockReference
  8
HACHURE
 62
256
370
-1
  6
ByLayer
  2
DESENS-G18
 10
3.8320158102766726
 20
-3.2845849802371276
 30
0.0
  0
ARC
  5
3C1
100
AcDbEntity
  8
FORT
 62
7
370
-1
  6
CONTINUOUS
100
AcDbCircle
 10
327.7290048102767059
 20
213.3889540197628776
 30
0.0
 40
2.5
100
AcDbArc
 50
90.0
 51
161.3000000000000114
  0
LINE
  5
3C2
100
AcDbEntity
100
AcDbLine
  8
FORT
 62
7
370
-1
  6
CONTINUOUS
 10
314.7771858102767055
 20
201.6889540197628605
 30
0.0
 11
314.7771858102767055
 21
220.0889540197628662
 31
0.0
  0
ARC
  5
3C3
100
AcDbEntity
  8
FORT
 62
7
370
-1
  6
CONTINUOUS
100
AcDbCircle
 10
327.8253658102767076
 20
213.3889540197628776
 30
0.0
 40
2.5
100
AcDbArc
 50
18.6999999999999993
 51
90.0
  0
LINE
  5
3C4
100
AcDbEntity
100
AcDbLine
  8
FORT
 62
7
370
-1
  6
CONTINUOUS
 10
358.7771858102767055
 20
201.6889540197628605
 30
0.0
 11
358.7771858102767055
 21
220.0889540197628662
 31
0.0
  0
ARC
  5
3C5
100
AcDbEntity
  8
FORT
 62
7
370
-1
  6
CONTINUOUS
100
AcDbCircle
 10
345.6771858102766828
 20
211.9889540197628719
 30
0.0
 40
3.8999999999999999
100
AcDbArc
 50
90.0
 51
180.0
  0
ARC
  5
3C6
100
AcDbEntity
  8
FORT
 62
7
370
-1
  6
CONTINUOUS
100
AcDbCircle
 10
345.8771858102766714
 20
211.9889540197628719
 30
0.0
 40
3.8999999999999999
100
AcDbArc
 50
0.0
 51
90.0
  0
LWPOLYLINE
  5
3C7
  8
HACHURE
 62
5
370
-1
  6
CONTINUOUS
100
AcDbEntity
100
AcDbPolyline
 90
8
 70
1
 10
345.8771858102766714
 20
214.3889540197628776
 10
345.6771858102766828
 20
214.3889540197628776
 42
0.414213999975674
 10
343.2771858102767055
 20
211.9889540199621649
 10
343.2771858102767055
 20
206.7889540197628833
 42
0.4142139999543911
 10
345.6771858102766828
 20
204.3889540197628492
 10
345.8771858102766714
 20
204.3889540197628776
 42
0.414213999975674
 10
348.2771858102766487
 20
206.7889540195635902
 10
348.2771858102767055
 20
211.9889540197628719
 42
0.414213999954391
  0
LWPOLYLINE
  5
3C8
  8
HACHURE
 62
5
370
-1
  6
CONTINUOUS
100
AcDbEntity
100
AcDbPolyline
 90
8
 70
1
 10
345.8771858102766714
 20
215.8889540197628776
 10
345.6771858102766828
 20
215.8889540197628776
 42
0.4142140000192049
 10
341.7771858102767055
 20
211.9889540195071902
 10
341.7771858102767055
 20
206.7889540197628833
 42
0.4142140000360034
 10
345.6771858102766828
 20
202.8889540197628492
 10
345.8771858102766714
 20
202.8889540197628776
 42
0.4142140000192092
 10
349.7771858102767624
 20
206.7889540200185934
 10
349.7771858102767055
 20
211.9889540197628719
 42
0.4142140000360034
  0
INSERT
  5
3C9
100
AcDbEntity
100
AcDbBlockReference
  8
HACHURE
 62
256
370
-1
  6
ByLayer
  2
DESENS-G19
 10
3.8320158102766726
 20
-3.2845849802371276
 30
0.0
  0
LINE
  5
3CA
100
AcDbEntity
100
AcDbLine
  8
FORT
 62
7
370
-1
  6
CONTINUOUS
 10
316.7771858102767055
 20
195.8889540197628776
 30
0.0
 11
344.3771858102766714
 21
195.8889540197628776
 31
0.0
  0
LWPOLYLINE
  5
3CB
  8
HACHURE
 62
5
370
-1
  6
CONTINUOUS
100
AcDbEntity
100
AcDbPolyline
 90
12
 70
1
 10
344.3771858102766714
 20
202.8889540197628776
 10
340.7771858102767055
 20
202.8889540197628776
 10
340.7771858102767055
 20
210.8889540197628776
 10
332.7771858102767055
 20
210.8889540197628776
 10
332.7771858102767055
 20
202.8889540197628776
 10
322.7771858102767055
 20
202.8889540197628776
 10
322.7771858102767055
 20
210.8889540197628776
 10
318.7771858102767055
 20
210.8889540197628776
 10
318.7771858102767055
 20
200.8889540197628776
 10
316.7771858102767055
 20
200.8889540197628776
 10
316.7771858102767055
 20
195.8889540197628776
 10
344.3771858102766714
 20
195.8889540197628776
  0
INSERT
  5
3CC
100
AcDbEntity
100
AcDbBlockReference
  8
HACHURE
 62
256
370
-1
  6
ByLayer
  2
DESENS-G20
 10
3.8320158102766726
 20
-3.2845849802371276
 30
0.0
  0
LINE
  5
3CD
100
AcDbEntity
100
AcDbLine
  8
FORT
 62
7
370
-1
  6
CONTINUOUS
 10
322.7771858102767055
 20
202.8889540197628776
 30
0.0
 11
332.7771858102767055
 21
202.8889540197628776
 31
0.0
  0
LINE
  5
3CE
100
AcDbEntity
100
AcDbLine
  8
FORT
 62
7
370
-1
  6
CONTINUOUS
 10
326.2771858102767055
 20
204.3889540197628776
 30
0.0
 11
331.7771858102767055
 21
204.3889540197628776
 31
0.0
  0
ARC
  5
3CF
100
AcDbEntity
  8
FORT
 62
7
370
-1
  6
CONTINUOUS
100
AcDbCircle
 10
327.7290048102767059
 20
213.3889540197628776
 30
0.0
 40
1.0
100
AcDbArc
 50
90.0
 51
161.3000000000000114
  0
LINE
  5
3D0
100
AcDbEntity
100
AcDbLine
  8
FORT
 62
7
370
-1
  6
CONTINUOUS
 10
325.8270698102766687
 20
210.8889540197628776
 30
0.0
 11
329.727300810276688
 21
210.8889540197628776
 31
0.0
  0
LINE
  5
3D1
100
AcDbEntity
100
AcDbLine
  8
FORT
 62
7
370
-1
  6
CONTINUOUS
 10
318.7771858102767055
 20
210.8889540197628776
 30
0.0
 11
324.2771858102767055
 21
210.8889540197628776
 31
0.0
  0
LINE
  5
3D2
100
AcDbEntity
100
AcDbLine
  8
FORT
 62
7
370
-1
  6
CONTINUOUS
 10
323.9091598102766625
 20
209.9012710197628735
 30
0.0
 11
325.3609788102766629
 21
214.1904870197628838
 31
0.0
  0
ARC
  5
3D3
100
AcDbEntity
  8
FORT
 62
7
370
-1
  6
CONTINUOUS
100
AcDbCircle
 10
326.2771858102767055
 20
205.3889540197628776
 30
0.0
 40
2.5
100
AcDbArc
 50
180.0
 51
270.0
  0
ARC
  5
3D4
100
AcDbEntity
  8
FORT
 62
7
370
-1
  6
CONTINUOUS
100
AcDbCircle
 10
316.57718581027666
 20
201.6889540197628605
 30
0.0
 40
1.8
100
AcDbArc
 50
180.0
 51
270.0
  0
LINE
  5
3D5
100
AcDbEntity
100
AcDbLine
  8
FORT
 62
7
370
-1
  6
CONTINUOUS
 10
322.7771858102767055
 20
202.8889540197628776
 30
0.0
 11
322.7771858102767055
 21
210.8889540197628776
 31
0.0
  0
LINE
  5
3D6
100
AcDbEntity
100
AcDbLine
  8
FORT
 62
7
370
-1
  6
CONTINUOUS
 10
316.57718581027666
 20
199.8889540197628776
 30
0.0
 11
316.7771858102767055
 21
199.8889540197628776
 31
0.0
  0
LINE
  5
3D7
100
AcDbEntity
100
AcDbLine
  8
FORT
 62
7
370
-1
  6
CONTINUOUS
 10
316.7771858102767055
 20
200.8889540197628776
 30
0.0
 11
318.7771858102767055
 21
200.8889540197628776
 31
0.0
  0
LINE
  5
3D8
100
AcDbEntity
100
AcDbLine
  8
FORT
 62
7
370
-1
  6
CONTINUOUS
 10
323.7771858102767055
 20
205.3889540197628776
 30
0.0
 11
323.7771858102767055
 21
209.0997390197628647
 31
0.0
  0
ARC
  5
3D9
100
AcDbEntity
  8
FORT
 62
7
370
-1
  6
CONTINUOUS
100
AcDbCircle
 10
326.2771858102767055
 20
209.0997390197628647
 30
0.0
 40
2.5
100
AcDbArc
 50
161.3000000000000114
 51
180.0
  0
ARC
  5
3DA
100
AcDbEntity
  8
FORT
 62
7
370
-1
  6
CONTINUOUS
100
AcDbCircle
 10
326.2771858102767055
 20
205.3889540197628776
 30
0.0
 40
1.0
100
AcDbArc
 50
180.0
 51
270.0
  0
LINE
  5
3DB
100
AcDbEntity
100
AcDbLine
  8
FORT
 62
7
370
-1
  6
CONTINUOUS
 10
325.2771858102767055
 20
205.3889540197628776
 30
0.0
 11
325.2771858102767055
 21
208.8527600197628828
 31
0.0
  0
LINE
  5
3DC
100
AcDbEntity
100
AcDbLine
  8
FORT
 62
7
370
-1
  6
CONTINUOUS
 10
325.4091598102766625
 20
209.6542920197628632
 30
0.0
 11
326.781794810276665
 21
213.7095670197628863
 31
0.0
  0
ARC
  5
3DD
100
AcDbEntity
  8
FORT
 62
7
370
-1
  6
CONTINUOUS
100
AcDbCircle
 10
327.7771858102767055
 20
208.8527600197628828
 30
0.0
 40
2.5
100
AcDbArc
 50
161.3000000000000114
 51
180.0
  0
CIRCLE
  5
3DE
100
AcDbEntity
100
AcDbCircle
  8
FORT
 62
7
370
-1
  6
CONTINUOUS
 10
326.3222758102766647
 20
203.5735490197628792
 30
0.0
 40
0.25
  0
LINE
  5
3DF
100
AcDbEntity
100
AcDbLine
  8
FORT
 62
7
370
-1
  6
CONTINUOUS
 10
331.310898810276683
 20
210.8889540197628776
 30
0.0
 11
341.7771858102767055
 21
210.8889540197628776
 31
0.0
  0
LINE
  5
3E0
100
AcDbEntity
100
AcDbLine
  8
FORT
 62
7
370
-1
  6
CONTINUOUS
 10
328.7725768102766892
 20
213.7095670197628863
 30
0.0
 11
330.3563698102767034
 21
209.030450019762867
 31
0.0
  0
LINE
  5
3E1
100
AcDbEntity
100
AcDbLine
  8
FORT
 62
7
370
-1
  6
CONTINUOUS
 10
327.7290048102767059
 20
214.3889540197628776
 30
0.0
 11
327.8253658102767076
 21
214.3889540197628776
 31
0.0
  0
ARC
  5
3E2
100
AcDbEntity
  8
FORT
 62
7
370
-1
  6
CONTINUOUS
100
AcDbCircle
 10
327.8253658102767076
 20
213.3889540197628776
 30
0.0
 40
1.0
100
AcDbArc
 50
18.6999999999999993
 51
90.0
  0
LINE
  5
3E3
100
AcDbEntity
100
AcDbLine
  8
FORT
 62
7
370
-1
  6
CONTINUOUS
 10
330.3563698102767034
 20
209.030450019762867
 30
0.0
 11
331.7771858102767055
 21
209.5113700197628646
 31
0.0
  0
LINE
  5
3E4
100
AcDbEntity
100
AcDbLine
  8
FORT
 62
7
370
-1
  6
CONTINUOUS
 10
330.1933918102766938
 20
214.1904870197628838
 30
0.0
 11
331.7771858102767055
 21
209.5113700197628646
 31
0.0
  0
LINE
  5
3E5
100
AcDbEntity
100
AcDbLine
  8
FORT
 62
7
370
-1
  6
CONTINUOUS
 10
331.7771858102767055
 20
204.3889540197628776
 30
0.0
 11
331.7771858102767055
 21
202.8889540197628776
 31
0.0
  0
LINE
  5
3E6
100
AcDbEntity
100
AcDbLine
  8
FORT
 62
7
370
-1
  6
CONTINUOUS
 10
354.7771858102767055
 20
200.8889540197628776
 30
0.0
 11
356.7771858102767055
 21
200.8889540197628776
 31
0.0
  0
LINE
  5
3E7
100
AcDbEntity
100
AcDbLine
  8
FORT
 62
7
370
-1
  6
CONTINUOUS
 10
347.3771858102766714
 20
195.8889540197628776
 30
0.0
 11
356.7771858102767055
 21
195.8889540197628776
 31
0.0
  0
LWPOLYLINE
  5
3E8
  8
HACHURE
 62
5
370
-1
  6
CONTINUOUS
100
AcDbEntity
100
AcDbPolyline
 90
8
 70
1
 10
356.7771858102767055
 20
200.8889540197628776
 10
354.7771858102767055
 20
200.8889540197628776
 10
354.7771858102767055
 20
210.8889540197628776
 10
350.7771858102767055
 20
210.8889540197628776
 10
350.7771858102767055
 20
202.8889540197628776
 10
347.3771858102766714
 20
202.8889540197628776
 10
347.3771858102766714
 20
195.8889540197628776
 10
356.7771858102767055
 20
195.8889540197628776
  0
INSERT
  5
3E9
100
AcDbEntity
100
AcDbBlockReference
  8
HACHURE
 62
256
370
-1
  6
ByLayer
  2
DESENS-G21
 10
3.8320158102766726
 20
-3.2845849802371276
 30
0.0
  0
LINE
  5
3EA
100
AcDbEntity
100
AcDbLine
  8
FORT
 62
7
370
-1
  6
CONTINUOUS
 10
332.7771858102767055
 20
202.8889540197628776
 30
0.0
 11
332.7771858102767055
 21
210.8889540197628776
 31
0.0
  0
LINE
  5
3EB
100
AcDbEntity
100
AcDbLine
  8
FORT
 62
7
370
-1
  6
CONTINUOUS
 10
350.7771858102767055
 20
202.8889540197628776
 30
0.0
 11
350.7771858102767055
 21
210.8889540197628776
 31
0.0
  0
LINE
  5
3EC
100
AcDbEntity
100
AcDbLine
  8
FORT
 62
7
370
-1
  6
CONTINUOUS
 10
340.7771858102767055
 20
202.8889540197628776
 30
0.0
 11
340.7771858102767055
 21
210.8889540197628776
 31
0.0
  0
ARC
  5
3ED
100
AcDbEntity
  8
FORT
 62
7
370
-1
  6
CONTINUOUS
100
AcDbCircle
 10
345.6771858102766828
 20
211.9889540197628719
 30
0.0
 40
2.3999999999999999
100
AcDbArc
 50
90.0
 51
180.0
  0
LINE
  5
3EE
100
AcDbEntity
100
AcDbLine
  8
FORT
 62
7
370
-1
  6
CONTINUOUS
 10
345.6771858102766828
 20
214.3889540197628776
 30
0.0
 11
345.8771858102766714
 21
214.3889540197628776
 31
0.0
  0
ARC
  5
3EF
100
AcDbEntity
  8
FORT
 62
7
370
-1
  6
CONTINUOUS
100
AcDbCircle
 10
345.8771858102766714
 20
211.9889540197628719
 30
0.0
 40
2.3999999999999999
100
AcDbArc
 50
0.0
 51
90.0
  0
LINE
  5
3F0
100
AcDbEntity
100
AcDbLine
  8
FORT
 62
7
370
-1
  6
CONTINUOUS
 10
348.2771858102767055
 20
206.7889540197628833
 30
0.0
 11
348.2771858102767055
 21
211.9889540197628719
 31
0.0
  0
ARC
  5
3F1
100
AcDbEntity
  8
FORT
 62
7
370
-1
  6
CONTINUOUS
100
AcDbCircle
 10
345.8771858102766714
 20
206.7889540197628833
 30
0.0
 40
2.3999999999999999
100
AcDbArc
 50
270.0
 51
360.0
  0
LINE
  5
3F2
100
AcDbEntity
100
AcDbLine
  8
FORT
 62
7
370
-1
  6
CONTINUOUS
 10
345.6771858102766828
 20
204.3889540197628776
 30
0.0
 11
345.8771858102766714
 21
204.3889540197628776
 31
0.0
  0
LINE
  5
3F3
100
AcDbEntity
100
AcDbLine
  8
FORT
 62
7
370
-1
  6
CONTINUOUS
 10
343.2771858102767055
 20
206.7889540197628833
 30
0.0
 11
343.2771858102767055
 21
211.9889540197628719
 31
0.0
  0
ARC
  5
3F4
100
AcDbEntity
  8
FORT
 62
7
370
-1
  6
CONTINUOUS
100
AcDbCircle
 10
345.6771858102766828
 20
206.7889540197628833
 30
0.0
 40
2.3999999999999999
100
AcDbArc
 50
180.0
 51
270.0
  0
LINE
  5
3F5
100
AcDbEntity
100
AcDbLine
  8
FORT
 62
7
370
-1
  6
CONTINUOUS
 10
349.7771858102767055
 20
206.7889540197628833
 30
0.0
 11
349.7771858102767055
 21
211.9889540197628719
 31
0.0
  0
ARC
  5
3F6
100
AcDbEntity
  8
FORT
 62
7
370
-1
  6
CONTINUOUS
100
AcDbCircle
 10
345.8771858102766714
 20
206.7889540197628833
 30
0.0
 40
3.8999999999999999
100
AcDbArc
 50
270.0
 51
0.0
  0
LINE
  5
3F7
100
AcDbEntity
100
AcDbLine
  8
FORT
 62
7
370
-1
  6
CONTINUOUS
 10
341.7771858102767055
 20
206.7889540197628833
 30
0.0
 11
341.7771858102767055
 21
211.9889540197628719
 31
0.0
  0
ARC
  5
3F8
100
AcDbEntity
  8
FORT
 62
7
370
-1
  6
CONTINUOUS
100
AcDbCircle
 10
345.6771858102766828
 20
206.7889540197628833
 30
0.0
 40
3.8999999999999999
100
AcDbArc
 50
180.0
 51
270.0
  0
LINE
  5
3F9
100
AcDbEntity
100
AcDbLine
  8
FORT
 62
7
370
-1
  6
CONTINUOUS
 10
349.7771858102767055
 20
210.8889540197628776
 30
0.0
 11
354.7771858102767055
 21
210.8889540197628776
 31
0.0
  0
LWPOLYLINE
  5
3FA
  8
HACHURE
 62
5
370
-1
  6
CONTINUOUS
100
AcDbEntity
100
AcDbPolyline
 90
8
 70
1
 10
348.2771858102766487
 20
211.9889540199621649
 42
0.414213999975674
 10
345.8771858102766714
 20
214.388954019762906
 10
345.6771858102766828
 20
214.3889540197628776
 42
0.414213999975674
 10
343.2771858102767055
 20
211.9889540199621649
 10
343.2771858102767055
 20
206.7889540197628833
 42
0.4142139999543911
 10
345.6771858102766828
 20
204.3889540197628492
 10
345.8771858102766714
 20
204.3889540197628776
 42
0.414213999975674
 10
348.2771858102766487
 20
206.7889540195635902
  0
INSERT
  5
3FB
100
AcDbEntity
100
AcDbBlockReference
  8
HACHURE
 62
256
370
-1
  6
ByLayer
  2
DESENS-G22
 10
3.8320158102766726
 20
-3.2845849802371276
 30
0.0
  0
LINE
  5
3FC
100
AcDbEntity
100
AcDbLine
  8
HACHURE
 62
5
370
-1
  6
CONTINUOUS
 10
345.6771858102766828
 20
202.8889540197628776
 30
0.0
 11
345.8771858102766714
 21
202.8889540197628776
 31
0.0
  0
LINE
  5
3FD
100
AcDbEntity
100
AcDbLine
  8
FORT
 62
7
370
-1
  6
CONTINUOUS
 10
340.7771858102767055
 20
202.8889540197628776
 30
0.0
 11
350.7771858102767055
 21
202.8889540197628776
 31
0.0
  0
LINE
  5
3FE
100
AcDbEntity
100
AcDbLine
  8
FORT
 62
7
370
-1
  6
CONTINUOUS
 10
356.9771858102766942
 20
199.8889540197628776
 30
0.0
 11
356.7771858102767055
 21
199.8889540197628776
 31
0.0
  0
ARC
  5
3FF
100
AcDbEntity
  8
FORT
 62
7
370
-1
  6
CONTINUOUS
100
AcDbCircle
 10
356.9771858102766942
 20
201.6889540197628605
 30
0.0
 40
1.8
100
AcDbArc
 50
270.0
 51
0.0
  0
LINE
  5
400
100
AcDbEntity
100
AcDbLine
  8
FORT
 62
7
370
-1
  6
CONTINUOUS
 10
325.7771858102767055
 20
217.3889540197628776
 30
0.0
 11
329.7771858102767055
 21
217.3889540197628776
 31
0.0
  0
LWPOLYLINE
  5
401
  8
HACHURE
 62
5
370
-1
  6
CONTINUOUS
100
AcDbEntity
100
AcDbPolyline
 90
4
 70
1
 10
329.7771858102767055
 20
217.3889540197628776
 10
325.7771858102767055
 20
217.3889540197628776
 10
325.7771858102767055
 20
215.8889540197628776
 10
329.7771858102767055
 20
215.8889540197628776
  0
INSERT
  5
402
100
AcDbEntity
100
AcDbBlockReference
  8
HACHURE
 62
256
370
-1
  6
ByLayer
  2
DESENS-G23
 10
3.8320158102766726
 20
-3.2845849802371276
 30
0.0
  0
LINE
  5
403
100
AcDbEntity
100
AcDbLine
  8
FORT
 62
7
370
-1
  6
CONTINUOUS
 10
325.7771858102767055
 20
215.8889540197628776
 30
0.0
 11
329.7771858102767055
 21
215.8889540197628776
 31
0.0
  0
LINE
  5
404
100
AcDbEntity
100
AcDbLine
  8
FORT
 62
7
370
-1
  6
CONTINUOUS
 10
318.7771858102767055
 20
216.8889540197628776
 30
0.0
 11
325.7771858102767055
 21
216.8889540197628776
 31
0.0
  0
LINE
  5
405
100
AcDbEntity
100
AcDbLine
  8
FORT
 62
7
370
-1
  6
CONTINUOUS
 10
320.7771858102767055
 20
218.8889540197628776
 30
0.0
 11
325.7771858102767055
 21
218.8889540197628776
 31
0.0
  0
LINE
  5
406
100
AcDbEntity
100
AcDbLine
  8
FORT
 62
7
370
-1
  6
CONTINUOUS
 10
329.7771858102767055
 20
216.8889540197628776
 30
0.0
 11
343.7771858102767055
 21
216.8889540197628776
 31
0.0
  0
LINE
  5
407
100
AcDbEntity
100
AcDbLine
  8
FORT
 62
7
370
-1
  6
CONTINUOUS
 10
329.7771858102767055
 20
218.8889540197628776
 30
0.0
 11
343.7771858102767055
 21
218.8889540197628776
 31
0.0
  0
LINE
  5
408
100
AcDbEntity
100
AcDbLine
  8
FORT
 62
7
370
-1
  6
CONTINUOUS
 10
329.7771858102767055
 20
220.3889540197628776
 30
0.0
 11
343.7771858102767055
 21
220.3889540197628776
 31
0.0
  0
LINE
  5
409
100
AcDbEntity
100
AcDbLine
  8
FORT
 62
7
370
-1
  6
CONTINUOUS
 10
347.7771858102767055
 20
217.3889540197628776
 30
0.0
 11
343.7771858102767055
 21
217.3889540197628776
 31
0.0
  0
LINE
  5
40A
100
AcDbEntity
100
AcDbLine
  8
FORT
 62
7
370
-1
  6
CONTINUOUS
 10
347.7771858102767055
 20
216.8889540197628776
 30
0.0
 11
354.7771858102767055
 21
216.8889540197628776
 31
0.0
  0
LINE
  5
40B
100
AcDbEntity
100
AcDbLine
  8
FORT
 62
7
370
-1
  6
CONTINUOUS
 10
347.7771858102767055
 20
218.8889540197628776
 30
0.0
 11
352.7771858102767055
 21
218.8889540197628776
 31
0.0
  0
LINE
  5
40C
100
AcDbEntity
100
AcDbLine
  8
HACHURE
 62
5
370
-1
  6
CONTINUOUS
 10
345.6771858102766828
 20
215.8889540197628776
 30
0.0
 11
345.8771858102766714
 21
215.8889540197628776
 31
0.0
  0
LINE
  5
40D
100
AcDbEntity
100
AcDbLine
  8
FORT
 62
7
370
-1
  6
CONTINUOUS
 10
343.7771858102767055
 20
215.8889540197628776
 30
0.0
 11
347.7771858102767055
 21
215.8889540197628776
 31
0.0
  0
LWPOLYLINE
  5
40E
  8
HACHURE
 62
5
370
-1
  6
CONTINUOUS
100
AcDbEntity
100
AcDbPolyline
 90
4
 70
1
 10
347.7771858102767055
 20
217.3889540197628776
 10
343.7771858102767055
 20
217.3889540197628776
 10
343.7771858102767055
 20
215.8889540197628776
 10
347.7771858102767055
 20
215.8889540197628776
  0
INSERT
  5
40F
100
AcDbEntity
100
AcDbBlockReference
  8
HACHURE
 62
256
370
-1
  6
ByLayer
  2
DESENS-G24
 10
3.8320158102766726
 20
-3.2845849802371276
 30
0.0
  0
LINE
  5
410
100
AcDbEntity
100
AcDbLine
  8
FORT
 62
7
370
-1
  6
CONTINUOUS
 10
257.8490348102766916
 20
243.8889540197628776
 30
0.0
 11
257.8490348102766916
 21
245.8889540197628776
 31
0.0
  0
LINE
  5
411
100
AcDbEntity
100
AcDbLine
  8
FORT
 62
7
370
-1
  6
CONTINUOUS
 10
336.7771858102767055
 20
264.3353920197628781
 30
0.0
 11
336.7771858102767055
 21
254.3353920197628781
 31
0.0
  0
LINE
  5
412
100
AcDbEntity
100
AcDbLine
  8
FORT
 62
7
370
-1
  6
CONTINUOUS
 10
336.7771858102767055
 20
256.0020580197628988
 30
0.0
 11
336.7771858102767055
 21
264.3353920197628781
 31
0.0
  0
LINE
  5
413
100
AcDbEntity
100
AcDbLine
  8
FORT
 62
7
370
-1
  6
CONTINUOUS
 10
336.7771858102767055
 20
256.0020580197628988
 30
0.0
 11
336.7771858102767055
 21
264.3353920197628781
 31
0.0
  0
LINE
  5
414
100
AcDbEntity
100
AcDbLine
  8
FORT
 62
7
370
-1
  6
CONTINUOUS
 10
336.7771858102767055
 20
259.66872501976286
 30
0.0
 11
339.57718581027666
 21
260.6020580197628647
 31
0.0
  0
LINE
  5
415
100
AcDbEntity
100
AcDbLine
  8
FORT
 62
7
370
-1
  6
CONTINUOUS
 10
336.7771858102767055
 20
253.3353920197628781
 30
0.0
 11
336.7771858102767055
 21
251.3353920197628781
 31
0.0
  0
CIRCLE
  5
416
100
AcDbEntity
100
AcDbCircle
  8
FORT
 62
7
370
-1
  6
CONTINUOUS
 10
336.7771858102767055
 20
230.8889540197628776
 30
0.0
 40
7.5
  0
LWPOLYLINE
  5
417
  8
HACHURE
 62
5
370
-1
  6
CONTINUOUS
100
AcDbEntity
100
AcDbPolyline
 90
2
 70
1
 10
344.2771858102767055
 20
230.8889540197628776
 42
0.9999999999999999
 10
329.2771858102767055
 20
230.8889540197628776
 42
0.9999999999999999
  0
INSERT
  5
418
100
AcDbEntity
100
AcDbBlockReference
  8
HACHURE
 62
256
370
-1
  6
ByLayer
  2
DESENS-G25
 10
3.8320158102766726
 20
-3.2845849802371276
 30
0.0
  0
LINE
  5
419
100
AcDbEntity
100
AcDbLine
  8
FORT
 62
7
370
-1
  6
CONTINUOUS
 10
336.7771858102767055
 20
222.7116190197628782
 30
0.0
 11
336.7771858102767055
 21
228.6373630197628586
 31
0.0
  0
LINE
  5
41A
100
AcDbEntity
100
AcDbLine
  8
FORT
 62
7
370
-1
  6
CONTINUOUS
 10
325.7771858102767055
 20
221.8889540197628776
 30
0.0
 11
347.7771858102767055
 21
221.8889540197628776
 31
0.0
  0
LINE
  5
41B
100
AcDbEntity
100
AcDbLine
  8
FORT
 62
7
370
-1
  6
CONTINUOUS
 10
316.57718581027666
 20
221.8889540197628776
 30
0.0
 11
316.7771858102767055
 21
221.8889540197628776
 31
0.0
  0
LINE
  5
41C
100
AcDbEntity
100
AcDbLine
  8
FORT
 62
7
370
-1
  6
CONTINUOUS
 10
356.9771858102766942
 20
221.8889540197628776
 30
0.0
 11
356.7771858102767055
 21
221.8889540197628776
 31
0.0
  0
LINE
  5
41D
100
AcDbEntity
100
AcDbLine
  8
FORT
 62
7
370
-1
  6
CONTINUOUS
 10
336.7771858102767055
 20
222.7116190197628782
 30
0.0
 11
340.3598808102767066
 21
222.7116190197628782
 31
0.0
  0
LINE
  5
41E
100
AcDbEntity
100
AcDbLine
  8
FORT
 62
7
370
-1
  6
CONTINUOUS
 10
342.194489810276707
 20
222.7116190197628782
 30
0.0
 11
345.7771858102767055
 21
222.7116190197628782
 31
0.0
  0
LINE
  5
41F
100
AcDbEntity
100
AcDbLine
  8
FORT
 62
7
370
-1
  6
CONTINUOUS
 10
316.7771858102767055
 20
245.8889540197628776
 30
0.0
 11
356.7771858102767055
 21
245.8889540197628776
 31
0.0
  0
LINE
  5
420
100
AcDbEntity
100
AcDbLine
  8
FORT
 62
7
370
-1
  6
CONTINUOUS
 10
318.7771858102767055
 20
243.8889540197628776
 30
0.0
 11
354.7771858102767055
 21
243.8889540197628776
 31
0.0
  0
LINE
  5
421
100
AcDbEntity
100
AcDbLine
  8
FORT
 62
7
370
-1
  6
CONTINUOUS
 10
320.7771858102767055
 20
241.8889540197628776
 30
0.0
 11
352.7771858102767055
 21
241.8889540197628776
 31
0.0
  0
LINE
  5
422
100
AcDbEntity
100
AcDbLine
  8
FORT
 62
7
370
-1
  6
CONTINUOUS
 10
336.7771858102767055
 20
250.3353920197628781
 30
0.0
 11
336.7771858102767055
 21
245.3353920197628781
 31
0.0
  0
ARC
  5
423
100
AcDbEntity
  8
FIN
 62
5
370
-1
  6
CONTINUOUS
100
AcDbCircle
 10
336.7771858102767055
 20
230.8889540197628776
 30
0.0
 40
5.0
100
AcDbArc
 50
0.0
 51
270.0
  0
LINE
  5
424
100
AcDbEntity
100
AcDbLine
  8
FORT
 62
7
370
-1
  6
CONTINUOUS
 10
336.7771858102767055
 20
259.66872501976286
 30
0.0
 11
339.57718581027666
 21
258.7353920197628554
 31
0.0
  0
LINE
  5
425
100
AcDbEntity
100
AcDbLine
  8
FORT
 62
7
370
-1
  6
CONTINUOUS
 10
346.195796810276704
 20
259.66872501976286
 30
0.0
 11
336.7771858102767055
 21
259.66872501976286
 31
0.0
  0
MTEXT
  5
426
100
AcDbEntity
100
AcDbMText
  8
TEXTE
 62
7
370
-1
  6
CONTINUOUS
 10
318.1902928102766737
 20
269.4796360197628928
 30
0.0
 40
5.0
 41
100.0
 71
7
 72
2
  1
B-B
  7
ISO9
 50
0.0
 73
1
 44
1.0
  0
MTEXT
  5
427
100
AcDbEntity
100
AcDbMText
  8
TEXTE
 62
7
370
-1
  6
CONTINUOUS
 10
335.4284468102766823
 20
266.3922960197628527
 30
0.0
 40
5.0
 41
100.0
 71
7
 72
2
  1
A
  7
ISO9
 50
0.0
 73
1
 44
1.0
  0
LINE
  5
428
100
AcDbEntity
100
AcDbLine
  8
AXE
 62
7
370
-1
  6
CONTINUOUS
 10
105.8490348102766774
 20
74.1473160197628687
 30
0.0
 11
200.8490348102766916
 21
74.1473160197628687
 31
0.0
  0
LINE
  5
429
100
AcDbEntity
100
AcDbLine
  8
AXE
 62
256
370
-1
  6
ByLayer
 10
49.4335688102766753
 20
81.6473160197628687
 30
0.0
 11
269.4053978102766678
 21
81.6473160197628687
 31
0.0
  0
LINE
  5
42A
100
AcDbEntity
100
AcDbLine
  8
AXE
 62
256
370
-1
  6
ByLayer
 10
82.8490348102766774
 20
105.4031850197628728
 30
0.0
 11
82.8490348102766774
 21
58.0977010197628729
 31
0.0
  0
LINE
  5
42B
100
AcDbEntity
100
AcDbLine
  8
AXE
 62
256
370
-1
  6
ByLayer
 10
122.8490348102766774
 20
66.2536100197628741
 30
0.0
 11
122.8490348102766774
 21
79.3509960197628743
 31
0.0
  0
LINE
  5
42C
100
AcDbEntity
100
AcDbLine
  8
AXE
 62
256
370
-1
  6
ByLayer
 10
202.8490348102766916
 20
79.8026300197628728
 30
0.0
 11
202.8490348102766916
 21
65.5761590197628692
 31
0.0
  0
LINE
  5
42D
100
AcDbEntity
100
AcDbLine
  8
AXE
 62
256
370
-1
  6
ByLayer
 10
242.8490348102766916
 20
104.934814019762868
 30
0.0
 11
242.8490348102766916
 21
58.0977010197628729
 31
0.0
  0
LINE
  5
42E
100
AcDbEntity
100
AcDbLine
  8
AXE
 62
256
370
-1
  6
ByLayer
 10
162.8490348102766916
 20
97.4163570197628701
 30
0.0
 11
162.8490348102766916
 21
83.4157030197628728
 31
0.0
  0
LINE
  5
42F
100
AcDbEntity
100
AcDbLine
  8
AXE
 62
256
370
-1
  6
ByLayer
 10
152.4752438102766519
 20
90.6473160197628687
 30
0.0
 11
174.3794938102766992
 21
90.6473160197628687
 31
0.0
  0
LINE
  5
430
100
AcDbEntity
100
AcDbLine
  8
AXE
 62
256
370
-1
  6
ByLayer
 10
192.4448538102766975
 20
72.6473160197628687
 30
0.0
 11
210.7360318102766996
 21
72.6473160197628687
 31
0.0
  0
LINE
  5
431
100
AcDbEntity
100
AcDbLine
  8
AXE
 62
256
370
-1
  6
ByLayer
 10
44.154861810276671
 20
230.8889540197628776
 30
0.0
 11
273.8592298102767018
 21
230.8889540197628776
 31
0.0
  0
LINE
  5
432
100
AcDbEntity
100
AcDbLine
  8
AXE
 62
256
370
-1
  6
ByLayer
 10
231.3488108102766887
 20
210.8889540197628776
 30
0.0
 11
253.7754798102766927
 21
210.8889540197628776
 31
0.0
  0
LINE
  5
433
100
AcDbEntity
100
AcDbLine
  8
AXE
 62
256
370
-1
  6
ByLayer
 10
82.8490348102766774
 20
220.7122420197628685
 30
0.0
 11
82.8490348102766774
 21
198.2402190197628613
 31
0.0
  0
LINE
  5
434
100
AcDbEntity
100
AcDbLine
  8
AXE
 62
256
370
-1
  6
ByLayer
 10
70.2241278102766699
 20
210.8889540197628776
 30
0.0
 11
95.4952658102766776
 21
210.8889540197628776
 31
0.0
  0
LINE
  5
435
100
AcDbEntity
100
AcDbLine
  8
AXE
 62
256
370
-1
  6
ByLayer
 10
242.8490348102766916
 20
199.0725160197628725
 30
0.0
 11
242.8490348102766916
 21
221.9606870197628723
 31
0.0
  0
LINE
  5
436
100
AcDbEntity
100
AcDbLine
  8
AXE
 62
256
370
-1
  6
ByLayer
 10
122.8490348102766774
 20
171.6067110197628836
 30
0.0
 11
122.8490348102766774
 21
209.8923790197628705
 31
0.0
  0
LINE
  5
437
100
AcDbEntity
100
AcDbLine
  8
AXE
 62
256
370
-1
  6
ByLayer
 10
162.8490348102766916
 20
172.0228590197628762
 30
0.0
 11
162.8490348102766916
 21
210.3085270197628631
 31
0.0
  0
LINE
  5
438
100
AcDbEntity
100
AcDbLine
  8
AXE
 62
256
370
-1
  6
ByLayer
 10
202.8490348102766916
 20
177.87052501976288
 30
0.0
 11
202.8490348102766916
 21
210.3085270197628631
 31
0.0
  0
LINE
  5
439
100
AcDbEntity
100
AcDbLine
  8
AXE
 62
256
370
-1
  6
ByLayer
 10
336.7771858102767055
 20
214.0064120197628768
 30
0.0
 11
336.7771858102767055
 21
245.3353920197628781
 31
0.0
  0
LINE
  5
43A
100
AcDbEntity
100
AcDbLine
  8
AXE
 62
256
370
-1
  6
ByLayer
 10
303.7677558102766966
 20
210.8889540197628776
 30
0.0
 11
369.7360098102766983
 21
210.8889540197628776
 31
0.0
  0
LINE
  5
43B
100
AcDbEntity
100
AcDbLine
  8
AXE
 62
256
370
-1
  6
ByLayer
 10
345.7771858102767055
 20
177.87052501976288
 30
0.0
 11
345.7771858102767055
 21
216.7858750197628694
 31
0.0
  0
LINE
  5
43C
100
AcDbEntity
100
AcDbLine
  8
AXE
 62
256
370
-1
  6
ByLayer
 10
310.4659178102766646
 20
230.8889540197628776
 30
0.0
 11
363.3834718102766601
 21
230.8889540197628776
 31
0.0
  0
LINE
  5
43D
100
AcDbEntity
100
AcDbLine
  8
INTERROMPU
 62
256
370
-1
  6
ByLayer
 10
112.8490348102766774
 20
85.6473160197628687
 30
0.0
 11
212.8490348102766916
 21
85.6473160197628687
 31
0.0
  0
LINE
  5
43E
100
AcDbEntity
100
AcDbLine
  8
INTERROMPU
 62
256
370
-1
  6
ByLayer
 10
112.8490348102766774
 20
77.6473160197628687
 30
0.0
 11
212.8490348102766916
 21
77.6473160197628687
 31
0.0
  0
LINE
  5
43F
100
AcDbEntity
100
AcDbLine
  8
INTERROMPU
 62
256
370
-1
  6
ByLayer
 10
112.8490348102766774
 20
89.1473160197628687
 30
0.0
 11
112.8490348102766774
 21
85.6473160197628687
 31
0.0
  0
LINE
  5
440
100
AcDbEntity
100
AcDbLine
  8
INTERROMPU
 62
256
370
-1
  6
ByLayer
 10
114.3490348102766774
 20
89.1473160197628687
 30
0.0
 11
114.3490348102766774
 21
86.6473160197628687
 31
0.0
  0
LINE
  5
441
100
AcDbEntity
100
AcDbLine
  8
INTERROMPU
 62
256
370
-1
  6
ByLayer
 10
112.8490348102766774
 20
74.1473160197628687
 30
0.0
 11
112.8490348102766774
 21
77.6473160197628687
 31
0.0
  0
LINE
  5
442
100
AcDbEntity
100
AcDbLine
  8
INTERROMPU
 62
256
370
-1
  6
ByLayer
 10
114.3490348102766774
 20
74.1473160197628687
 30
0.0
 11
114.3490348102766774
 21
76.6473160197628687
 31
0.0
  0
LINE
  5
443
100
AcDbEntity
100
AcDbLine
  8
INTERROMPU
 62
256
370
-1
  6
ByLayer
 10
212.8490348102766916
 20
67.6473160197628687
 30
0.0
 11
212.8490348102766916
 21
77.6473160197628687
 31
0.0
  0
LINE
  5
444
100
AcDbEntity
100
AcDbLine
  8
INTERROMPU
 62
256
370
-1
  6
ByLayer
 10
211.3490348102766916
 20
68.6473160197628687
 30
0.0
 11
211.3490348102766916
 21
76.6473160197628687
 31
0.0
  0
LINE
  5
445
100
AcDbEntity
100
AcDbLine
  8
INTERROMPU
 62
256
370
-1
  6
ByLayer
 10
200.8490348102766916
 20
67.6473160197628687
 30
0.0
 11
212.8490348102766916
 21
67.6473160197628687
 31
0.0
  0
LINE
  5
446
100
AcDbEntity
100
AcDbLine
  8
INTERROMPU
 62
256
370
-1
  6
ByLayer
 10
200.8490348102766916
 20
68.6473160197628687
 30
0.0
 11
211.3490348102766916
 21
68.6473160197628687
 31
0.0
  0
LINE
  5
447
100
AcDbEntity
100
AcDbLine
  8
INTERROMPU
 62
256
370
-1
  6
ByLayer
 10
211.3490348102766916
 20
86.6473160197628687
 30
0.0
 11
211.3490348102766916
 21
94.6473160197628687
 31
0.0
  0
LINE
  5
448
100
AcDbEntity
100
AcDbLine
  8
INTERROMPU
 62
256
370
-1
  6
ByLayer
 10
212.8490348102766916
 20
85.6473160197628687
 30
0.0
 11
212.8490348102766916
 21
95.6473160197628687
 31
0.0
  0
LINE
  5
449
100
AcDbEntity
100
AcDbLine
  8
INTERROMPU
 62
256
370
-1
  6
ByLayer
 10
200.8490348102766916
 20
95.6473160197628687
 30
0.0
 11
212.8490348102766916
 21
95.6473160197628687
 31
0.0
  0
LINE
  5
44A
100
AcDbEntity
100
AcDbLine
  8
INTERROMPU
 62
256
370
-1
  6
ByLayer
 10
200.8490348102766916
 20
94.6473160197628687
 30
0.0
 11
211.3490348102766916
 21
94.6473160197628687
 31
0.0
  0
LINE
  5
44B
100
AcDbEntity
100
AcDbLine
  8
INTERROMPU
 62
256
370
-1
  6
ByLayer
 10
200.8490348102766916
 20
74.1473160197628687
 30
0.0
 11
219.8490348102766916
 21
74.1473160197628687
 31
0.0
  0
LINE
  5
44C
100
AcDbEntity
100
AcDbLine
  8
INTERROMPU
 62
256
370
-1
  6
ByLayer
 10
200.8490348102766916
 20
89.1473160197628687
 30
0.0
 11
219.8490348102766916
 21
89.1473160197628687
 31
0.0
  0
LINE
  5
44D
100
AcDbEntity
100
AcDbLine
  8
INTERROMPU
 62
256
370
-1
  6
ByLayer
 10
200.8490348102766916
 20
76.6473160197628687
 30
0.0
 11
225.8490348102766916
 21
76.6473160197628687
 31
0.0
  0
LINE
  5
44E
100
AcDbEntity
100
AcDbLine
  8
INTERROMPU
 62
256
370
-1
  6
ByLayer
 10
200.8490348102766916
 20
86.6473160197628687
 30
0.0
 11
225.8490348102766916
 21
86.6473160197628687
 31
0.0
  0
LINE
  5
44F
100
AcDbEntity
100
AcDbLine
  8
INTERROMPU
 62
256
370
-1
  6
ByLayer
 10
219.8490348102766916
 20
89.1473160197628687
 30
0.0
 11
219.8490348102766916
 21
74.1473160197628687
 31
0.0
  0
LINE
  5
450
100
AcDbEntity
100
AcDbLine
  8
INTERROMPU
 62
256
370
-1
  6
ByLayer
 10
219.8490348102766916
 20
89.1473160197628687
 30
0.0
 11
222.3490348102766916
 21
86.6473160197628687
 31
0.0
  0
LINE
  5
451
100
AcDbEntity
100
AcDbLine
  8
INTERROMPU
 62
256
370
-1
  6
ByLayer
 10
219.8490348102766916
 20
74.1473160197628687
 30
0.0
 11
222.3490348102766916
 21
76.6473160197628687
 31
0.0
  0
LINE
  5
452
100
AcDbEntity
100
AcDbLine
  8
INTERROMPU
 62
256
370
-1
  6
ByLayer
 10
222.3490348102766916
 20
86.6473160197628687
 30
0.0
 11
222.3490348102766916
 21
76.6473160197628687
 31
0.0
  0
CIRCLE
  5
453
100
AcDbEntity
100
AcDbCircle
  8
FORT
 62
7
370
-1
  6
CONTINUOUS
 10
118.019581963547239
 20
233.4129725787032896
 30
0.0
 40
0.25
  0
LINE
  5
454
100
AcDbEntity
100
AcDbLine
  8
FIN
 62
5
370
-1
  6
CONTINUOUS
 10
93.8320158102766726
 20
266.7154150197628724
 30
0.0
 11
118.019581963547239
 21
233.4129725787032896
 31
0.0
  0
MTEXT
  5
455
100
AcDbEntity
100
AcDbMText
  8
TEXTE
 62
7
370
-1
  6
CONTINUOUS
 10
60.8332764189723179
 20
116.212440019762866
 30
0.0
 40
5.0
 41
100.0
 71
7
 72
2
  1
VUE\~DE\~DESSUS,\~RIVETS\~CREUX\~11\~ET\~CAPOT\~10\~ENLEVES
  7
ISO9
 50
0.0
 73
1
 44
1.0
  0
LINE
  5
456
100
AcDbEntity
100
AcDbLine
  8
AXE
 62
7
370
-1
  6
CONTINUOUS
 10
114.3490348102766774
 20
94.6473160197628687
 30
0.0
 11
200.8490348102766916
 21
94.6473160197628687
 31
0.0
  0
LINE
  5
457
100
AcDbEntity
100
AcDbLine
  8
AXE
 62
256
370
-1
  6
ByLayer
 10
112.8490348102766774
 20
72.6473160197628687
 30
0.0
 11
134.4098838102766535
 21
72.6473160197628687
 31
0.0
  0
ENDSEC
  0
SECTION
  2
OBJECTS
  0
DICTIONARY
  5
C
100
AcDbDictionary
280
0
281
1
  3
ACAD_GROUP
350
D
  3
ACAD_LAYOUT
350
1A
  3
ACAD_MLINESTYLE
350
17
  3
ACAD_PLOTSETTINGS
350
19
  3
ACAD_PLOTSTYLENAME
350
E
  3
AcDbVariableDictionary
350
458
  0
DICTIONARY
  5
D
100
AcDbDictionary
280
0
281
1
  0
ACDBDICTIONARYWDFLT
  5
E
100
AcDbDictionary
281
1
  3
Normal
350
F
100
AcDbDictionaryWithDefault
340
F
  0
ACDBPLACEHOLDER
  5
F
  0
DICTIONARY
  5
17
100
AcDbDictionary
280
0
281
1
  3
Standard
350
18
  0
MLINESTYLE
  5
18
100
AcDbMlineStyle
  2
STANDARD
 70
0
  3

 62
256
 51
90.0
 52
90.0
 71
2
 49
0.5
 62
256
  6
BYLAYER
 49
-0.5
 62
256
  6
BYLAYER
  0
DICTIONARY
  5
19
100
AcDbDictionary
280
0
281
1
  0
DICTIONARY
  5
1A
100
AcDbDictionary
281
1
  3
Layout1
350
1E
  3
Layout2
350
26
  3
Model
350
22
  0
LAYOUT
  5
1E
100
AcDbPlotSettings
  1

  2
C:\Program Files\AutoCAD 2002\plotters\DWF ePlot (optimized for plotting).pc3
  4

  6

 40
0.0
 41
0.0
 42
0.0
 43
0.0
 44
0.0
 45
0.0
 46
0.0
 47
0.0
 48
0.0
 49
0.0
140
0.0
141
0.0
142
1.0
143
1.0
 70
688
 72
0
 73
0
 74
5
  7

 75
16
147
1.0
148
0.0
149
0.0
100
AcDbLayout
  1
Layout1
 70
1
 71
1
 10
0.0
 20
0.0
 11
420.0
 21
297.0
 12
0.0
 22
0.0
 32
0.0
 14
100000000000000000000.0
 24
100000000000000000000.0
 34
100000000000000000000.0
 15
-100000000000000000000.0
 25
-100000000000000000000.0
 35
-100000000000000000000.0
146
0.0
 13
0.0
 23
0.0
 33
0.0
 16
1.0
 26
0.0
 36
0.0
 17
0.0
 27
1.0
 37
0.0
 76
0
330
1B
  0
LAYOUT
  5
22
100
AcDbPlotSettings
  1

  2
C:\Program Files\AutoCAD 2002\plotters\DWF ePlot (optimized for plotting).pc3
  4

  6

 40
0.0
 41
0.0
 42
0.0
 43
0.0
 44
0.0
 45
0.0
 46
0.0
 47
0.0
 48
0.0
 49
0.0
140
0.0
141
0.0
142
1.0
143
1.0
 70
1712
 72
0
 73
0
 74
0
  7

 75
0
147
1.0
148
0.0
149
0.0
100
AcDbLayout
  1
Model
 70
1
 71
0
 10
0.0
 20
0.0
 11
12.0
 21
9.0
 12
0.0
 22
0.0
 32
0.0
 14
0.0
 24
0.0
 34
0.0
 15
0.0
 25
0.0
 35
0.0
146
0.0
 13
0.0
 23
0.0
 33
0.0
 16
1.0
 26
0.0
 36
0.0
 17
0.0
 27
1.0
 37
0.0
 76
0
330
1F
  0
LAYOUT
  5
26
100
AcDbPlotSettings
  1

  2
C:\Program Files\AutoCAD 2002\plotters\DWF ePlot (optimized for plotting).pc3
  4

  6

 40
0.0
 41
0.0
 42
0.0
 43
0.0
 44
0.0
 45
0.0
 46
0.0
 47
0.0
 48
0.0
 49
0.0
140
0.0
141
0.0
142
1.0
143
1.0
 70
688
 72
0
 73
0
 74
5
  7

 75
16
147
1.0
148
0.0
149
0.0
100
AcDbLayout
  1
Layout2
 70
1
 71
2
 10
0.0
 20
0.0
 11
12.0
 21
9.0
 12
0.0
 22
0.0
 32
0.0
 14
0.0
 24
0.0
 34
0.0
 15
0.0
 25
0.0
 35
0.0
146
0.0
 13
0.0
 23
0.0
 33
0.0
 16
1.0
 26
0.0
 36
0.0
 17
0.0
 27
1.0
 37
0.0
 76
0
330
23
  0
DICTIONARY
  5
458
100
AcDbDictionary
281
1
  3
DIMASSOC
350
45A
  3
HIDETEXT
350
459
  0
DICTIONARYVAR
  5
459
100
DictionaryVariables
280
0
  1
2
  0
DICTIONARYVAR
  5
45A
100
DictionaryVariables
280
0
  1
1
  0
ENDSEC
  0
EOF
