999
dxflib 2.2.0.0
  0
SECTION
  2
HEADER
  9
$ACADVER
  1
AC1015
  9
$HANDSEED
  5
FFFF
  9
$EXTMAX
 10
210.0
 20
297.0
 30
0.0
  9
$VIEWSIZE
 40
9.0
  9
$DIMALTD
 70
2
  9
$LIMCHECK
 70
0
  9
$SNAPISOPAIR
 70
0
  9
$DIMTXT
 40
0.18
  9
$DIMALTF
 40
25.3999999999999986
  9
$VIEWCTR
 10
6.0
 20
4.5
  9
$PDMODE
 70
0
  9
$CELTYPE
  6
CONTINUOUS
  9
$DIMSHO
 70
1
  9
$DIMTAD
 70
0
  9
$FASTZOOM
 70
1
  9
$AXISUNIT
 10
0.0
 20
0.0
 30
0.0
  9
$DIMTIH
 70
1
  9
$SNAPUNIT
 10
1.0
 20
1.0
 30
0.0
  9
$SKPOLY
 70
0
  9
$REGENMODE
 70
1
  9
$DIMDLE
 40
0.0
  9
$SNAPSTYLE
 70
0
  9
$TEXTSTYLE
  7
STANDARD
  9
$AXISMODE
 70
0
  9
$SKETCHINC
 40
0.1
  9
$SNAPANG
 50
0.0
  9
$VIEWDIR
 10
0.0
 20
0.0
 30
1.0
  9
$DIMDLI
 40
0.38
  9
$TDUSRTIMER
 40
0.0
  9
$ANGBASE
 50
0.0
  9
$DIMASO
 70
1
  9
$SPLFRAME
 70
0
  9
$SNAPMODE
 70
0
  9
$USRTIMER
 70
1
  9
$DIMASZ
 40
0.18
  9
$GRIDUNIT
 10
1.0
 20
1.0
  9
$INSBASE
 10
0.0
 20
0.0
 30
0.0
  9
$SPLINESEGS
 70
10
  9
$CHAMFERA
 40
10.0
  9
$CHAMFERB
 40
10.0
  9
$QTEXTMODE
 70
0
  9
$DRAGMODE
 70
2
  9
$ATTMODE
 70
1
  9
$USERI1
 70
0
  9
$BLIPMODE
 70
1
  9
$USERI2
 70
0
  9
$AUNITS
 70
0
  9
$USERI3
 70
0
  9
$USERI4
 70
0
  9
$DIMALT
 70
0
  9
$USERI5
 70
0
  9
$DIMSTYLE
  2
Standard
  9
$DIMCEN
 40
0.09
  9
$MENU
  1
acad
  9
$TDUPDATE
 40
0.0
  9
$COORDS
 70
2
  9
$DIMTSZ
 40
0.0
  9
$PLIMMAX
 10
210.0
 20
297.0
  9
$ATTREQ
 70
1
  9
$TRACEWID
 40
0.05
  9
$DIMSE1
 70
0
  9
$PINSBASE
 10
0.0
 20
0.0
 30
0.0
  9
$DIMSE2
 70
0
  9
$USERR1
 40
0.0
  9
$ATTDIA
 70
0
  9
$USERR2
 40
0.0
  9
$ANGDIR
 70
0
  9
$USERR3
 40
0.0
  9
$USERR4
 40
0.0
  9
$GRIDMODE
 70
0
  9
$USERR5
 40
0.0
  9
$DIMLIM
 70
0
  9
$PLINEWID
 40
0.0
  9
$FILLETRAD
 40
10.0
  9
$AUPREC
 70
0
  9
$CECOLOR
 62
7
  9
$TDCREATE
 40
0.0
  9
$SNAPBASE
 10
0.0
 20
0.0
 30
0.0
  9
$DIMEXE
 40
0.18
  9
$LIMMIN
 10
-0.696377
 20
-4.592784
  9
$THICKNESS
 40
0.0
  9
$PDSIZE
 40
0.0
  9
$CLAYER
  8
FORT
  9
$ELEVATION
 40
0.0
  9
$DIMEXO
 40
0.0625
  9
$ORTHOMODE
 70
0
  9
$INSUNITS
 70
4
  9
$LIMMAX
 10
489.6040689999999813
 20
301.5927839999999946
  9
$DIMTM
 40
0.0
  9
$DIMRND
 40
0.0
  9
$LUNITS
 70
2
  9
$DIMTP
 40
0.0
  9
$TEXTSIZE
 40
0.2
  9
$DIMGAP
 40
0.625
  9
$OSMODE
 70
0
  9
$DIMLFAC
 40
1.0
  9
$LTSCALE
 40
1.0
  9
$FILLMODE
 70
1
  9
$DIMTOH
 70
1
  9
$DIMSCALE
 40
1.0
  9
$PLIMMIN
 10
0.0
 20
0.0
  9
$DIMTOL
 70
0
  9
$EXTMIN
 10
0.0
 20
0.0
 30
0.0
  9
$DIMZIN
 70
0
  9
$TDINDWG
 40
0.0
  9
$LUPREC
 70
4
  0
ENDSEC
  0
SECTION
  2
TABLES
  0
TABLE
  2
VPORT
  5
8
100
AcDbSymbolTable
 70
1
  0
VPORT
  5
30
100
AcDbSymbolTableRecord
100
AcDbViewportTableRecord
  2
*Active
 70
0
 10
0.0
 20
0.0
 11
1.0
 21
1.0
 12
286.3055555555554861
 22
148.5
 13
0.0
 23
0.0
 14
10.0
 24
10.0
 15
10.0
 25
10.0
 16
0.0
 26
0.0
 36
1.0
 17
0.0
 27
0.0
 37
0.0
 40
297.0
 41
1.92798353909465
 42
50.0
 43
0.0
 44
0.0
 50
0.0
 51
0.0
 71
0
 72
100
 73
1
 74
3
 75
1
 76
1
 77
0
 78
0
281
0
 65
1
110
0.0
120
0.0
130
0.0
111
1.0
121
0.0
131
0.0
112
0.0
122
1.0
132
0.0
 79
0
146
0.0
  0
ENDTAB
  0
TABLE
  2
LTYPE
  5
5
100
AcDbSymbolTable
 70
21
  0
LTYPE
  5
14
100
AcDbSymbolTableRecord
100
AcDbLinetypeTableRecord
  2
ByBlock
 70
0
  3

 72
65
 73
0
 40
0.0
  0
LTYPE
  5
15
100
AcDbSymbolTableRecord
100
AcDbLinetypeTableRecord
  2
ByLayer
 70
0
  3

 72
65
 73
0
 40
0.0
  0
LTYPE
  5
16
100
AcDbSymbolTableRecord
100
AcDbLinetypeTableRecord
  2
CONTINUOUS
 70
0
  3
Solid line
 72
65
 73
0
 40
0.0
  0
LTYPE
  5
31
100
AcDbSymbolTableRecord
100
AcDbLinetypeTableRecord
  2
DOT
 70
0
  3
Dot . . . . . . . . . . . . . . . . . . . . . .
 72
65
 73
2
 40
6.3499999999999996
 49
0.0
 74
0
 49
-6.3499999999999996
 74
0
  0
LTYPE
  5
32
100
AcDbSymbolTableRecord
100
AcDbLinetypeTableRecord
  2
DOT2
 70
0
  3
Dot (.5x) .....................................
 72
65
 73
2
 40
3.1749999999999998
 49
0.0
 74
0
 49
-3.1749999999999998
 74
0
  0
LTYPE
  5
33
100
AcDbSymbolTableRecord
100
AcDbLinetypeTableRecord
  2
DOTX2
 70
0
  3
Dot (2x) .  .  .  .  .  .  .  .  .  .  .  .  .
 72
65
 73
2
 40
12.6999999999999993
 49
0.0
 74
0
 49
-12.6999999999999993
 74
0
  0
LTYPE
  5
34
100
AcDbSymbolTableRecord
100
AcDbLinetypeTableRecord
  2
DASHED
 70
0
  3
Dashed __ __ __ __ __ __ __ __ __ __ __ __ __ _
 72
65
 73
2
 40
19.0500000000000007
 49
12.6999999999999993
 74
0
 49
-6.3499999999999996
 74
0
  0
LTYPE
  5
35
100
AcDbSymbolTableRecord
100
AcDbLinetypeTableRecord
  2
DASHED2
 70
0
  3
Dashed (.5x) _ _ _ _ _ _ _ _ _ _ _ _ _ _ _ _ _
 72
65
 73
2
 40
9.5250000000000004
 49
6.3499999999999996
 74
0
 49
-3.1749999999999998
 74
0
  0
LTYPE
  5
36
100
AcDbSymbolTableRecord
100
AcDbLinetypeTableRecord
  2
DASHEDX2
 70
0
  3
Dashed (2x) ____  ____  ____  ____  ____  ___
 72
65
 73
2
 40
38.1000000000000014
 49
25.3999999999999986
 74
0
 49
-12.6999999999999993
 74
0
  0
LTYPE
  5
37
100
AcDbSymbolTableRecord
100
AcDbLinetypeTableRecord
  2
DASHDOT
 70
0
  3
Dash dot __ . __ . __ . __ . __ . __ . __ . __
 72
65
 73
4
 40
25.3999999999999986
 49
12.6999999999999993
 74
0
 49
-6.3499999999999996
 74
0
 49
0.0
 74
0
 49
-6.3499999999999996
 74
0
  0
LTYPE
  5
38
100
AcDbSymbolTableRecord
100
AcDbLinetypeTableRecord
  2
DASHDOT2
 70
0
  3
Dash dot (.5x) _._._._._._._._._._._._._._._.
 72
65
 73
4
 40
12.6999999999999993
 49
6.3499999999999996
 74
0
 49
-3.1749999999999998
 74
0
 49
0.0
 74
0
 49
-3.1749999999999998
 74
0
  0
LTYPE
  5
39
100
AcDbSymbolTableRecord
100
AcDbLinetypeTableRecord
  2
DASHDOTX2
 70
0
  3
Dash dot (2x) ____  .  ____  .  ____  .  ___
 72
65
 73
4
 40
50.7999999999999972
 49
25.3999999999999986
 74
0
 49
-12.6999999999999993
 74
0
 49
0.0
 74
0
 49
-12.6999999999999993
 74
0
  0
LTYPE
  5
3A
100
AcDbSymbolTableRecord
100
AcDbLinetypeTableRecord
  2
DIVIDE
 70
0
  3
Divide ____ . . ____ . . ____ . . ____ . . ____
 72
65
 73
6
 40
31.75
 49
12.6999999999999993
 74
0
 49
-6.3499999999999996
 74
0
 49
0.0
 74
0
 49
-6.3499999999999996
 74
0
 49
0.0
 74
0
 49
-6.3499999999999996
 74
0
  0
LTYPE
  5
3B
100
AcDbSymbolTableRecord
100
AcDbLinetypeTableRecord
  2
DIVIDE2
 70
0
  3
Divide (.5x) __..__..__..__..__..__..__..__.._
 72
65
 73
6
 40
15.875
 49
6.3499999999999996
 74
0
 49
-3.1749999999999998
 74
0
 49
0.0
 74
0
 49
-3.1749999999999998
 74
0
 49
0.0
 74
0
 49
-3.1749999999999998
 74
0
  0
LTYPE
  5
3C
100
AcDbSymbolTableRecord
100
AcDbLinetypeTableRecord
  2
DIVIDEX2
 70
0
  3
Divide (2x) ________  .  .  ________  .  .  _
 72
65
 73
6
 40
63.5
 49
25.3999999999999986
 74
0
 49
-12.6999999999999993
 74
0
 49
0.0
 74
0
 49
-12.6999999999999993
 74
0
 49
0.0
 74
0
 49
-12.6999999999999993
 74
0
  0
LTYPE
  5
3D
100
AcDbSymbolTableRecord
100
AcDbLinetypeTableRecord
  2
CENTER
 70
0
  3
Center ____ _ ____ _ ____ _ ____ _ ____ _ ____
 72
65
 73
4
 40
50.7999999999999972
 49
31.75
 74
0
 49
-6.3499999999999996
 74
0
 49
6.3499999999999996
 74
0
 49
-6.3499999999999996
 74
0
  0
LTYPE
  5
3E
100
AcDbSymbolTableRecord
100
AcDbLinetypeTableRecord
  2
CENTER2
 70
0
  3
Center (.5x) ___ _ ___ _ ___ _ ___ _ ___ _ ___
 72
65
 73
4
 40
28.5749999999999993
 49
19.0500000000000007
 74
0
 49
-3.1749999999999998
 74
0
 49
3.1749999999999998
 74
0
 49
-3.1749999999999998
 74
0
  0
LTYPE
  5
3F
100
AcDbSymbolTableRecord
100
AcDbLinetypeTableRecord
  2
CENTERX2
 70
0
  3
Center (2x) ________  __  ________  __  _____
 72
65
 73
4
 40
101.5999999999999943
 49
63.5
 74
0
 49
-12.6999999999999993
 74
0
 49
12.6999999999999993
 74
0
 49
-12.6999999999999993
 74
0
  0
LTYPE
  5
40
100
AcDbSymbolTableRecord
100
AcDbLinetypeTableRecord
  2
BORDER
 70
0
  3
Border __ __ . __ __ . __ __ . __ __ . __ __ .
 72
65
 73
6
 40
44.4500000000000028
 49
12.6999999999999993
 74
0
 49
-6.3499999999999996
 74
0
 49
12.6999999999999993
 74
0
 49
-6.3499999999999996
 74
0
 49
0.0
 74
0
 49
-6.3499999999999996
 74
0
  0
LTYPE
  5
41
100
AcDbSymbolTableRecord
100
AcDbLinetypeTableRecord
  2
BORDER2
 70
0
  3
Border (.5x) __.__.__.__.__.__.__.__.__.__.__.
 72
65
 73
6
 40
22.2250000000000014
 49
6.3499999999999996
 74
0
 49
-3.1749999999999998
 74
0
 49
6.3499999999999996
 74
0
 49
-3.1749999999999998
 74
0
 49
0.0
 74
0
 49
-3.1749999999999998
 74
0
  0
LTYPE
  5
42
100
AcDbSymbolTableRecord
100
AcDbLinetypeTableRecord
  2
BORDERX2
 70
0
  3
Border (2x) ____  ____  .  ____  ____  .  ___
 72
65
 73
6
 40
88.9000000000000057
 49
25.3999999999999986
 74
0
 49
-12.6999999999999993
 74
0
 49
25.3999999999999986
 74
0
 49
-12.6999999999999993
 74
0
 49
0.0
 74
0
 49
-12.6999999999999993
 74
0
  0
ENDTAB
  0
TABLE
  2
LAYER
  5
2
100
AcDbSymbolTable
 70
5
  0
LAYER
  5
10
100
AcDbSymbolTableRecord
100
AcDbLayerTableRecord
  2
0
 70
0
 62
7
  6
CONTINUOUS
290
1
390
F
  0
LAYER
  5
43
100
AcDbSymbolTableRecord
100
AcDbLayerTableRecord
  2
FORT
 70
0
 62
7
  6
CONTINUOUS
290
1
370
50
390
F
  0
LAYER
  5
44
100
AcDbSymbolTableRecord
100
AcDbLayerTableRecord
  2
FIN
 70
0
 62
7
  6
CONTINUOUS
290
1
370
25
390
F
  0
LAYER
  5
45
100
AcDbSymbolTableRecord
100
AcDbLayerTableRecord
  2
TEXTE
 70
0
 62
7
  6
CONTINUOUS
290
1
370
35
390
F
  0
LAYER
  5
46
100
AcDbSymbolTableRecord
100
AcDbLayerTableRecord
  2
HACHURE
 70
0
 62
7
  6
CONTINUOUS
290
1
390
F
  0
ENDTAB
  0
TABLE
  2
STYLE
  5
3
100
AcDbSymbolTable
 70
1
  0
STYLE
  5
11
100
AcDbSymbolTableRecord
100
AcDbTextStyleTableRecord
  2
Standard
 70
0
 40
0.0
 41
0.75
 50
0.0
 71
0
 42
2.5
  3
txt
  4

  0
ENDTAB
  0
TABLE
  2
VIEW
  5
6
100
AcDbSymbolTable
 70
0
  0
ENDTAB
  0
TABLE
  2
UCS
  5
7
100
AcDbSymbolTable
 70
0
  0
ENDTAB
  0
TABLE
  2
APPID
  5
9
100
AcDbSymbolTable
 70
1
  0
APPID
  5
12
100
AcDbSymbolTableRecord
100
AcDbRegAppTableRecord
  2
ACAD
 70
0
  0
ENDTAB
  0
TABLE
  2
DIMSTYLE
  5
A
100
AcDbSymbolTable
 70
1
100
AcDbDimStyleTable
 71
0
  0
DIMSTYLE
105
27
100
AcDbSymbolTableRecord
100
AcDbDimStyleTableRecord
  2
Standard
 41
0.18
 42
0.0625
 43
3.75
 44
0.18
 70
0
 73
0
 74
0
 77
1
 78
8
140
0.18
141
2.5
143
0.03937007874016
147
0.625
171
3
172
1
271
2
272
2
274
3
278
44
283
0
284
8
340
11
  0
ENDTAB
  0
TABLE
  2
BLOCK_RECORD
  5
1
100
AcDbSymbolTable
 70
1
  0
BLOCK_RECORD
  5
1F
100
AcDbSymbolTableRecord
100
AcDbBlockTableRecord
  2
*Model_Space
340
22
  0
BLOCK_RECORD
  5
1B
100
AcDbSymbolTableRecord
100
AcDbBlockTableRecord
  2
*Paper_Space
340
1E
  0
BLOCK_RECORD
  5
23
100
AcDbSymbolTableRecord
100
AcDbBlockTableRecord
  2
*Paper_Space0
340
26
  0
ENDTAB
  0
ENDSEC
  0
SECTION
  2
BLOCKS
  0
BLOCK
  5
20
100
AcDbEntity
  8
0
100
AcDbBlockBegin
  2
*Model_Space
 70
0
 10
0.0
 20
0.0
 30
0.0
  3
*Model_Space
  1

  0
ENDBLK
  5
21
100
AcDbEntity
  8
0
100
AcDbBlockEnd
  0
BLOCK
  5
1C
100
AcDbEntity
 67
1
  8
0
100
AcDbBlockBegin
  2
*Paper_Space
 70
0
 10
0.0
 20
0.0
 30
0.0
  3
*Paper_Space
  1

  0
ENDBLK
  5
1D
100
AcDbEntity
 67
1
  8
0
100
AcDbBlockEnd
  0
BLOCK
  5
24
100
AcDbEntity
  8
0
100
AcDbBlockBegin
  2
*Paper_Space0
 70
0
 10
0.0
 20
0.0
 30
0.0
  3
*Paper_Space0
  1

  0
ENDBLK
  5
25
100
AcDbEntity
  8
0
100
AcDbBlockEnd
  0
ENDSEC
  0
SECTION
  2
ENTITIES
  0
LINE
  5
47
100
AcDbEntity
100
AcDbLine
  8
FORT
 62
7
370
-1
  6
CONTINUOUS
 10
10.0
 20
50.0
 30
0.0
 11
200.0
 21
50.0
 31
0.0
  0
LINE
  5
48
100
AcDbEntity
100
AcDbLine
  8
FORT
 62
7
370
-1
  6
CONTINUOUS
 10
10.0
 20
10.0
 30
0.0
 11
200.0
 21
10.0
 31
0.0
  0
LINE
  5
49
100
AcDbEntity
100
AcDbLine
  8
FIN
 62
5
370
-1
  6
CONTINUOUS
 10
10.0
 20
59.0
 30
0.0
 11
200.0
 21
59.0
 31
0.0
  0
LINE
  5
4A
100
AcDbEntity
100
AcDbLine
  8
FIN
 62
5
370
-1
  6
CONTINUOUS
 10
10.0
 20
77.0
 30
0.0
 11
200.0
 21
77.0
 31
0.0
  0
LINE
  5
4B
100
AcDbEntity
100
AcDbLine
  8
FIN
 62
5
370
-1
  6
CONTINUOUS
 10
10.0
 20
95.0
 30
0.0
 11
200.0
 21
95.0
 31
0.0
  0
LINE
  5
4C
100
AcDbEntity
100
AcDbLine
  8
FIN
 62
5
370
-1
  6
CONTINUOUS
 10
10.0
 20
86.0
 30
0.0
 11
200.0
 21
86.0
 31
0.0
  0
LINE
  5
4D
100
AcDbEntity
100
AcDbLine
  8
FIN
 62
5
370
-1
  6
CONTINUOUS
 10
10.0
 20
131.0
 30
0.0
 11
200.0
 21
131.0
 31
0.0
  0
LINE
  5
4E
100
AcDbEntity
100
AcDbLine
  8
FIN
 62
5
370
-1
  6
CONTINUOUS
 10
10.0
 20
122.0
 30
0.0
 11
200.0
 21
122.0
 31
0.0
  0
LINE
  5
4F
100
AcDbEntity
100
AcDbLine
  8
FIN
 62
5
370
-1
  6
CONTINUOUS
 10
10.0
 20
113.0
 30
0.0
 11
200.0
 21
113.0
 31
0.0
  0
LINE
  5
50
100
AcDbEntity
100
AcDbLine
  8
FIN
 62
5
370
-1
  6
CONTINUOUS
 10
10.0
 20
104.0
 30
0.0
 11
200.0
 21
104.0
 31
0.0
  0
LINE
  5
51
100
AcDbEntity
100
AcDbLine
  8
FIN
 62
5
370
-1
  6
CONTINUOUS
 10
10.0
 20
68.0
 30
0.0
 11
200.0
 21
68.0
 31
0.0
  0
LINE
  5
52
100
AcDbEntity
100
AcDbLine
  8
FIN
 62
5
370
-1
  6
CONTINUOUS
 10
10.0
 20
140.0
 30
0.0
 11
200.0
 21
140.0
 31
0.0
  0
LINE
  5
53
100
AcDbEntity
100
AcDbLine
  8
FORT
 62
7
370
-1
  6
CONTINUOUS
 10
10.0
 20
10.0
 30
0.0
 11
10.0
 21
41.0
 31
0.0
  0
LINE
  5
54
100
AcDbEntity
100
AcDbLine
  8
FIN
 62
5
370
-1
  6
CONTINUOUS
 10
10.0
 20
149.0
 30
0.0
 11
200.0
 21
149.0
 31
0.0
  0
LINE
  5
55
100
AcDbEntity
100
AcDbLine
  8
FORT
 62
7
370
-1
  6
CONTINUOUS
 10
10.0
 20
287.0
 30
0.0
 11
200.0
 21
287.0
 31
0.0
  0
LINE
  5
56
100
AcDbEntity
100
AcDbLine
  8
FIN
 62
5
370
-1
  6
CONTINUOUS
 10
10.0
 20
167.0
 30
0.0
 11
200.0
 21
167.0
 31
0.0
  0
LINE
  5
57
100
AcDbEntity
100
AcDbLine
  8
FIN
 62
5
370
-1
  6
CONTINUOUS
 10
10.0
 20
158.0
 30
0.0
 11
200.0
 21
158.0
 31
0.0
  0
LINE
  5
58
100
AcDbEntity
100
AcDbLine
  8
FIN
 62
5
370
-1
  6
CONTINUOUS
 10
10.0
 20
185.0
 30
0.0
 11
200.0
 21
185.0
 31
0.0
  0
LINE
  5
59
100
AcDbEntity
100
AcDbLine
  8
FIN
 62
5
370
-1
  6
CONTINUOUS
 10
10.0
 20
176.0
 30
0.0
 11
200.0
 21
176.0
 31
0.0
  0
LINE
  5
5A
100
AcDbEntity
100
AcDbLine
  8
FIN
 62
5
370
-1
  6
CONTINUOUS
 10
10.0
 20
194.0
 30
0.0
 11
200.0
 21
194.0
 31
0.0
  0
LINE
  5
5B
100
AcDbEntity
100
AcDbLine
  8
FIN
 62
5
370
-1
  6
CONTINUOUS
 10
10.0
 20
230.0
 30
0.0
 11
200.0
 21
230.0
 31
0.0
  0
LINE
  5
5C
100
AcDbEntity
100
AcDbLine
  8
FIN
 62
5
370
-1
  6
CONTINUOUS
 10
10.0
 20
221.0
 30
0.0
 11
200.0
 21
221.0
 31
0.0
  0
LINE
  5
5D
100
AcDbEntity
100
AcDbLine
  8
FIN
 62
5
370
-1
  6
CONTINUOUS
 10
10.0
 20
203.0
 30
0.0
 11
200.0
 21
203.0
 31
0.0
  0
LINE
  5
5E
100
AcDbEntity
100
AcDbLine
  8
FIN
 62
5
370
-1
  6
CONTINUOUS
 10
40.0
 20
10.0
 30
0.0
 11
40.0
 21
41.0
 31
0.0
  0
LINE
  5
5F
100
AcDbEntity
100
AcDbLine
  8
FIN
 62
5
370
-1
  6
CONTINUOUS
 10
10.0
 20
20.5
 30
0.0
 11
200.0
 21
20.5
 31
0.0
  0
LINE
  5
60
100
AcDbEntity
100
AcDbLine
  8
FORT
 62
7
370
-1
  6
CONTINUOUS
 10
200.0
 20
41.0
 30
0.0
 11
200.0
 21
287.0
 31
0.0
  0
LINE
  5
61
100
AcDbEntity
100
AcDbLine
  8
FORT
 62
7
370
-1
  6
CONTINUOUS
 10
10.0
 20
41.0
 30
0.0
 11
200.0
 21
41.0
 31
0.0
  0
LINE
  5
62
100
AcDbEntity
100
AcDbLine
  8
FORT
 62
7
370
-1
  6
CONTINUOUS
 10
10.0
 20
41.0
 30
0.0
 11
10.0
 21
287.0
 31
0.0
  0
LINE
  5
63
100
AcDbEntity
100
AcDbLine
  8
FORT
 62
7
370
-1
  6
CONTINUOUS
 10
200.0
 20
10.0
 30
0.0
 11
200.0
 21
41.0
 31
0.0
  0
MTEXT
  5
64
100
AcDbEntity
100
AcDbMText
  8
TEXTE
 62
7
370
50
  6
CONTINUOUS
 10
21.0037869999999991
 20
11.9279770000000003
 30
0.0
 40
7.0
 41
100.0
 71
7
 72
2
  1
A4
  7
iso9
 50
0.0
 73
0
 44
1.0
  0
MTEXT
  5
65
100
AcDbEntity
100
AcDbMText
  8
TEXTE
 62
7
370
-1
  6
CONTINUOUS
 10
16.0
 20
52.0
 30
0.0
 40
3.5
 41
100.0
 71
7
 72
2
  1
1
  7
iso9
 50
0.0
 73
0
 44
1.0
  0
MTEXT
  5
66
100
AcDbEntity
100
AcDbMText
  8
TEXTE
 62
7
370
-1
  6
CONTINUOUS
 10
16.0
 20
61.0
 30
0.0
 40
3.5
 41
100.0
 71
7
 72
2
  1
2
  7
iso9
 50
0.0
 73
0
 44
1.0
  0
MTEXT
  5
67
100
AcDbEntity
100
AcDbMText
  8
TEXTE
 62
7
370
-1
  6
CONTINUOUS
 10
16.0
 20
70.0
 30
0.0
 40
3.5
 41
100.0
 71
7
 72
2
  1
3
  7
iso9
 50
0.0
 73
0
 44
1.0
  0
MTEXT
  5
68
100
AcDbEntity
100
AcDbMText
  8
TEXTE
 62
7
370
-1
  6
CONTINUOUS
 10
16.0
 20
79.0
 30
0.0
 40
3.5
 41
100.0
 71
7
 72
2
  1
4
  7
iso9
 50
0.0
 73
0
 44
1.0
  0
MTEXT
  5
69
100
AcDbEntity
100
AcDbMText
  8
TEXTE
 62
7
370
-1
  6
CONTINUOUS
 10
16.0
 20
88.0
 30
0.0
 40
3.5
 41
100.0
 71
7
 72
2
  1
5
  7
iso9
 50
0.0
 73
0
 44
1.0
  0
MTEXT
  5
6A
100
AcDbEntity
100
AcDbMText
  8
TEXTE
 62
7
370
-1
  6
CONTINUOUS
 10
16.0
 20
97.0
 30
0.0
 40
3.5
 41
100.0
 71
7
 72
2
  1
6
  7
iso9
 50
0.0
 73
0
 44
1.0
  0
MTEXT
  5
6B
100
AcDbEntity
100
AcDbMText
  8
TEXTE
 62
7
370
-1
  6
CONTINUOUS
 10
16.0
 20
106.0
 30
0.0
 40
3.5
 41
100.0
 71
7
 72
2
  1
7
  7
iso9
 50
0.0
 73
0
 44
1.0
  0
MTEXT
  5
6C
100
AcDbEntity
100
AcDbMText
  8
TEXTE
 62
7
370
-1
  6
CONTINUOUS
 10
16.0
 20
115.0
 30
0.0
 40
3.5
 41
100.0
 71
7
 72
2
  1
8
  7
iso9
 50
0.0
 73
0
 44
1.0
  0
MTEXT
  5
6D
100
AcDbEntity
100
AcDbMText
  8
TEXTE
 62
7
370
-1
  6
CONTINUOUS
 10
16.0
 20
124.0
 30
0.0
 40
3.5
 41
100.0
 71
7
 72
2
  1
9
  7
iso9
 50
0.0
 73
0
 44
1.0
  0
MTEXT
  5
6E
100
AcDbEntity
100
AcDbMText
  8
TEXTE
 62
7
370
-1
  6
CONTINUOUS
 10
14.0
 20
133.0
 30
0.0
 40
3.5
 41
100.0
 71
7
 72
2
  1
10
  7
iso9
 50
0.0
 73
0
 44
1.0
  0
MTEXT
  5
6F
100
AcDbEntity
100
AcDbMText
  8
TEXTE
 62
7
370
-1
  6
CONTINUOUS
 10
14.0
 20
142.0
 30
0.0
 40
3.5
 41
100.0
 71
7
 72
2
  1
11
  7
iso9
 50
0.0
 73
0
 44
1.0
  0
MTEXT
  5
70
100
AcDbEntity
100
AcDbMText
  8
TEXTE
 62
7
370
-1
  6
CONTINUOUS
 10
14.0
 20
151.0
 30
0.0
 40
3.5
 41
100.0
 71
7
 72
2
  1
12
  7
iso9
 50
0.0
 73
0
 44
1.0
  0
MTEXT
  5
71
100
AcDbEntity
100
AcDbMText
  8
TEXTE
 62
7
370
-1
  6
CONTINUOUS
 10
14.0
 20
160.0
 30
0.0
 40
3.5
 41
100.0
 71
7
 72
2
  1
13
  7
iso9
 50
0.0
 73
0
 44
1.0
  0
MTEXT
  5
72
100
AcDbEntity
100
AcDbMText
  8
TEXTE
 62
7
370
-1
  6
CONTINUOUS
 10
14.0
 20
169.0
 30
0.0
 40
3.5
 41
100.0
 71
7
 72
2
  1
14
  7
iso9
 50
0.0
 73
0
 44
1.0
  0
MTEXT
  5
73
100
AcDbEntity
100
AcDbMText
  8
TEXTE
 62
7
370
-1
  6
CONTINUOUS
 10
14.0
 20
178.0
 30
0.0
 40
3.5
 41
100.0
 71
7
 72
2
  1
15
  7
iso9
 50
0.0
 73
0
 44
1.0
  0
MTEXT
  5
74
100
AcDbEntity
100
AcDbMText
  8
TEXTE
 62
7
370
-1
  6
CONTINUOUS
 10
14.0
 20
187.0
 30
0.0
 40
3.5
 41
100.0
 71
7
 72
2
  1
16
  7
iso9
 50
0.0
 73
0
 44
1.0
  0
MTEXT
  5
75
100
AcDbEntity
100
AcDbMText
  8
TEXTE
 62
7
370
-1
  6
CONTINUOUS
 10
14.0
 20
196.0
 30
0.0
 40
3.5
 41
100.0
 71
7
 72
2
  1
17
  7
iso9
 50
0.0
 73
0
 44
1.0
  0
MTEXT
  5
76
100
AcDbEntity
100
AcDbMText
  8
TEXTE
 62
7
370
-1
  6
CONTINUOUS
 10
14.0
 20
209.5
 30
0.0
 40
3.5
 41
100.0
 71
7
 72
2
  1
18
  7
iso9
 50
0.0
 73
0
 44
1.0
  0
MTEXT
  5
77
100
AcDbEntity
100
AcDbMText
  8
TEXTE
 62
7
370
-1
  6
CONTINUOUS
 10
14.0
 20
223.0
 30
0.0
 40
3.5
 41
100.0
 71
7
 72
2
  1
19
  7
iso9
 50
0.0
 73
0
 44
1.0
  0
MTEXT
  5
78
100
AcDbEntity
100
AcDbMText
  8
TEXTE
 62
7
370
-1
  6
CONTINUOUS
 10
14.0
 20
236.5
 30
0.0
 40
3.5
 41
100.0
 71
7
 72
2
  1
20
  7
iso9
 50
0.0
 73
0
 44
1.0
  0
MTEXT
  5
79
100
AcDbEntity
100
AcDbMText
  8
TEXTE
 62
7
370
-1
  6
CONTINUOUS
 10
30.9515269999999987
 20
236.5
 30
0.0
 40
3.5
 41
100.0
 71
7
 72
2
  1
1
  7
iso9
 50
0.0
 73
0
 44
1.0
  0
MTEXT
  5
7A
100
AcDbEntity
100
AcDbMText
  8
TEXTE
 62
7
370
-1
  6
CONTINUOUS
 10
30.9515269999999987
 20
223.0
 30
0.0
 40
3.5
 41
100.0
 71
7
 72
2
  1
1
  7
iso9
 50
0.0
 73
0
 44
1.0
  0
MTEXT
  5
7B
100
AcDbEntity
100
AcDbMText
  8
TEXTE
 62
7
370
-1
  6
CONTINUOUS
 10
30.9515269999999987
 20
209.5
 30
0.0
 40
3.5
 41
100.0
 71
7
 72
2
  1
1
  7
iso9
 50
0.0
 73
0
 44
1.0
  0
MTEXT
  5
7C
100
AcDbEntity
100
AcDbMText
  8
TEXTE
 62
7
370
-1
  6
CONTINUOUS
 10
30.9515269999999987
 20
196.0
 30
0.0
 40
3.5
 41
100.0
 71
7
 72
2
  1
1
  7
iso9
 50
0.0
 73
0
 44
1.0
  0
MTEXT
  5
7D
100
AcDbEntity
100
AcDbMText
  8
TEXTE
 62
7
370
-1
  6
CONTINUOUS
 10
30.9515269999999987
 20
187.0
 30
0.0
 40
3.5
 41
100.0
 71
7
 72
2
  1
1
  7
iso9
 50
0.0
 73
0
 44
1.0
  0
MTEXT
  5
7E
100
AcDbEntity
100
AcDbMText
  8
TEXTE
 62
7
370
-1
  6
CONTINUOUS
 10
30.9515269999999987
 20
169.0
 30
0.0
 40
3.5
 41
100.0
 71
7
 72
2
  1
2
  7
iso9
 50
0.0
 73
0
 44
1.0
  0
MTEXT
  5
7F
100
AcDbEntity
100
AcDbMText
  8
TEXTE
 62
7
370
-1
  6
CONTINUOUS
 10
30.9515269999999987
 20
160.0
 30
0.0
 40
3.5
 41
100.0
 71
7
 72
2
  1
1
  7
iso9
 50
0.0
 73
0
 44
1.0
  0
MTEXT
  5
80
100
AcDbEntity
100
AcDbMText
  8
TEXTE
 62
7
370
-1
  6
CONTINUOUS
 10
30.9515269999999987
 20
178.0
 30
0.0
 40
3.5
 41
100.0
 71
7
 72
2
  1
1
  7
iso9
 50
0.0
 73
0
 44
1.0
  0
MTEXT
  5
81
100
AcDbEntity
100
AcDbMText
  8
TEXTE
 62
7
370
-1
  6
CONTINUOUS
 10
30.9515269999999987
 20
151.0
 30
0.0
 40
3.5
 41
100.0
 71
7
 72
2
  1
1
  7
iso9
 50
0.0
 73
0
 44
1.0
  0
MTEXT
  5
82
100
AcDbEntity
100
AcDbMText
  8
TEXTE
 62
7
370
-1
  6
CONTINUOUS
 10
30.9515269999999987
 20
142.0
 30
0.0
 40
3.5
 41
100.0
 71
7
 72
2
  1
2
  7
iso9
 50
0.0
 73
0
 44
1.0
  0
MTEXT
  5
83
100
AcDbEntity
100
AcDbMText
  8
TEXTE
 62
7
370
-1
  6
CONTINUOUS
 10
30.9515269999999987
 20
133.0
 30
0.0
 40
3.5
 41
100.0
 71
7
 72
2
  1
1
  7
iso9
 50
0.0
 73
0
 44
1.0
  0
MTEXT
  5
84
100
AcDbEntity
100
AcDbMText
  8
TEXTE
 62
7
370
-1
  6
CONTINUOUS
 10
30.9515269999999987
 20
124.0
 30
0.0
 40
3.5
 41
100.0
 71
7
 72
2
  1
8
  7
iso9
 50
0.0
 73
0
 44
1.0
  0
MTEXT
  5
85
100
AcDbEntity
100
AcDbMText
  8
TEXTE
 62
7
370
-1
  6
CONTINUOUS
 10
30.9515269999999987
 20
115.0
 30
0.0
 40
3.5
 41
100.0
 71
7
 72
2
  1
1
  7
iso9
 50
0.0
 73
0
 44
1.0
  0
MTEXT
  5
86
100
AcDbEntity
100
AcDbMText
  8
TEXTE
 62
7
370
-1
  6
CONTINUOUS
 10
30.9515269999999987
 20
106.0
 30
0.0
 40
3.5
 41
100.0
 71
7
 72
2
  1
1
  7
iso9
 50
0.0
 73
0
 44
1.0
  0
MTEXT
  5
87
100
AcDbEntity
100
AcDbMText
  8
TEXTE
 62
7
370
-1
  6
CONTINUOUS
 10
30.9515269999999987
 20
97.0
 30
0.0
 40
3.5
 41
100.0
 71
7
 72
2
  1
1
  7
iso9
 50
0.0
 73
0
 44
1.0
  0
MTEXT
  5
88
100
AcDbEntity
100
AcDbMText
  8
TEXTE
 62
7
370
-1
  6
CONTINUOUS
 10
30.9515269999999987
 20
88.0
 30
0.0
 40
3.5
 41
100.0
 71
7
 72
2
  1
2
  7
iso9
 50
0.0
 73
0
 44
1.0
  0
MTEXT
  5
89
100
AcDbEntity
100
AcDbMText
  8
TEXTE
 62
7
370
-1
  6
CONTINUOUS
 10
30.9515269999999987
 20
79.0
 30
0.0
 40
3.5
 41
100.0
 71
7
 72
2
  1
2
  7
iso9
 50
0.0
 73
0
 44
1.0
  0
MTEXT
  5
8A
100
AcDbEntity
100
AcDbMText
  8
TEXTE
 62
7
370
-1
  6
CONTINUOUS
 10
30.9515269999999987
 20
70.0
 30
0.0
 40
3.5
 41
100.0
 71
7
 72
2
  1
2
  7
iso9
 50
0.0
 73
0
 44
1.0
  0
MTEXT
  5
8B
100
AcDbEntity
100
AcDbMText
  8
TEXTE
 62
7
370
-1
  6
CONTINUOUS
 10
30.9515269999999987
 20
61.0
 30
0.0
 40
3.5
 41
100.0
 71
7
 72
2
  1
1
  7
iso9
 50
0.0
 73
0
 44
1.0
  0
MTEXT
  5
8C
100
AcDbEntity
100
AcDbMText
  8
TEXTE
 62
7
370
-1
  6
CONTINUOUS
 10
30.9515269999999987
 20
52.0
 30
0.0
 40
3.5
 41
100.0
 71
7
 72
2
  1
1
  7
iso9
 50
0.0
 73
0
 44
1.0
  0
MTEXT
  5
8D
100
AcDbEntity
100
AcDbMText
  8
TEXTE
 62
7
370
-1
  6
CONTINUOUS
 10
45.0
 20
52.0
 30
0.0
 40
3.5
 41
100.0
 71
7
 72
2
  1
Fond
  7
iso
 50
0.0
 73
0
 44
1.0
  0
MTEXT
  5
8E
100
AcDbEntity
100
AcDbMText
  8
TEXTE
 62
7
370
-1
  6
CONTINUOUS
 10
45.0
 20
70.0
 30
0.0
 40
3.5
 41
100.0
 71
7
 72
2
  1
Joint \U+00e0 l\U+00e8vre pour al\U+00e9sage  50
  7
iso
 50
0.0
 73
0
 44
1.0
  0
MTEXT
  5
8F
100
AcDbEntity
100
AcDbMText
  8
TEXTE
 62
7
370
-1
  6
CONTINUOUS
 10
45.0
 20
61.0
 30
0.0
 40
3.5
 41
100.0
 71
7
 72
2
  1
Rondelle plate Z8
  7
iso
 50
0.0
 73
0
 44
1.0
  0
MTEXT
  5
90
100
AcDbEntity
100
AcDbMText
  8
TEXTE
 62
7
370
-1
  6
CONTINUOUS
 10
45.0
 20
79.0
 30
0.0
 40
3.5
 41
100.0
 71
7
 72
2
  1
Piston
  7
iso9
 50
0.0
 73
0
 44
1.0
  0
MTEXT
  5
91
100
AcDbEntity
100
AcDbMText
  8
TEXTE
 62
7
370
-1
  6
CONTINUOUS
 10
45.0
 20
88.0
 30
0.0
 40
3.5
 41
100.0
 71
7
 72
2
  1
Joint torique 45,52x2,62
  7
iso
 50
0.0
 73
0
 44
1.0
  0
MTEXT
  5
92
100
AcDbEntity
100
AcDbMText
  8
TEXTE
 62
7
370
-1
  6
CONTINUOUS
 10
45.0
 20
97.0
 30
0.0
 40
3.5
 41
100.0
 71
7
 72
2
  1
Nez
  7
iso9
 50
0.0
 73
0
 44
1.0
  0
MTEXT
  5
93
100
AcDbEntity
100
AcDbMText
  8
TEXTE
 62
7
370
-1
  6
CONTINUOUS
 10
45.0
 20
106.0
 30
0.0
 40
3.5
 41
100.0
 71
7
 72
2
  1
Coussinet cylindrique 20x26x20
  7
iso9
 50
0.0
 73
0
 44
1.0
  0
MTEXT
  5
94
100
AcDbEntity
100
AcDbMText
  8
TEXTE
 62
7
370
-1
  6
CONTINUOUS
 10
45.0
 20
115.0
 30
0.0
 40
3.5
 41
100.0
 71
7
 72
2
  1
Tige
  7
iso9
 50
0.0
 73
0
 44
1.0
  0
MTEXT
  5
95
100
AcDbEntity
100
AcDbMText
  8
TEXTE
 62
7
370
-1
  6
CONTINUOUS
 10
45.0
 20
124.0
 30
0.0
 40
3.5
 41
100.0
 71
7
 72
2
  1
Vis \U+00e0 t\U+00eate cyl. taraud\U+00e9e M8
  7
iso
 50
0.0
 73
0
 44
1.0
  0
MTEXT
  5
96
100
AcDbEntity
100
AcDbMText
  8
TEXTE
 62
7
370
-1
  6
CONTINUOUS
 10
45.0
 20
133.0
 30
0.0
 40
3.5
 41
100.0
 71
7
 72
2
  1
Vis C HC, M10-26
  7
iso9
 50
0.0
 73
0
 44
1.0
  0
MTEXT
  5
97
100
AcDbEntity
100
AcDbMText
  8
TEXTE
 62
7
370
-1
  6
CONTINUOUS
 10
45.0
 20
142.0
 30
0.0
 40
3.5
 41
100.0
 71
7
 72
2
  1
Aimant permanent
  7
iso9
 50
0.0
 73
0
 44
1.0
  0
MTEXT
  5
98
100
AcDbEntity
100
AcDbMText
  8
TEXTE
 62
7
370
-1
  6
CONTINUOUS
 10
45.0
 20
151.0
 30
0.0
 40
3.5
 41
100.0
 71
7
 72
2
  1
Cylindre
  7
iso9
 50
0.0
 73
0
 44
1.0
  0
MTEXT
  5
99
100
AcDbEntity
100
AcDbMText
  8
TEXTE
 62
7
370
-1
  6
CONTINUOUS
 10
45.0
 20
160.0
 30
0.0
 40
3.5
 41
100.0
 71
7
 72
2
  1
Joint torique 14x1,78
  7
iso9
 50
0.0
 73
0
 44
1.0
  0
MTEXT
  5
9A
100
AcDbEntity
100
AcDbMText
  8
TEXTE
 62
7
370
-1
  6
CONTINUOUS
 10
45.0
 20
169.0
 30
0.0
 40
3.5
 41
100.0
 71
7
 72
2
  1
Joint \U+00e0 l\U+00e8vre pour arbre   25
  7
iso
 50
0.0
 73
0
 44
1.0
  0
MTEXT
  5
9B
100
AcDbEntity
100
AcDbMText
  8
TEXTE
 62
7
370
-1
  6
CONTINUOUS
 10
45.0
 20
178.0
 30
0.0
 40
3.5
 41
100.0
 71
7
 72
2
  1
Joint \U+00e0 l\U+00e8vre pour arbre   20
  7
iso
 50
0.0
 73
0
 44
1.0
  0
MTEXT
  5
9C
100
AcDbEntity
100
AcDbMText
  8
TEXTE
 62
7
370
-1
  6
CONTINUOUS
 10
45.0
 20
187.0
 30
0.0
 40
3.5
 41
100.0
 71
7
 72
2
  1
Joint racleur pour arbre   20
  7
iso9
 50
0.0
 73
0
 44
1.0
  0
MTEXT
  5
9D
100
AcDbEntity
100
AcDbMText
  8
TEXTE
 62
7
370
-1
  6
CONTINUOUS
 10
45.0
 20
196.0
 30
0.0
 40
3.5
 41
100.0
 71
7
 72
2
  1
Ecrou HM, M16
  7
iso9
 50
0.0
 73
0
 44
1.0
  0
MTEXT
  5
9E
100
AcDbEntity
100
AcDbMText
  8
TEXTE
 62
7
370
-1
  6
CONTINUOUS
 10
45.0
 20
214.0
 30
0.0
 40
3.5
 41
100.0
 71
7
 72
2
  1
Anneau d'arr\U+00eat \U+00e0 arc-boutement
  7
iso
 50
0.0
 73
0
 44
1.0
  0
MTEXT
  5
9F
100
AcDbEntity
100
AcDbMText
  8
TEXTE
 62
7
370
-1
  6
CONTINUOUS
 10
45.0
 20
206.5
 30
0.0
 40
3.5
 41
100.0
 71
7
 72
2
  1
pour al\U+00e9sage   10
  7
iso
 50
0.0
 73
0
 44
1.0
  0
MTEXT
  5
A0
100
AcDbEntity
100
AcDbMText
  8
TEXTE
 62
7
370
-1
  6
CONTINUOUS
 10
45.0
 20
223.0
 30
0.0
 40
3.5
 41
100.0
 71
7
 72
2
  1
Joint torique 4,9x1,9
  7
iso9
 50
0.0
 73
0
 44
1.0
  0
MTEXT
  5
A1
100
AcDbEntity
100
AcDbMText
  8
TEXTE
 62
7
370
-1
  6
CONTINUOUS
 10
45.0
 20
233.5
 30
0.0
 40
3.5
 41
100.0
 71
7
 72
2
  1
l'amortissement
  7
iso9
 50
0.0
 73
0
 44
1.0
  0
MTEXT
  5
A2
100
AcDbEntity
100
AcDbMText
  8
TEXTE
 62
7
370
-1
  6
CONTINUOUS
 10
45.0
 20
241.0
 30
0.0
 40
3.5
 41
100.0
 71
7
 72
2
  1
Vis de r\U+00e9glage de
  7
iso
 50
0.0
 73
0
 44
1.0
  0
MTEXT
  5
A3
100
AcDbEntity
100
AcDbMText
  8
TEXTE
 62
7
370
-1
  6
CONTINUOUS
 10
131.9591836734693686
 20
236.5
 30
0.0
 40
3.5
 41
100.0
 71
7
 72
2
  1
Cu Zn 39 Pb 2
  7
iso9
 50
0.0
 73
0
 44
1.0
  0
MTEXT
  5
A4
100
AcDbEntity
100
AcDbMText
  8
TEXTE
 62
7
370
-1
  6
CONTINUOUS
 10
131.9591836734693686
 20
151.0
 30
0.0
 40
3.5
 41
100.0
 71
7
 72
2
  1
EN AW-2017
  7
iso9
 50
0.0
 73
0
 44
1.0
  0
MTEXT
  5
A5
100
AcDbEntity
100
AcDbMText
  8
TEXTE
 62
7
370
-1
  6
CONTINUOUS
 10
130.9591836734693686
 20
115.0
 30
0.0
 40
3.5
 41
100.0
 71
7
 72
2
  1
C 40
  7
iso9
 50
0.0
 73
0
 44
1.0
  0
MTEXT
  5
A6
100
AcDbEntity
100
AcDbMText
  8
TEXTE
 62
7
370
-1
  6
CONTINUOUS
 10
131.9591836734693686
 20
97.0
 30
0.0
 40
3.5
 41
100.0
 71
7
 72
2
  1
A-S 10 G
  7
iso9
 50
0.0
 73
0
 44
1.0
  0
MTEXT
  5
A7
100
AcDbEntity
100
AcDbMText
  8
TEXTE
 62
7
370
-1
  6
CONTINUOUS
 10
131.9591836734693686
 20
79.0
 30
0.0
 40
3.5
 41
100.0
 71
7
 72
2
  1
Mat. plastique
  7
iso9
 50
0.0
 73
0
 44
1.0
  0
MTEXT
  5
A8
100
AcDbEntity
100
AcDbMText
  8
TEXTE
 62
7
370
-1
  6
CONTINUOUS
 10
131.9591836734693686
 20
52.0
 30
0.0
 40
3.5
 41
100.0
 71
7
 72
2
  1
A-S 10 G
  7
iso9
 50
0.0
 73
0
 44
1.0
  0
MTEXT
  5
A9
100
AcDbEntity
100
AcDbMText
  8
TEXTE
 62
7
370
-1
  6
CONTINUOUS
 10
12.0
 20
43.0
 30
0.0
 40
3.5
 41
100.0
 71
7
 72
2
  1
REP.
  7
iso9
 50
0.0
 73
0
 44
1.0
  0
MTEXT
  5
AA
100
AcDbEntity
100
AcDbMText
  8
TEXTE
 62
7
370
-1
  6
CONTINUOUS
 10
29.0
 20
43.0
 30
0.0
 40
3.5
 41
100.0
 71
7
 72
2
  1
NB.
  7
iso9
 50
0.0
 73
0
 44
1.0
  0
MTEXT
  5
AB
100
AcDbEntity
100
AcDbMText
  8
TEXTE
 62
7
370
-1
  6
CONTINUOUS
 10
57.4193939999999969
 20
43.1000000000000014
 30
0.0
 40
3.5
 41
100.0
 71
7
 72
2
  1
DESIGNATION
  7
iso9
 50
0.0
 73
0
 44
1.0
  0
MTEXT
  5
AC
100
AcDbEntity
100
AcDbMText
  8
TEXTE
 62
7
370
-1
  6
CONTINUOUS
 10
134.9591836734693686
 20
43.0
 30
0.0
 40
3.5
 41
100.0
 71
7
 72
2
  1
MATIERE
  7
iso9
 50
0.0
 73
0
 44
1.0
  0
MTEXT
  5
AD
100
AcDbEntity
100
AcDbMText
  8
TEXTE
 62
7
370
-1
  6
CONTINUOUS
 10
178.3669699443413776
 20
43.0
 30
0.0
 40
3.5
 41
100.0
 71
7
 72
2
  1
OBS.
  7
iso9
 50
0.0
 73
0
 44
1.0
  0
LWPOLYLINE
  5
AE
  8
TEXTE
 62
256
370
-1
  6
ByLayer
100
AcDbEntity
100
AcDbPolyline
 90
16
 70
1
 10
112.3472059968927397
 20
70.0563020167047625
 42
0.1589429999999981
 10
112.6615437968927296
 20
70.1588156167047714
 42
0.1064269999999994
 10
112.9857179968927312
 20
70.5223389167047685
 42
0.0714480000000001
 10
113.1760451968927441
 20
71.0079520167047633
 42
0.0577839999976449
 10
113.2501982968927337
 20
71.6474531166785198
 42
0.0577840000170489
 10
113.1760451968927441
 20
72.286954916704758
 42
0.0714479999999998
 10
112.9857179968927454
 20
72.772567316704766
 42
0.1064270000000014
 10
112.6615437968927296
 20
73.1360906167047631
 42
0.1589430000000022
 10
112.3472059968927397
 20
73.2386042167047862
 42
0.1589429999999969
 10
112.0328681968927356
 20
73.1360906167047489
 42
0.1064270000000017
 10
111.7086932968927329
 20
72.772567316704766
 42
0.0714479999999997
 10
111.51836609689272
 20
72.2869549167047722
 42
0.0577840000101839
 10
111.4442129968927304
 20
71.647453116591322
 42
0.0577840000045048
 10
111.5183660968927342
 20
71.0079520167047775
 42
0.0714480000000004
 10
111.7086932968927186
 20
70.5223389167047543
 42
0.106426999999999
 10
112.0328681968927214
 20
70.1588156167047856
 42
0.1589429999999956
  0
LINE
  5
AF
100
AcDbEntity
100
AcDbLine
  8
TEXTE
 62
256
370
-1
  6
ByLayer
 10
111.1822554968927363
 20
70.084715016704763
 30
0.0
 11
113.5973961968927313
 21
73.2954316167047608
 31
0.0
  0
LWPOLYLINE
  5
B0
  8
TEXTE
 62
256
370
-1
  6
ByLayer
100
AcDbEntity
100
AcDbPolyline
 90
16
 70
1
 10
108.7906074009743662
 20
169.0563020167047625
 42
0.1589429999999993
 10
109.1049452009743561
 20
169.1588156167047714
 42
0.1064270000000003
 10
109.4291194009743577
 20
169.5223389167047401
 42
0.0714480000000003
 10
109.6194466009743707
 20
170.0079520167047633
 42
0.0577839999976449
 10
109.6935997009743602
 20
170.6474531166785198
 42
0.0577840000170479
 10
109.6194466009743707
 20
171.2869549167047865
 42
0.0714480000000001
 10
109.429119400974372
 20
171.772567316704766
 42
0.1064270000000004
 10
109.1049452009743561
 20
172.1360906167047631
 42
0.1589429999999994
 10
108.7906074009743662
 20
172.2386042167047719
 42
0.1589429999999968
 10
108.4762696009743621
 20
172.1360906167047631
 42
0.1064269999999997
 10
108.1520947009743594
 20
171.772567316704766
 42
0.0714479999999994
 10
107.9617675009743465
 20
171.286954916704758
 42
0.0577840000101832
 10
107.8876144009743854
 20
170.6474531165912936
 42
0.0577840000045035
 10
107.9617675009743607
 20
170.0079520167047917
 42
0.0714479999999993
 10
108.1520947009743736
 20
169.5223389167047685
 42
0.1064269999999999
 10
108.4762696009743479
 20
169.1588156167047714
 42
0.1589429999999943
  0
LINE
  5
B1
100
AcDbEntity
100
AcDbLine
  8
TEXTE
 62
256
370
-1
  6
ByLayer
 10
107.6256569009743629
 20
169.084715016704763
 30
0.0
 11
110.0407976009743578
 21
172.295431616704775
 31
0.0
  0
LWPOLYLINE
  5
B2
  8
TEXTE
 62
256
370
-1
  6
ByLayer
100
AcDbEntity
100
AcDbPolyline
 90
16
 70
1
 10
108.7906074009743662
 20
178.0563020167047625
 42
0.1589429999999993
 10
109.1049452009743561
 20
178.1588156167047714
 42
0.1064270000000003
 10
109.4291194009743577
 20
178.5223389167047401
 42
0.0714480000000003
 10
109.6194466009743707
 20
179.0079520167047633
 42
0.0577839999976449
 10
109.6935997009743602
 20
179.6474531166785198
 42
0.0577840000170479
 10
109.6194466009743707
 20
180.2869549167047865
 42
0.0714480000000001
 10
109.429119400974372
 20
180.772567316704766
 42
0.1064270000000004
 10
109.1049452009743561
 20
181.1360906167047631
 42
0.1589429999999994
 10
108.7906074009743662
 20
181.2386042167047719
 42
0.1589429999999968
 10
108.4762696009743621
 20
181.1360906167047631
 42
0.1064269999999997
 10
108.1520947009743594
 20
180.772567316704766
 42
0.0714479999999994
 10
107.9617675009743465
 20
180.286954916704758
 42
0.0577840000101832
 10
107.8876144009743854
 20
179.6474531165912936
 42
0.0577840000045035
 10
107.9617675009743607
 20
179.0079520167047917
 42
0.0714479999999993
 10
108.1520947009743736
 20
178.5223389167047685
 42
0.1064269999999999
 10
108.4762696009743479
 20
178.1588156167047714
 42
0.1589429999999943
  0
LINE
  5
B3
100
AcDbEntity
100
AcDbLine
  8
TEXTE
 62
256
370
-1
  6
ByLayer
 10
107.6256569009743629
 20
178.084715016704763
 30
0.0
 11
110.0407976009743578
 21
181.295431616704775
 31
0.0
  0
LWPOLYLINE
  5
B4
  8
TEXTE
 62
256
370
-1
  6
ByLayer
100
AcDbEntity
100
AcDbPolyline
 90
16
 70
1
 10
108.7906074009743662
 20
187.0563020167047625
 42
0.1589429999999993
 10
109.1049452009743561
 20
187.1588156167047714
 42
0.1064270000000003
 10
109.4291194009743577
 20
187.5223389167047401
 42
0.0714480000000003
 10
109.6194466009743707
 20
188.0079520167047633
 42
0.0577839999976449
 10
109.6935997009743602
 20
188.6474531166785198
 42
0.0577840000170479
 10
109.6194466009743707
 20
189.2869549167047865
 42
0.0714480000000001
 10
109.429119400974372
 20
189.772567316704766
 42
0.1064270000000004
 10
109.1049452009743561
 20
190.1360906167047631
 42
0.1589429999999994
 10
108.7906074009743662
 20
190.2386042167047719
 42
0.1589429999999968
 10
108.4762696009743621
 20
190.1360906167047631
 42
0.1064269999999997
 10
108.1520947009743594
 20
189.772567316704766
 42
0.0714479999999994
 10
107.9617675009743465
 20
189.286954916704758
 42
0.0577840000101832
 10
107.8876144009743854
 20
188.6474531165912936
 42
0.0577840000045035
 10
107.9617675009743607
 20
188.0079520167047917
 42
0.0714479999999993
 10
108.1520947009743736
 20
187.5223389167047685
 42
0.1064269999999999
 10
108.4762696009743479
 20
187.1588156167047714
 42
0.1589429999999943
  0
LINE
  5
B5
100
AcDbEntity
100
AcDbLine
  8
TEXTE
 62
256
370
-1
  6
ByLayer
 10
107.6256569009743629
 20
187.084715016704763
 30
0.0
 11
110.0407976009743578
 21
190.295431616704775
 31
0.0
  0
LWPOLYLINE
  5
B6
  8
TEXTE
 62
256
370
-1
  6
ByLayer
100
AcDbEntity
100
AcDbPolyline
 90
16
 70
1
 10
79.6911643434604002
 20
206.3496105970387191
 42
0.1589429999999981
 10
80.0055021434603901
 20
206.452124197038728
 42
0.1064270000000007
 10
80.3296763434603918
 20
206.8156474970386967
 42
0.0714480000000003
 10
80.5200035434604047
 20
207.3012605970387199
 42
0.0577839999976473
 10
80.5941566434603942
 20
207.9407616970125048
 42
0.0577840000170453
 10
80.5200035434604189
 20
208.580263497038743
 42
0.0714479999999993
 10
80.3296763434603918
 20
209.0658758970387225
 42
0.1064269999999996
 10
80.0055021434603901
 20
209.4293991970387196
 42
0.1589429999999981
 10
79.6911643434604002
 20
209.5319127970387285
 42
0.1589429999999968
 10
79.3768265434603961
 20
209.4293991970387196
 42
0.1064269999999997
 10
79.0526516434603934
 20
209.0658758970387225
 42
0.0714479999999988
 10
78.8623244434603947
 20
208.5802634970387146
 42
0.0577840000101863
 10
78.7881713434603768
 20
207.9407616969252217
 42
0.0577840000045063
 10
78.8623244434603805
 20
207.3012605970387483
 42
0.0714480000000003
 10
79.0526516434603934
 20
206.8156474970387251
 42
0.1064269999999997
 10
79.3768265434603961
 20
206.452124197038728
 42
0.158942999999997
  0
LINE
  5
B7
100
AcDbEntity
100
AcDbLine
  8
TEXTE
 62
256
370
-1
  6
ByLayer
 10
78.5262138434603969
 20
206.3780235970387196
 30
0.0
 11
80.9413545434603918
 21
209.5887401970387316
 31
0.0
  0
LINE
  5
B8
100
AcDbEntity
100
AcDbLine
  8
FIN
 62
7
370
-1
  6
CONTINUOUS
 10
40.0
 20
41.0
 30
0.0
 11
40.0
 21
248.0
 31
0.0
  0
LINE
  5
B9
100
AcDbEntity
100
AcDbLine
  8
FIN
 62
7
370
-1
  6
CONTINUOUS
 10
25.0
 20
41.0
 30
0.0
 11
25.0
 21
248.0
 31
0.0
  0
LINE
  5
BA
100
AcDbEntity
100
AcDbLine
  8
FIN
 62
7
370
-1
  6
CONTINUOUS
 10
126.9591836734693686
 20
41.0
 30
0.0
 11
126.9591836734693686
 21
248.0
 31
0.0
  0
LINE
  5
BB
100
AcDbEntity
100
AcDbLine
  8
FIN
 62
7
370
-1
  6
CONTINUOUS
 10
169.9591836734693686
 20
41.0
 30
0.0
 11
169.9591836734693686
 21
248.0
 31
0.0
  0
MTEXT
  5
BC
100
AcDbEntity
100
AcDbMText
  8
TEXTE
 62
7
370
70
  6
CONTINUOUS
 10
63.028026341563816
 20
26.6441330041152113
 30
0.0
 40
7.0
 41
100.0
 71
7
 72
2
  1
VERIN DOUBLE EFFET
  7
iso9
 50
0.0
 73
0
 44
1.0
  0
MTEXT
  5
BD
100
AcDbEntity
100
AcDbMText
  8
TEXTE
 62
7
370
50
  6
CONTINUOUS
 10
96.3612092716049204
 20
12.6947080000000003
 30
0.0
 40
5.0
 41
100.0
 71
7
 72
2
  1
Nomenclature
  7
iso9
 50
0.0
 73
0
 44
1.0
  0
ENDSEC
  0
SECTION
  2
OBJECTS
  0
DICTIONARY
  5
C
100
AcDbDictionary
280
0
281
1
  3
ACAD_GROUP
350
D
  3
ACAD_LAYOUT
350
1A
  3
ACAD_MLINESTYLE
350
17
  3
ACAD_PLOTSETTINGS
350
19
  3
ACAD_PLOTSTYLENAME
350
E
  3
AcDbVariableDictionary
350
BE
  0
DICTIONARY
  5
D
100
AcDbDictionary
280
0
281
1
  0
ACDBDICTIONARYWDFLT
  5
E
100
AcDbDictionary
281
1
  3
Normal
350
F
100
AcDbDictionaryWithDefault
340
F
  0
ACDBPLACEHOLDER
  5
F
  0
DICTIONARY
  5
17
100
AcDbDictionary
280
0
281
1
  3
Standard
350
18
  0
MLINESTYLE
  5
18
100
AcDbMlineStyle
  2
STANDARD
 70
0
  3

 62
256
 51
90.0
 52
90.0
 71
2
 49
0.5
 62
256
  6
BYLAYER
 49
-0.5
 62
256
  6
BYLAYER
  0
DICTIONARY
  5
19
100
AcDbDictionary
280
0
281
1
  0
DICTIONARY
  5
1A
100
AcDbDictionary
281
1
  3
Layout1
350
1E
  3
Layout2
350
26
  3
Model
350
22
  0
LAYOUT
  5
1E
100
AcDbPlotSettings
  1

  2
C:\Program Files\AutoCAD 2002\plotters\DWF ePlot (optimized for plotting).pc3
  4

  6

 40
0.0
 41
0.0
 42
0.0
 43
0.0
 44
0.0
 45
0.0
 46
0.0
 47
0.0
 48
0.0
 49
0.0
140
0.0
141
0.0
142
1.0
143
1.0
 70
688
 72
0
 73
0
 74
5
  7

 75
16
147
1.0
148
0.0
149
0.0
100
AcDbLayout
  1
Layout1
 70
1
 71
1
 10
0.0
 20
0.0
 11
420.0
 21
297.0
 12
0.0
 22
0.0
 32
0.0
 14
100000000000000000000.0
 24
100000000000000000000.0
 34
100000000000000000000.0
 15
-100000000000000000000.0
 25
-100000000000000000000.0
 35
-100000000000000000000.0
146
0.0
 13
0.0
 23
0.0
 33
0.0
 16
1.0
 26
0.0
 36
0.0
 17
0.0
 27
1.0
 37
0.0
 76
0
330
1B
  0
LAYOUT
  5
22
100
AcDbPlotSettings
  1

  2
C:\Program Files\AutoCAD 2002\plotters\DWF ePlot (optimized for plotting).pc3
  4

  6

 40
0.0
 41
0.0
 42
0.0
 43
0.0
 44
0.0
 45
0.0
 46
0.0
 47
0.0
 48
0.0
 49
0.0
140
0.0
141
0.0
142
1.0
143
1.0
 70
1712
 72
0
 73
0
 74
0
  7

 75
0
147
1.0
148
0.0
149
0.0
100
AcDbLayout
  1
Model
 70
1
 71
0
 10
0.0
 20
0.0
 11
12.0
 21
9.0
 12
0.0
 22
0.0
 32
0.0
 14
0.0
 24
0.0
 34
0.0
 15
0.0
 25
0.0
 35
0.0
146
0.0
 13
0.0
 23
0.0
 33
0.0
 16
1.0
 26
0.0
 36
0.0
 17
0.0
 27
1.0
 37
0.0
 76
0
330
1F
  0
LAYOUT
  5
26
100
AcDbPlotSettings
  1

  2
C:\Program Files\AutoCAD 2002\plotters\DWF ePlot (optimized for plotting).pc3
  4

  6

 40
0.0
 41
0.0
 42
0.0
 43
0.0
 44
0.0
 45
0.0
 46
0.0
 47
0.0
 48
0.0
 49
0.0
140
0.0
141
0.0
142
1.0
143
1.0
 70
688
 72
0
 73
0
 74
5
  7

 75
16
147
1.0
148
0.0
149
0.0
100
AcDbLayout
  1
Layout2
 70
1
 71
2
 10
0.0
 20
0.0
 11
12.0
 21
9.0
 12
0.0
 22
0.0
 32
0.0
 14
0.0
 24
0.0
 34
0.0
 15
0.0
 25
0.0
 35
0.0
146
0.0
 13
0.0
 23
0.0
 33
0.0
 16
1.0
 26
0.0
 36
0.0
 17
0.0
 27
1.0
 37
0.0
 76
0
330
23
  0
DICTIONARY
  5
BE
100
AcDbDictionary
281
1
  3
DIMASSOC
350
C0
  3
HIDETEXT
350
BF
  0
DICTIONARYVAR
  5
BF
100
DictionaryVariables
280
0
  1
2
  0
DICTIONARYVAR
  5
C0
100
DictionaryVariables
280
0
  1
1
  0
ENDSEC
  0
EOF
