999
dxflib 2.0.4.8
  0
SECTION
  2
HEADER
  9
$ACADVER
  1
AC1015
  9
$HANDSEED
  5
FFFF
  9
$USERR4
 40
0.0
  9
$AXISUNIT
 10
0.0
 20
0.0
 30
0.0
  9
$DIMTAD
 70
0
  9
$USERR5
 40
0.0
  9
$ATTREQ
 70
1
  9
$CHAMFERA
 40
10.0
  9
$VIEWDIR
 10
0.0
 20
0.0
 30
1.0
  9
$MENU
  1
acad
  9
$CLAYER
  8
FORT
  9
$SNAPBASE
 10
0.0
 20
0.0
 30
0.0
  9
$VIEWSIZE
 40
9.0
  9
$DIMASZ
 40
0.18
  9
$GRIDUNIT
 10
0.0
 20
0.0
  9
$DIMADEC
 70
0
  9
$CHAMFERB
 40
10.0
  9
$TRACEWID
 40
0.05
  9
$REGENMODE
 70
1
  9
$ORTHOMODE
 70
0
  9
$EXTMIN
 10
0.0
 20
0.0
 30
0.0
  9
$DIMGAP
 40
0.625
  9
$ANGBASE
 50
0.0
  9
$USRTIMER
 70
1
  9
$SKETCHINC
 40
0.1
  9
$DIMALT
 70
0
  9
$DIMSHO
 70
1
  9
$SNAPSTYLE
 70
0
  9
$SPLFRAME
 70
0
  9
$AXISMODE
 70
0
  9
$DIMTSZ
 40
0.0
  9
$LIMMIN
 10
0.0
 20
-4.592784
  9
$SPLINESEGS
 70
10
  9
$AUPREC
 70
0
  9
$LUNITS
 70
2
  9
$BLIPMODE
 70
1
  9
$USERI1
 70
0
  9
$SKPOLY
 70
0
  9
$ELEVATION
 40
0.0
  9
$DIMCEN
 40
0.09
  9
$DIMRND
 40
0.0
  9
$INSBASE
 10
0.0
 20
0.0
 30
0.0
  9
$DIMEXO
 40
0.0625
  9
$INSUNITS
 70
4
  9
$USERI2
 70
0
  9
$TEXTSIZE
 40
0.2
  9
$DRAGMODE
 70
2
  9
$FILLMODE
 70
1
  9
$EXTMAX
 10
210.0
 20
297.0
 30
0.0
  9
$USERI3
 70
0
  9
$ANGDIR
 70
0
  9
$TDUSRTIMER
 40
0.0
  9
$DIMZIN
 70
0
  9
$DIMDLE
 40
0.0
  9
$DIMSCALE
 40
1.0
  9
$VIEWCTR
 10
6.0
 20
4.5
  9
$DIMLUNIT
 70
2
  9
$USERI4
 70
0
  9
$OSMODE
 70
0
  9
$QTEXTMODE
 70
0
  9
$LIMMAX
 10
490.6569349999999758
 20
301.5927839999999946
  9
$DIMTXT
 40
8.0
  9
$USERI5
 70
0
  9
$PDMODE
 70
0
  9
$FASTZOOM
 70
1
  9
$LIMCHECK
 70
0
  9
$THICKNESS
 40
0.0
  9
$DIMSE1
 70
0
  9
$DIMLIM
 70
0
  9
$ATTMODE
 70
1
  9
$GRIDMODE
 70
0
  9
$LUPREC
 70
4
  9
$TDINDWG
 40
0.0
  9
$DIMLFAC
 40
1.0
  9
$DIMSE2
 70
0
  9
$DIMTOH
 70
1
  9
$CELTYPE
  6
CONTINUOUS
  9
$DIMSTYLE
  2
Standard
  9
$PLINEWID
 40
0.0
  9
$DIMASO
 70
1
  9
$DIMTM
 40
0.0
  9
$DIMDLI
 40
0.38
  9
$CECOLOR
 62
5
  9
$SNAPANG
 50
0.0
  9
$SNAPMODE
 70
0
  9
$PLIMMAX
 10
420.0
 20
297.0
  9
$PLIMMIN
 10
0.0
 20
0.0
  9
$TDUPDATE
 40
0.0
  9
$FILLETRAD
 40
10.0
  9
$DIMALTD
 70
2
  9
$DIMTIH
 70
1
  9
$LTSCALE
 40
0.3
  9
$DIMEXE
 40
0.18
  9
$USERR1
 40
0.0
  9
$ATTDIA
 70
0
  9
$PDSIZE
 40
0.0
  9
$PINSBASE
 10
0.0
 20
-1.5
 30
0.0
  9
$DIMAUNIT
 70
0
  9
$USERR2
 40
0.0
  9
$COORDS
 70
2
  9
$TDCREATE
 40
0.0
  9
$DIMALTF
 40
25.3999999999999986
  9
$DIMTOL
 70
0
  9
$DIMTP
 40
0.0
  9
$TEXTSTYLE
  7
STANDARD
  9
$SNAPISOPAIR
 70
0
  9
$SNAPUNIT
 10
1.0
 20
1.0
 30
0.0
  9
$AUNITS
 70
0
  9
$USERR3
 40
0.0
  0
ENDSEC
  0
SECTION
  2
TABLES
  0
TABLE
  2
VPORT
  5
8
100
AcDbSymbolTable
 70
1
  0
VPORT
  5
30
100
AcDbSymbolTableRecord
100
AcDbViewportTableRecord
  2
*Active
 70
0
 10
0.0
 20
0.0
 11
1.0
 21
1.0
 12
286.3055555555554861
 22
148.5
 13
0.0
 23
0.0
 14
10.0
 24
10.0
 15
10.0
 25
10.0
 16
0.0
 26
0.0
 36
1.0
 17
0.0
 27
0.0
 37
0.0
 40
297.0
 41
1.92798353909465
 42
50.0
 43
0.0
 44
0.0
 50
0.0
 51
0.0
 71
0
 72
100
 73
1
 74
3
 75
1
 76
1
 77
0
 78
0
281
0
 65
1
110
0.0
120
0.0
130
0.0
111
1.0
121
0.0
131
0.0
112
0.0
122
1.0
132
0.0
 79
0
146
0.0
  0
ENDTAB
  0
TABLE
  2
LTYPE
  5
5
100
AcDbSymbolTable
 70
21
  0
LTYPE
  5
14
100
AcDbSymbolTableRecord
100
AcDbLinetypeTableRecord
  2
ByBlock
 70
0
  3

 72
65
 73
0
 40
0.0
  0
LTYPE
  5
15
100
AcDbSymbolTableRecord
100
AcDbLinetypeTableRecord
  2
ByLayer
 70
0
  3

 72
65
 73
0
 40
0.0
  0
LTYPE
  5
16
100
AcDbSymbolTableRecord
100
AcDbLinetypeTableRecord
  2
CONTINUOUS
 70
0
  3
Solid line
 72
65
 73
0
 40
0.0
  0
LTYPE
  5
31
100
AcDbSymbolTableRecord
100
AcDbLinetypeTableRecord
  2
DOT
 70
0
  3
Dot . . . . . . . . . . . . . . . . . . . . . .
 72
65
 73
2
 40
6.3499999999999996
 49
0.0
 74
0
 49
-6.3499999999999996
 74
0
  0
LTYPE
  5
32
100
AcDbSymbolTableRecord
100
AcDbLinetypeTableRecord
  2
DOT2
 70
0
  3
Dot (.5x) .....................................
 72
65
 73
2
 40
3.1749999999999998
 49
0.0
 74
0
 49
-3.1749999999999998
 74
0
  0
LTYPE
  5
33
100
AcDbSymbolTableRecord
100
AcDbLinetypeTableRecord
  2
DOTX2
 70
0
  3
Dot (2x) .  .  .  .  .  .  .  .  .  .  .  .  .
 72
65
 73
2
 40
12.6999999999999993
 49
0.0
 74
0
 49
-12.6999999999999993
 74
0
  0
LTYPE
  5
34
100
AcDbSymbolTableRecord
100
AcDbLinetypeTableRecord
  2
DASHED
 70
0
  3
Dashed __ __ __ __ __ __ __ __ __ __ __ __ __ _
 72
65
 73
2
 40
19.0500000000000007
 49
12.6999999999999993
 74
0
 49
-6.3499999999999996
 74
0
  0
LTYPE
  5
35
100
AcDbSymbolTableRecord
100
AcDbLinetypeTableRecord
  2
DASHED2
 70
0
  3
Dashed (.5x) _ _ _ _ _ _ _ _ _ _ _ _ _ _ _ _ _
 72
65
 73
2
 40
9.5250000000000004
 49
6.3499999999999996
 74
0
 49
-3.1749999999999998
 74
0
  0
LTYPE
  5
36
100
AcDbSymbolTableRecord
100
AcDbLinetypeTableRecord
  2
DASHEDX2
 70
0
  3
Dashed (2x) ____  ____  ____  ____  ____  ___
 72
65
 73
2
 40
38.1000000000000014
 49
25.3999999999999986
 74
0
 49
-12.6999999999999993
 74
0
  0
LTYPE
  5
37
100
AcDbSymbolTableRecord
100
AcDbLinetypeTableRecord
  2
DASHDOT
 70
0
  3
Dash dot __ . __ . __ . __ . __ . __ . __ . __
 72
65
 73
4
 40
25.3999999999999986
 49
12.6999999999999993
 74
0
 49
-6.3499999999999996
 74
0
 49
0.0
 74
0
 49
-6.3499999999999996
 74
0
  0
LTYPE
  5
38
100
AcDbSymbolTableRecord
100
AcDbLinetypeTableRecord
  2
DASHDOT2
 70
0
  3
Dash dot (.5x) _._._._._._._._._._._._._._._.
 72
65
 73
4
 40
12.6999999999999993
 49
6.3499999999999996
 74
0
 49
-3.1749999999999998
 74
0
 49
0.0
 74
0
 49
-3.1749999999999998
 74
0
  0
LTYPE
  5
39
100
AcDbSymbolTableRecord
100
AcDbLinetypeTableRecord
  2
DASHDOTX2
 70
0
  3
Dash dot (2x) ____  .  ____  .  ____  .  ___
 72
65
 73
4
 40
50.7999999999999972
 49
25.3999999999999986
 74
0
 49
-12.6999999999999993
 74
0
 49
0.0
 74
0
 49
-12.6999999999999993
 74
0
  0
LTYPE
  5
3A
100
AcDbSymbolTableRecord
100
AcDbLinetypeTableRecord
  2
DIVIDE
 70
0
  3
Divide ____ . . ____ . . ____ . . ____ . . ____
 72
65
 73
6
 40
31.75
 49
12.6999999999999993
 74
0
 49
-6.3499999999999996
 74
0
 49
0.0
 74
0
 49
-6.3499999999999996
 74
0
 49
0.0
 74
0
 49
-6.3499999999999996
 74
0
  0
LTYPE
  5
3B
100
AcDbSymbolTableRecord
100
AcDbLinetypeTableRecord
  2
DIVIDE2
 70
0
  3
Divide (.5x) __..__..__..__..__..__..__..__.._
 72
65
 73
6
 40
15.875
 49
6.3499999999999996
 74
0
 49
-3.1749999999999998
 74
0
 49
0.0
 74
0
 49
-3.1749999999999998
 74
0
 49
0.0
 74
0
 49
-3.1749999999999998
 74
0
  0
LTYPE
  5
3C
100
AcDbSymbolTableRecord
100
AcDbLinetypeTableRecord
  2
DIVIDEX2
 70
0
  3
Divide (2x) ________  .  .  ________  .  .  _
 72
65
 73
6
 40
63.5
 49
25.3999999999999986
 74
0
 49
-12.6999999999999993
 74
0
 49
0.0
 74
0
 49
-12.6999999999999993
 74
0
 49
0.0
 74
0
 49
-12.6999999999999993
 74
0
  0
LTYPE
  5
3D
100
AcDbSymbolTableRecord
100
AcDbLinetypeTableRecord
  2
CENTER
 70
0
  3
Center ____ _ ____ _ ____ _ ____ _ ____ _ ____
 72
65
 73
4
 40
50.7999999999999972
 49
31.75
 74
0
 49
-6.3499999999999996
 74
0
 49
6.3499999999999996
 74
0
 49
-6.3499999999999996
 74
0
  0
LTYPE
  5
3E
100
AcDbSymbolTableRecord
100
AcDbLinetypeTableRecord
  2
CENTER2
 70
0
  3
Center (.5x) ___ _ ___ _ ___ _ ___ _ ___ _ ___
 72
65
 73
4
 40
28.5749999999999993
 49
19.0500000000000007
 74
0
 49
-3.1749999999999998
 74
0
 49
3.1749999999999998
 74
0
 49
-3.1749999999999998
 74
0
  0
LTYPE
  5
3F
100
AcDbSymbolTableRecord
100
AcDbLinetypeTableRecord
  2
CENTERX2
 70
0
  3
Center (2x) ________  __  ________  __  _____
 72
65
 73
4
 40
101.5999999999999943
 49
63.5
 74
0
 49
-12.6999999999999993
 74
0
 49
12.6999999999999993
 74
0
 49
-12.6999999999999993
 74
0
  0
LTYPE
  5
40
100
AcDbSymbolTableRecord
100
AcDbLinetypeTableRecord
  2
BORDER
 70
0
  3
Border __ __ . __ __ . __ __ . __ __ . __ __ .
 72
65
 73
6
 40
44.4500000000000028
 49
12.6999999999999993
 74
0
 49
-6.3499999999999996
 74
0
 49
12.6999999999999993
 74
0
 49
-6.3499999999999996
 74
0
 49
0.0
 74
0
 49
-6.3499999999999996
 74
0
  0
LTYPE
  5
41
100
AcDbSymbolTableRecord
100
AcDbLinetypeTableRecord
  2
BORDER2
 70
0
  3
Border (.5x) __.__.__.__.__.__.__.__.__.__.__.
 72
65
 73
6
 40
22.2250000000000014
 49
6.3499999999999996
 74
0
 49
-3.1749999999999998
 74
0
 49
6.3499999999999996
 74
0
 49
-3.1749999999999998
 74
0
 49
0.0
 74
0
 49
-3.1749999999999998
 74
0
  0
LTYPE
  5
42
100
AcDbSymbolTableRecord
100
AcDbLinetypeTableRecord
  2
BORDERX2
 70
0
  3
Border (2x) ____  ____  .  ____  ____  .  ___
 72
65
 73
6
 40
88.9000000000000057
 49
25.3999999999999986
 74
0
 49
-12.6999999999999993
 74
0
 49
25.3999999999999986
 74
0
 49
-12.6999999999999993
 74
0
 49
0.0
 74
0
 49
-12.6999999999999993
 74
0
  0
ENDTAB
  0
TABLE
  2
LAYER
  5
2
100
AcDbSymbolTable
 70
8
  0
LAYER
  5
10
100
AcDbSymbolTableRecord
100
AcDbLayerTableRecord
  2
0
 70
0
 62
7
  6
CONTINUOUS
390
F
  0
LAYER
  5
43
100
AcDbSymbolTableRecord
100
AcDbLayerTableRecord
  2
FORT
 70
0
 62
7
  6
CONTINUOUS
370
50
390
F
  0
LAYER
  5
44
100
AcDbSymbolTableRecord
100
AcDbLayerTableRecord
  2
INTERROMPU
 70
0
 62
5
  6
DASHED
370
20
390
F
  0
LAYER
  5
45
100
AcDbSymbolTableRecord
100
AcDbLayerTableRecord
  2
AXE
 70
0
 62
3
  6
CENTERX2
370
20
390
F
  0
LAYER
  5
46
100
AcDbSymbolTableRecord
100
AcDbLayerTableRecord
  2
FIN
 70
0
 62
5
  6
CONTINUOUS
370
20
390
F
  0
LAYER
  5
47
100
AcDbSymbolTableRecord
100
AcDbLayerTableRecord
  2
HACHURE
 70
0
 62
7
  6
CONTINUOUS
370
20
390
F
  0
LAYER
  5
48
100
AcDbSymbolTableRecord
100
AcDbLayerTableRecord
  2
TEXTE
 70
0
 62
7
  6
CONTINUOUS
370
60
390
F
  0
LAYER
  5
49
100
AcDbSymbolTableRecord
100
AcDbLayerTableRecord
  2
RENFORCE
 70
0
 62
7
  6
CONTINUOUS
370
90
390
F
  0
ENDTAB
  0
TABLE
  2
STYLE
  5
3
100
AcDbSymbolTable
 70
1
  0
STYLE
  5
11
100
AcDbSymbolTableRecord
100
AcDbTextStyleTableRecord
  2
Standard
 70
0
 40
0.0
 41
0.75
 50
0.0
 71
0
 42
2.5
  3
txt
  4

  0
ENDTAB
  0
TABLE
  2
VIEW
  5
6
100
AcDbSymbolTable
 70
0
  0
ENDTAB
  0
TABLE
  2
UCS
  5
7
100
AcDbSymbolTable
 70
0
  0
ENDTAB
  0
TABLE
  2
APPID
  5
9
100
AcDbSymbolTable
 70
1
  0
APPID
  5
12
100
AcDbSymbolTableRecord
100
AcDbRegAppTableRecord
  2
ACAD
 70
0
  0
ENDTAB
  0
TABLE
  2
DIMSTYLE
  5
A
100
AcDbSymbolTable
 70
1
100
AcDbDimStyleTable
 71
0
  0
DIMSTYLE
105
27
100
AcDbSymbolTableRecord
100
AcDbDimStyleTableRecord
  2
Standard
 41
0.18
 42
0.0625
 43
3.75
 44
0.18
 70
0
 73
0
 74
0
 77
1
 78
8
140
8.0
141
2.5
143
0.03937007874016
147
0.625
171
3
172
1
271
2
272
2
274
3
278
44
283
0
284
8
340
11
  0
ENDTAB
  0
TABLE
  2
BLOCK_RECORD
  5
1
100
AcDbSymbolTable
 70
1
  0
BLOCK_RECORD
  5
1F
100
AcDbSymbolTableRecord
100
AcDbBlockTableRecord
  2
*Model_Space
340
22
  0
BLOCK_RECORD
  5
1B
100
AcDbSymbolTableRecord
100
AcDbBlockTableRecord
  2
*Paper_Space
340
1E
  0
BLOCK_RECORD
  5
23
100
AcDbSymbolTableRecord
100
AcDbBlockTableRecord
  2
*Paper_Space0
340
26
  0
ENDTAB
  0
ENDSEC
  0
SECTION
  2
BLOCKS
  0
BLOCK
  5
20
100
AcDbEntity
  8
0
100
AcDbBlockBegin
  2
*Model_Space
 70
0
 10
0.0
 20
0.0
 30
0.0
  3
*Model_Space
  1

  0
ENDBLK
  5
21
100
AcDbEntity
  8
0
100
AcDbBlockEnd
  0
BLOCK
  5
1C
100
AcDbEntity
 67
1
  8
0
100
AcDbBlockBegin
  2
*Paper_Space
 70
0
 10
0.0
 20
0.0
 30
0.0
  3
*Paper_Space
  1

  0
ENDBLK
  5
1D
100
AcDbEntity
 67
1
  8
0
100
AcDbBlockEnd
  0
BLOCK
  5
24
100
AcDbEntity
  8
0
100
AcDbBlockBegin
  2
*Paper_Space0
 70
0
 10
0.0
 20
0.0
 30
0.0
  3
*Paper_Space0
  1

  0
ENDBLK
  5
25
100
AcDbEntity
  8
0
100
AcDbBlockEnd
  0
ENDSEC
  0
SECTION
  2
ENTITIES
  0
LINE
  5
4A
100
AcDbEntity
100
AcDbLine
  8
RENFORCE
 62
256
370
-1
  6
ByLayer
 10
220.0
 20
10.0
 30
0.0
 11
410.0
 21
10.0
 31
0.0
  0
LINE
  5
4B
100
AcDbEntity
100
AcDbLine
  8
RENFORCE
 62
256
370
-1
  6
ByLayer
 10
220.0
 20
40.0
 30
0.0
 11
410.0
 21
40.0
 31
0.0
  0
LINE
  5
4C
100
AcDbEntity
100
AcDbLine
  8
RENFORCE
 62
256
370
-1
  6
ByLayer
 10
220.0
 20
40.0
 30
0.0
 11
220.0
 21
10.0
 31
0.0
  0
LINE
  5
4D
100
AcDbEntity
100
AcDbLine
  8
RENFORCE
 62
256
370
-1
  6
ByLayer
 10
410.0
 20
40.0
 30
0.0
 11
410.0
 21
10.0
 31
0.0
  0
LINE
  5
4E
100
AcDbEntity
100
AcDbLine
  8
FIN
 62
256
370
-1
  6
ByLayer
 10
220.0
 20
20.0
 30
0.0
 11
410.0
 21
20.0
 31
0.0
  0
LINE
  5
4F
100
AcDbEntity
100
AcDbLine
  8
FIN
 62
256
370
-1
  6
ByLayer
 10
220.0
 20
30.0
 30
0.0
 11
260.0
 21
30.0
 31
0.0
  0
LINE
  5
50
100
AcDbEntity
100
AcDbLine
  8
FIN
 62
256
370
-1
  6
ByLayer
 10
260.0
 20
40.0
 30
0.0
 11
260.0
 21
10.0
 31
0.0
  0
LINE
  5
51
100
AcDbEntity
100
AcDbLine
  8
AXE
 62
256
370
-1
  6
ByLayer
 10
223.0
 20
25.0
 30
0.0
 11
257.0
 21
25.0
 31
0.0
  0
CIRCLE
  5
52
100
AcDbEntity
100
AcDbCircle
  8
FORT
 62
256
370
-1
  6
ByLayer
 10
249.4912073672424526
 20
25.0
 30
0.0
 40
3.0
  0
CIRCLE
  5
53
100
AcDbEntity
100
AcDbCircle
  8
FORT
 62
256
370
-1
  6
ByLayer
 10
249.4912073672424526
 20
25.0
 30
0.0
 40
1.4142135623730951
  0
LINE
  5
54
100
AcDbEntity
100
AcDbLine
  8
AXE
 62
256
370
-1
  6
ByLayer
 10
249.4912073672424526
 20
29.0
 30
0.0
 11
249.4912073672424526
 21
21.0
 31
0.0
  0
LINE
  5
55
100
AcDbEntity
100
AcDbLine
  8
FORT
 62
256
370
-1
  6
ByLayer
 10
227.4912073672424526
 20
26.4142135623730958
 30
0.0
 11
227.4912073672424526
 21
23.5857864376269042
 31
0.0
  0
LINE
  5
56
100
AcDbEntity
100
AcDbLine
  8
FORT
 62
256
370
-1
  6
ByLayer
 10
239.4912073672424526
 20
28.0
 30
0.0
 11
239.4912073672424526
 21
22.0
 31
0.0
  0
LINE
  5
57
100
AcDbEntity
100
AcDbLine
  8
FORT
 62
256
370
-1
  6
ByLayer
 10
239.4912073672424526
 20
28.0
 30
0.0
 11
227.4912073672424526
 21
26.4142135623730958
 31
0.0
  0
LINE
  5
58
100
AcDbEntity
100
AcDbLine
  8
FORT
 62
256
370
-1
  6
ByLayer
 10
239.4912073672424526
 20
22.0
 30
0.0
 11
227.4912073672424526
 21
23.5857864376269042
 31
0.0
  0
LINE
  5
59
100
AcDbEntity
100
AcDbLine
  8
FORT
 62
256
370
-1
  6
ByLayer
 10
410.0
 20
40.0
 30
0.0
 11
410.0
 21
287.0
 31
0.0
  0
MTEXT
  5
5A
100
AcDbEntity
100
AcDbMText
  8
TEXTE
 62
7
370
-1
  6
CONTINUOUS
 10
234.0037869999999884
 20
11.9279770000000003
 30
0.0
 40
7.0
 41
100.0
 71
7
 72
2
  1
A3
  7
ISO9
 50
0.0
 73
0
 44
1.0
  0
LINE
  5
5B
100
AcDbEntity
100
AcDbLine
  8
FORT
 62
256
370
-1
  6
ByLayer
 10
220.0
 20
10.0
 30
0.0
 11
13.0
 21
10.0
 31
0.0
  0
LINE
  5
5C
100
AcDbEntity
100
AcDbLine
  8
FORT
 62
256
370
-1
  6
ByLayer
 10
13.0
 20
287.0
 30
0.0
 11
410.0
 21
287.0
 31
0.0
  0
LINE
  5
5D
100
AcDbEntity
100
AcDbLine
  8
FORT
 62
256
370
-1
  6
ByLayer
 10
13.0
 20
10.0
 30
0.0
 11
13.0
 21
287.0
 31
0.0
  0
MTEXT
  5
5E
100
AcDbEntity
100
AcDbMText
  8
TEXTE
 62
7
370
-1
  6
CONTINUOUS
 10
265.3394648069370305
 20
27.0
 30
0.0
 40
6.5
 41
100.0
 71
7
 72
2
  1
WEBCAM\~LOGITECH\~SPHERE\~MP
  7
ISO9
 50
0.0
 73
0
 44
1.0
  0
MTEXT
  5
5F
100
AcDbEntity
100
AcDbMText
  8
TEXTE
 62
7
370
-1
  6
CONTINUOUS
 10
270.3924257077496804
 20
12.6947080000000003
 30
0.0
 40
5.0
 41
100.0
 71
7
 72
2
  1
Dessin\~d'ensemble\~du\~moto-r\U+00e9ducteur
  7
ISO9
 50
0.0
 73
0
 44
1.0
  0
MTEXT
  5
60
100
AcDbEntity
100
AcDbMText
  8
TEXTE
 62
7
370
-1
  6
CONTINUOUS
 10
228.5955338097676304
 20
32.3186510000000027
 30
0.0
 40
5.0
 41
100.0
 71
7
 72
2
  1
Ech.\~5:1
  7
ISO9
 50
0.0
 73
0
 44
1.0
  0
LINE
  5
61
100
AcDbEntity
100
AcDbLine
  8
0
 62
7
370
-1
  6
CONTINUOUS
 10
330.3072359321458862
 20
210.868001603749974
 30
0.0
 11
330.5592359321458389
 21
210.868001603749974
 31
0.0
  0
LINE
  5
62
100
AcDbEntity
100
AcDbLine
  8
0
 62
7
370
-1
  6
CONTINUOUS
 10
330.3072359321458862
 20
210.868001603749974
 30
0.0
 11
330.3072359321458862
 21
211.3720016037499931
 31
0.0
  0
LINE
  5
63
100
AcDbEntity
100
AcDbLine
  8
AXE
 62
256
370
-1
  6
ByLayer
 10
24.9755293687539393
 20
170.647096546316078
 30
0.0
 11
101.8220729732345831
 21
170.647096546316078
 31
0.0
  0
LINE
  5
64
100
AcDbEntity
100
AcDbLine
  8
0
 62
7
370
-1
  6
CONTINUOUS
 10
73.5128191363957626
 20
171.868337153750133
 30
0.0
 11
79.5128191363958194
 21
171.868337153750133
 31
0.0
  0
LINE
  5
65
100
AcDbEntity
100
AcDbLine
  8
0
 62
7
370
-1
  6
CONTINUOUS
 10
81.0128191363957626
 20
185.6176867432500615
 30
0.0
 11
86.0128191363957626
 21
185.6176867432500615
 31
0.0
  0
LINE
  5
66
100
AcDbEntity
100
AcDbLine
  8
0
 62
7
370
-1
  6
CONTINUOUS
 10
88.1420208238957912
 20
221.4378820007500508
 30
0.0
 11
88.1321487576457798
 21
221.4382255154999939
 31
0.0
  0
CIRCLE
  5
67
100
AcDbEntity
100
AcDbCircle
  8
0
 62
7
370
-1
  6
CONTINUOUS
 10
90.5128191363957626
 20
210.8680016037500309
 30
0.0
 40
2.5
  0
LINE
  5
68
100
AcDbEntity
100
AcDbLine
  8
0
 62
7
370
-1
  6
CONTINUOUS
 10
101.0128191363957626
 20
191.3239102562500875
 30
0.0
 11
101.0128191363957626
 21
190.8189806120000469
 31
0.0
  0
LINE
  5
69
100
AcDbEntity
100
AcDbLine
  8
AXE
 62
256
370
-1
  6
ByLayer
 10
59.4294141915092382
 20
210.8680016037501161
 30
0.0
 11
122.4498704423219806
 21
210.8680016037501161
 31
0.0
  0
LINE
  5
6A
100
AcDbEntity
100
AcDbLine
  8
AXE
 62
256
370
-1
  6
ByLayer
 10
90.5128191363957626
 20
195.0126217776762587
 30
0.0
 11
90.5128191363957626
 21
226.2060297314754393
 31
0.0
  0
LINE
  5
6B
100
AcDbEntity
100
AcDbLine
  8
AXE
 62
256
370
-1
  6
ByLayer
 10
81.2003364253649238
 20
203.8028304706981544
 30
0.0
 11
71.8253018474266582
 21
203.8028304706981544
 31
0.0
  0
LINE
  5
6C
100
AcDbEntity
100
AcDbLine
  8
AXE
 62
256
370
-1
  6
ByLayer
 10
81.2003364253649238
 20
139.9331727368018221
 30
0.0
 11
71.8253018474266582
 21
139.9331727368018221
 31
0.0
  0
LINE
  5
6D
100
AcDbEntity
100
AcDbLine
  8
AXE
 62
256
370
-1
  6
ByLayer
 10
104.0128191363957626
 20
201.7596705008066635
 30
0.0
 11
104.0128191363957626
 21
219.9763327066934551
 31
0.0
  0
LINE
  5
6E
100
AcDbEntity
100
AcDbLine
  8
AXE
 62
256
370
-1
  6
ByLayer
 10
77.0128191363958194
 20
201.7596705008066635
 30
0.0
 11
77.0128191363958194
 21
219.9763327066934551
 31
0.0
  0
LINE
  5
6F
100
AcDbEntity
100
AcDbLine
  8
FORT
 62
256
370
-1
  6
ByLayer
 10
82.012841452022883
 20
204.1528370030046062
 30
0.0
 11
82.012841452022883
 21
217.5831662044953134
 31
0.0
  0
LINE
  5
70
100
AcDbEntity
100
AcDbLine
  8
FORT
 62
256
370
-1
  6
ByLayer
 10
99.012796820768699
 20
204.1528370030046062
 30
0.0
 11
99.012796820768699
 21
217.5831662044953134
 31
0.0
  0
CIRCLE
  5
71
100
AcDbEntity
100
AcDbCircle
  8
FORT
 62
256
370
-1
  6
ByLayer
 10
90.5128191363957626
 20
210.8680016037500309
 30
0.0
 40
10.832499999997296
  0
ARC
  5
72
100
AcDbEntity
  8
FORT
 62
256
370
-1
  6
ByLayer
100
AcDbCircle
 10
104.0128191363957626
 20
210.8680016037500309
 30
0.0
 40
7.5
100
AcDbArc
 50
232.6934621796000044
 51
127.1220019752999946
  0
LINE
  5
73
100
AcDbEntity
100
AcDbLine
  8
FORT
 62
256
370
-1
  6
ByLayer
 10
78.0125510737739205
 20
215.8898141161237163
 30
0.0
 11
76.0130871990244259
 21
215.8898141161237163
 31
0.0
  0
LINE
  5
74
100
AcDbEntity
100
AcDbLine
  8
FORT
 62
256
370
-1
  6
ByLayer
 10
78.0125510737739205
 20
205.8461890913761749
 30
0.0
 11
76.0130871990244259
 21
205.8461890913761749
 31
0.0
  0
LINE
  5
75
100
AcDbEntity
100
AcDbLine
  8
FORT
 62
256
370
-1
  6
ByLayer
 10
71.9910066240253741
 20
209.8682696663751699
 30
0.0
 11
71.9910066240253741
 21
211.8677335411247213
 31
0.0
  0
LINE
  5
76
100
AcDbEntity
100
AcDbLine
  8
FORT
 62
256
370
-1
  6
ByLayer
 10
76.0130871990244259
 20
211.8677335411247213
 30
0.0
 11
76.0130871990244259
 21
215.8898141161237163
 31
0.0
  0
LINE
  5
77
100
AcDbEntity
100
AcDbLine
  8
FORT
 62
256
370
-1
  6
ByLayer
 10
71.9910066240253741
 20
211.8677335411247213
 30
0.0
 11
76.0130871990244259
 21
211.8677335411247213
 31
0.0
  0
LINE
  5
78
100
AcDbEntity
100
AcDbLine
  8
FORT
 62
256
370
-1
  6
ByLayer
 10
71.9910066240253741
 20
209.8682696663751699
 30
0.0
 11
76.0130871990244259
 21
209.8682696663751699
 31
0.0
  0
LINE
  5
79
100
AcDbEntity
100
AcDbLine
  8
FORT
 62
256
370
-1
  6
ByLayer
 10
76.0130871990244259
 20
209.8682696663751699
 30
0.0
 11
76.0130871990244259
 21
205.8461890913761749
 31
0.0
  0
LINE
  5
7A
100
AcDbEntity
100
AcDbLine
  8
FORT
 62
256
370
-1
  6
ByLayer
 10
78.0125510737739205
 20
205.8461890913761749
 30
0.0
 11
78.0125510737739205
 21
209.8682696663751699
 31
0.0
  0
LINE
  5
7B
100
AcDbEntity
100
AcDbLine
  8
FORT
 62
256
370
-1
  6
ByLayer
 10
78.0125510737739205
 20
211.8677335411247213
 30
0.0
 11
78.0125510737739205
 21
215.8898141161237163
 31
0.0
  0
LINE
  5
7C
100
AcDbEntity
100
AcDbLine
  8
FORT
 62
256
370
-1
  6
ByLayer
 10
78.0125510737739205
 20
211.8677335411247213
 30
0.0
 11
79.7265504440567838
 21
211.8677335411247213
 31
0.0
  0
LINE
  5
7D
100
AcDbEntity
100
AcDbLine
  8
FORT
 62
256
370
-1
  6
ByLayer
 10
78.0125510737739205
 20
209.8682696663751699
 30
0.0
 11
79.7265504440567838
 21
209.8682696663751699
 31
0.0
  0
LINE
  5
7E
100
AcDbEntity
100
AcDbLine
  8
FORT
 62
256
370
-1
  6
ByLayer
 10
103.0130871990176047
 20
215.8898141161237163
 30
0.0
 11
105.0125510737672698
 21
215.8898141161237163
 31
0.0
  0
LINE
  5
7F
100
AcDbEntity
100
AcDbLine
  8
FORT
 62
256
370
-1
  6
ByLayer
 10
103.0130871990176047
 20
205.8461890913761749
 30
0.0
 11
105.0125510737672698
 21
205.8461890913761749
 31
0.0
  0
LINE
  5
80
100
AcDbEntity
100
AcDbLine
  8
FORT
 62
256
370
-1
  6
ByLayer
 10
109.0346316487663216
 20
209.8682696663751699
 30
0.0
 11
109.0346316487663216
 21
211.8677335411247213
 31
0.0
  0
LINE
  5
81
100
AcDbEntity
100
AcDbLine
  8
FORT
 62
256
370
-1
  6
ByLayer
 10
105.0125510737672698
 20
211.8677335411247213
 30
0.0
 11
105.0125510737672698
 21
215.8898141161237163
 31
0.0
  0
LINE
  5
82
100
AcDbEntity
100
AcDbLine
  8
FORT
 62
256
370
-1
  6
ByLayer
 10
109.0346316487663216
 20
211.8677335411247213
 30
0.0
 11
105.0125510737672698
 21
211.8677335411247213
 31
0.0
  0
LINE
  5
83
100
AcDbEntity
100
AcDbLine
  8
FORT
 62
256
370
-1
  6
ByLayer
 10
109.0346316487663216
 20
209.8682696663751699
 30
0.0
 11
105.0125510737672698
 21
209.8682696663751699
 31
0.0
  0
LINE
  5
84
100
AcDbEntity
100
AcDbLine
  8
FORT
 62
256
370
-1
  6
ByLayer
 10
105.0125510737672698
 20
209.8682696663751699
 30
0.0
 11
105.0125510737672698
 21
205.8461890913761749
 31
0.0
  0
LINE
  5
85
100
AcDbEntity
100
AcDbLine
  8
FORT
 62
256
370
-1
  6
ByLayer
 10
103.0130871990176047
 20
205.8461890913761749
 30
0.0
 11
103.0130871990176047
 21
209.8682696663751699
 31
0.0
  0
LINE
  5
86
100
AcDbEntity
100
AcDbLine
  8
FORT
 62
256
370
-1
  6
ByLayer
 10
103.0130871990176047
 20
211.8677335411247213
 30
0.0
 11
103.0130871990176047
 21
215.8898141161237163
 31
0.0
  0
LINE
  5
87
100
AcDbEntity
100
AcDbLine
  8
FORT
 62
256
370
-1
  6
ByLayer
 10
103.0130871990176047
 20
211.8677335411247213
 30
0.0
 11
101.2990878287349119
 21
211.8677335411247213
 31
0.0
  0
LINE
  5
88
100
AcDbEntity
100
AcDbLine
  8
FORT
 62
256
370
-1
  6
ByLayer
 10
103.0130871990176047
 20
209.8682696663751699
 30
0.0
 11
101.2990878287349119
 21
209.8682696663751699
 31
0.0
  0
ARC
  5
89
100
AcDbEntity
  8
FORT
 62
256
370
-1
  6
ByLayer
100
AcDbCircle
 10
77.0128191363958194
 20
210.8680016037500309
 30
0.0
 40
7.5
100
AcDbArc
 50
289.4712206345000141
 51
307.1235991441000124
  0
ARC
  5
8A
100
AcDbEntity
  8
FORT
 62
256
370
-1
  6
ByLayer
100
AcDbCircle
 10
77.0128191363958194
 20
210.8680016037500309
 30
0.0
 40
7.5
100
AcDbArc
 50
53.2704631559000035
 51
242.1818607153459482
  0
LINE
  5
8B
100
AcDbEntity
100
AcDbLine
  8
FORT
 62
256
370
-1
  6
ByLayer
 10
101.0128191363957626
 20
237.7739908359999959
 30
0.0
 11
96.0128191363957626
 21
237.7739908359999959
 31
0.0
  0
LINE
  5
8C
100
AcDbEntity
100
AcDbLine
  8
FORT
 62
256
370
-1
  6
ByLayer
 10
101.0128191363957626
 20
223.3680016037500309
 30
0.0
 11
96.0128191363957626
 21
223.3680016037500309
 31
0.0
  0
LINE
  5
8D
100
AcDbEntity
100
AcDbLine
  8
FORT
 62
256
370
-1
  6
ByLayer
 10
96.0128191363957626
 20
223.3680016037500309
 30
0.0
 11
96.0128191363957626
 21
260.8680016037500309
 31
0.0
  0
LINE
  5
8E
100
AcDbEntity
100
AcDbLine
  8
FORT
 62
256
370
-1
  6
ByLayer
 10
101.0128191363957626
 20
223.3680016037500309
 30
0.0
 11
101.0128191363957626
 21
260.8680016037500309
 31
0.0
  0
LINE
  5
8F
100
AcDbEntity
100
AcDbLine
  8
FORT
 62
256
370
-1
  6
ByLayer
 10
101.0128191363957626
 20
226.868001603749974
 30
0.0
 11
106.0128191363958194
 21
226.868001603749974
 31
0.0
  0
LINE
  5
90
100
AcDbEntity
100
AcDbLine
  8
FORT
 62
256
370
-1
  6
ByLayer
 10
106.0128191363958194
 20
239.8680016037500877
 30
0.0
 11
101.0128191363957626
 21
239.8680016037500877
 31
0.0
  0
LINE
  5
91
100
AcDbEntity
100
AcDbLine
  8
FORT
 62
256
370
-1
  6
ByLayer
 10
86.0128191363957626
 20
236.0474935279999613
 30
0.0
 11
96.0128191363957626
 21
236.0474935279999613
 31
0.0
  0
LINE
  5
92
100
AcDbEntity
100
AcDbLine
  8
FORT
 62
256
370
-1
  6
ByLayer
 10
106.0128191363958194
 20
239.8680016037500877
 30
0.0
 11
106.0128191363958194
 21
226.868001603749974
 31
0.0
  0
LINE
  5
93
100
AcDbEntity
100
AcDbLine
  8
FORT
 62
256
370
-1
  6
ByLayer
 10
86.0128191363957626
 20
239.7974935279999613
 30
0.0
 11
96.0128191363957626
 21
239.7974935279999613
 31
0.0
  0
LINE
  5
94
100
AcDbEntity
100
AcDbLine
  8
FORT
 62
256
370
-1
  6
ByLayer
 10
86.0128191363957626
 20
247.2974935279999613
 30
0.0
 11
96.0128191363957626
 21
247.2974935279999613
 31
0.0
  0
LINE
  5
95
100
AcDbEntity
100
AcDbLine
  8
FORT
 62
256
370
-1
  6
ByLayer
 10
116.5128191363957626
 20
241.3680016037501446
 30
0.0
 11
101.0128191363957626
 21
241.3680016037501446
 31
0.0
  0
LINE
  5
96
100
AcDbEntity
100
AcDbLine
  8
FORT
 62
256
370
-1
  6
ByLayer
 10
116.5128191363957626
 20
246.3680016037501446
 30
0.0
 11
101.0128191363957626
 21
246.3680016037501446
 31
0.0
  0
LINE
  5
97
100
AcDbEntity
100
AcDbLine
  8
FORT
 62
256
370
-1
  6
ByLayer
 10
94.5128191363958194
 20
260.8680016037500309
 30
0.0
 11
75.5128191363957626
 21
230.8680016037500309
 31
0.0
  0
LINE
  5
98
100
AcDbEntity
100
AcDbLine
  8
FORT
 62
256
370
-1
  6
ByLayer
 10
107.0128191363957626
 20
260.8680016037500309
 30
0.0
 11
94.5128191363958194
 21
260.8680016037500309
 31
0.0
  0
LINE
  5
99
100
AcDbEntity
100
AcDbLine
  8
FORT
 62
256
370
-1
  6
ByLayer
 10
86.0128191363957626
 20
236.0474935279999613
 30
0.0
 11
86.0128191363957626
 21
247.2974935279999613
 31
0.0
  0
ARC
  5
9A
100
AcDbEntity
  8
FORT
 62
256
370
-1
  6
ByLayer
100
AcDbCircle
 10
107.0128191363957626
 20
251.3680016037501446
 30
0.0
 40
9.5
100
AcDbArc
 50
0.0
 51
90.0
  0
LINE
  5
9B
100
AcDbEntity
100
AcDbLine
  8
FORT
 62
256
370
-1
  6
ByLayer
 10
116.5128191363957626
 20
195.8680016037500309
 30
0.0
 11
116.5128191363957626
 21
251.3680016037501446
 31
0.0
  0
LINE
  5
9C
100
AcDbEntity
100
AcDbLine
  8
FORT
 62
256
370
-1
  6
ByLayer
 10
75.5128191363957626
 20
230.8680016037500309
 30
0.0
 11
96.0128191363957626
 21
230.8680016037500309
 31
0.0
  0
LINE
  5
9D
100
AcDbEntity
100
AcDbLine
  8
FORT
 62
256
370
-1
  6
ByLayer
 10
62.0128191363958194
 20
184.368001603749974
 30
0.0
 11
27.0128191363958194
 21
184.368001603749974
 31
0.0
  0
LINE
  5
9E
100
AcDbEntity
100
AcDbLine
  8
FORT
 62
256
370
-1
  6
ByLayer
 10
27.0128191363958194
 20
159.368001603749974
 30
0.0
 11
62.0128191363958194
 21
159.368001603749974
 31
0.0
  0
LINE
  5
9F
100
AcDbEntity
100
AcDbLine
  8
FORT
 62
256
370
-1
  6
ByLayer
 10
27.0128191363958194
 20
159.368001603749974
 30
0.0
 11
27.0128191363958194
 21
184.368001603749974
 31
0.0
  0
LINE
  5
A0
100
AcDbEntity
100
AcDbLine
  8
FORT
 62
256
370
-1
  6
ByLayer
 10
62.0128191363958194
 20
154.2615951430000791
 30
0.0
 11
72.0128191363958194
 21
154.2615951430000791
 31
0.0
  0
LWPOLYLINE
  5
A1
  8
FORT
 62
256
370
-1
  6
ByLayer
100
AcDbEntity
100
AcDbPolyline
 90
11
 70
0
 10
96.0128191363957626
 20
128.2808330295000303
 10
97.57716378689571
 20
128.3874551277500302
 10
99.1029890801457327
 20
128.7046960320000437
 10
100.552724133895822
 20
129.2247442185000921
 10
101.8906716593958208
 20
129.9347943752500782
 10
103.0838869481457891
 20
130.8173627105001628
 10
104.1029890801458464
 20
131.8507174627499694
 10
104.9228843783957359
 20
133.0094140090001247
 10
105.5233842993957865
 20
134.2649213940000834
 10
105.8897025423958098
 20
135.5863248600000475
 10
106.0128191363958194
 20
136.9410870675001206
  0
LINE
  5
A2
100
AcDbEntity
100
AcDbLine
  8
FORT
 62
256
370
-1
  6
ByLayer
 10
96.0128191363957626
 20
128.2808330295000303
 30
0.0
 11
72.0128191363958194
 21
128.2808330295000303
 31
0.0
  0
LWPOLYLINE
  5
A3
  8
FORT
 62
256
370
-1
  6
ByLayer
100
AcDbEntity
100
AcDbPolyline
 90
11
 70
0
 10
62.0128191363958194
 20
136.9410870675001206
 10
62.1359357303958291
 20
135.5863248600000475
 10
62.5022539733958524
 20
134.2649213940000834
 10
63.1027538943957325
 20
133.0094140090001247
 10
63.9226491926458493
 20
131.8507174627499694
 10
64.9417513246458498
 20
130.8173627105001628
 10
66.1349666133957612
 20
129.9347943752500782
 10
67.4729141388957601
 20
129.2247442185000921
 10
68.9226491926458493
 20
128.7046960320000437
 10
70.4484744858957015
 20
128.3874551277500302
 10
72.0128191363958194
 20
128.2808330295000303
  0
LWPOLYLINE
  5
A4
  8
FORT
 62
256
370
-1
  6
ByLayer
100
AcDbEntity
100
AcDbPolyline
 90
11
 70
0
 10
106.0128191363958194
 20
135.1910870675000069
 10
105.8897025423958098
 20
133.8363248600000759
 10
105.5233842993957865
 20
132.5149213940001118
 10
104.9228843783957359
 20
131.259414009000011
 10
104.1029890801458464
 20
130.1007174627501399
 10
103.0838869481457891
 20
129.0673627105000492
 10
101.8906716593958208
 20
128.1847943752499646
 10
100.552724133895822
 20
127.4747442185001205
 10
99.1029890801457327
 20
126.9546960320000721
 10
97.57716378689571
 20
126.6374551277500586
 10
96.0128191363957626
 20
126.5308330295000587
  0
LINE
  5
A5
100
AcDbEntity
100
AcDbLine
  8
FORT
 62
256
370
-1
  6
ByLayer
 10
96.0128191363957626
 20
126.5308330295000587
 30
0.0
 11
72.0128191363958194
 21
126.5308330295000587
 31
0.0
  0
LWPOLYLINE
  5
A6
  8
FORT
 62
256
370
-1
  6
ByLayer
100
AcDbEntity
100
AcDbPolyline
 90
11
 70
0
 10
72.0128191363958194
 20
126.5308330295000587
 10
70.4484744858957015
 20
126.6374551277500586
 10
68.9226491926458493
 20
126.9546960320000721
 10
67.4729141388957601
 20
127.4747442185001205
 10
66.1349666133957612
 20
128.1847943752499646
 10
64.9417513246458498
 20
129.0673627105000492
 10
63.9226491926458493
 20
130.1007174627501399
 10
63.1027538943957325
 20
131.259414009000011
 10
62.5022539733958524
 20
132.5149213940001118
 10
62.1359357303958291
 20
133.8363248600000759
 10
62.0128191363958194
 20
135.1910870675000069
  0
LWPOLYLINE
  5
A7
  8
FORT
 62
256
370
-1
  6
ByLayer
100
AcDbEntity
100
AcDbPolyline
 90
11
 70
0
 10
106.0128191363958194
 20
129.8160870675000638
 10
105.8897025423958098
 20
128.4613248599999906
 10
105.5233842993957865
 20
127.1399213940001687
 10
104.9228843783957359
 20
125.8844140090000678
 10
104.1029890801458464
 20
124.7257174627500547
 10
103.0838869481457891
 20
123.692362710500106
 10
101.8906716593958208
 20
122.8097943752500214
 10
100.552724133895822
 20
122.0997442185000352
 10
99.1029890801457327
 20
121.579696032000129
 10
97.57716378689571
 20
121.2624551277501155
 10
96.0128191363957626
 20
121.1558330295001156
  0
LWPOLYLINE
  5
A8
  8
FORT
 62
256
370
-1
  6
ByLayer
100
AcDbEntity
100
AcDbPolyline
 90
11
 70
0
 10
96.0128191363957626
 20
122.9058330295000872
 10
97.57716378689571
 20
123.0124551277500871
 10
99.1029890801457327
 20
123.3296960320001006
 10
100.552724133895822
 20
123.8497442185000068
 10
101.8906716593958208
 20
124.5597943752501351
 10
103.0838869481457891
 20
125.4423627105000776
 10
104.1029890801458464
 20
126.4757174627500262
 10
104.9228843783957359
 20
127.6344140090000394
 10
105.5233842993957865
 20
128.8899213939999981
 10
105.8897025423958098
 20
130.2113248600001043
 10
106.0128191363958194
 20
131.5660870675000353
  0
LINE
  5
A9
100
AcDbEntity
100
AcDbLine
  8
FORT
 62
256
370
-1
  6
ByLayer
 10
96.0128191363957626
 20
122.9058330295000872
 30
0.0
 11
72.0128191363958194
 21
122.9058330295000872
 31
0.0
  0
LWPOLYLINE
  5
AA
  8
FORT
 62
256
370
-1
  6
ByLayer
100
AcDbEntity
100
AcDbPolyline
 90
11
 70
0
 10
62.0128191363958194
 20
131.5660870675000353
 10
62.1359357303958291
 20
130.2113248600001043
 10
62.5022539733958524
 20
128.8899213939999981
 10
63.1027538943957325
 20
127.6344140090000394
 10
63.9226491926458493
 20
126.4757174627500262
 10
64.9417513246458498
 20
125.4423627105000776
 10
66.1349666133957612
 20
124.5597943752501351
 10
67.4729141388957601
 20
123.8497442185000068
 10
68.9226491926458493
 20
123.3296960320001006
 10
70.4484744858957015
 20
123.0124551277500871
 10
72.0128191363958194
 20
122.9058330295000872
  0
LINE
  5
AB
100
AcDbEntity
100
AcDbLine
  8
FORT
 62
256
370
-1
  6
ByLayer
 10
96.0128191363957626
 20
121.1558330295001156
 30
0.0
 11
72.0128191363958194
 21
121.1558330295001156
 31
0.0
  0
LWPOLYLINE
  5
AC
  8
FORT
 62
256
370
-1
  6
ByLayer
100
AcDbEntity
100
AcDbPolyline
 90
11
 70
0
 10
72.0128191363958194
 20
121.1558330295001156
 10
70.4484744858957015
 20
121.2624551277501155
 10
68.9226491926458493
 20
121.579696032000129
 10
67.4729141388957601
 20
122.0997442185000352
 10
66.1349666133957612
 20
122.8097943752500214
 10
64.9417513246458498
 20
123.692362710500106
 10
63.9226491926458493
 20
124.7257174627500547
 10
63.1027538943957325
 20
125.8844140090000678
 10
62.5022539733958524
 20
127.1399213940001687
 10
62.1359357303958291
 20
128.4613248599999906
 10
62.0128191363958194
 20
129.8160870675000638
  0
LWPOLYLINE
  5
AD
  8
FORT
 62
256
370
-1
  6
ByLayer
100
AcDbEntity
100
AcDbPolyline
 90
11
 70
0
 10
96.0128191363957626
 20
117.5234711295000238
 10
97.57716378689571
 20
117.6300932277500237
 10
99.1029890801457327
 20
117.9473341320000372
 10
100.552724133895822
 20
118.4673823185000856
 10
101.8906716593958208
 20
119.1774324752500718
 10
103.0838869481457891
 20
120.0600008105000143
 10
104.1029890801458464
 20
121.093355562750105
 10
104.9228843783957359
 20
122.2520521089999761
 10
105.5233842993957865
 20
123.5075594940000769
 10
105.8897025423958098
 20
124.828962960000041
 10
106.0128191363958194
 20
126.183725167499972
  0
LINE
  5
AE
100
AcDbEntity
100
AcDbLine
  8
FORT
 62
256
370
-1
  6
ByLayer
 10
96.0128191363957626
 20
117.5234711295000238
 30
0.0
 11
72.0128191363958194
 21
117.5234711295000238
 31
0.0
  0
LWPOLYLINE
  5
AF
  8
FORT
 62
256
370
-1
  6
ByLayer
100
AcDbEntity
100
AcDbPolyline
 90
11
 70
0
 10
62.0128191363958194
 20
126.183725167499972
 10
62.1359357303958291
 20
124.828962960000041
 10
62.5022539733958524
 20
123.5075594940000769
 10
63.1027538943957325
 20
122.2520521089999761
 10
63.9226491926458493
 20
121.093355562750105
 10
64.9417513246458498
 20
120.0600008105000143
 10
66.1349666133957612
 20
119.1774324752500718
 10
67.4729141388957601
 20
118.4673823185000856
 10
68.9226491926458493
 20
117.9473341320000372
 10
70.4484744858957015
 20
117.6300932277500237
 10
72.0128191363958194
 20
117.5234711295000238
  0
LWPOLYLINE
  5
B0
  8
FORT
 62
256
370
-1
  6
ByLayer
100
AcDbEntity
100
AcDbPolyline
 90
11
 70
0
 10
106.0128191363958194
 20
124.4410870675001206
 10
105.8897025423958098
 20
123.0863248600000475
 10
105.5233842993957865
 20
121.7649213940000834
 10
104.9228843783957359
 20
120.5094140090001247
 10
104.1029890801458464
 20
119.3507174627499694
 10
103.0838869481457891
 20
118.3173627105001628
 10
101.8906716593958208
 20
117.4347943752500782
 10
100.552724133895822
 20
116.7247442185000921
 10
99.1029890801457327
 20
116.2046960320000437
 10
97.57716378689571
 20
115.8874551277500302
 10
96.0128191363957626
 20
115.7808330295000303
  0
LINE
  5
B1
100
AcDbEntity
100
AcDbLine
  8
FORT
 62
256
370
-1
  6
ByLayer
 10
96.0128191363957626
 20
115.7808330295000303
 30
0.0
 11
72.0128191363958194
 21
115.7808330295000303
 31
0.0
  0
LWPOLYLINE
  5
B2
  8
FORT
 62
256
370
-1
  6
ByLayer
100
AcDbEntity
100
AcDbPolyline
 90
11
 70
0
 10
72.0128191363958194
 20
115.7808330295000303
 10
70.4484744858957015
 20
115.8874551277500302
 10
68.9226491926458493
 20
116.2046960320000437
 10
67.4729141388957601
 20
116.7247442185000921
 10
66.1349666133957612
 20
117.4347943752500782
 10
64.9417513246458498
 20
118.3173627105001628
 10
63.9226491926458493
 20
119.3507174627499694
 10
63.1027538943957325
 20
120.5094140090001247
 10
62.5022539733958524
 20
121.7649213940000834
 10
62.1359357303958291
 20
123.0863248600000475
 10
62.0128191363958194
 20
124.4410870675001206
  0
LINE
  5
B3
100
AcDbEntity
100
AcDbLine
  8
FORT
 62
256
370
-1
  6
ByLayer
 10
106.0128191363958194
 20
164.368001603749974
 30
0.0
 11
106.0128191363958194
 21
126.183725167499972
 31
0.0
  0
LINE
  5
B4
100
AcDbEntity
100
AcDbLine
  8
FORT
 62
256
370
-1
  6
ByLayer
 10
93.7628191363958194
 20
139.6693151940000348
 30
0.0
 11
87.2628191363957626
 21
139.6693151940000348
 31
0.0
  0
LINE
  5
B5
100
AcDbEntity
100
AcDbLine
  8
FORT
 62
256
370
-1
  6
ByLayer
 10
87.2628191363957626
 20
139.6693151940000348
 30
0.0
 11
87.2628191363957626
 21
200.5345338290898667
 31
0.0
  0
LINE
  5
B6
100
AcDbEntity
100
AcDbLine
  8
FORT
 62
256
370
-1
  6
ByLayer
 10
93.7628191363958194
 20
200.5345338290898098
 30
0.0
 11
93.7628191363958194
 21
139.6693151940000348
 31
0.0
  0
LINE
  5
B7
100
AcDbEntity
100
AcDbLine
  8
FORT
 62
256
370
-1
  6
ByLayer
 10
114.5128191363957626
 20
159.368001603749974
 30
0.0
 11
114.5128191363957626
 21
144.368001603749974
 31
0.0
  0
LINE
  5
B8
100
AcDbEntity
100
AcDbLine
  8
FORT
 62
256
370
-1
  6
ByLayer
 10
114.5128191363957626
 20
179.368001603749974
 30
0.0
 11
114.5128191363957626
 21
164.368001603749974
 31
0.0
  0
LINE
  5
B9
100
AcDbEntity
100
AcDbLine
  8
FORT
 62
256
370
-1
  6
ByLayer
 10
114.5128191363957626
 20
179.368001603749974
 30
0.0
 11
106.0128191363958194
 21
179.368001603749974
 31
0.0
  0
LINE
  5
BA
100
AcDbEntity
100
AcDbLine
  8
FORT
 62
256
370
-1
  6
ByLayer
 10
114.5128191363957626
 20
159.368001603749974
 30
0.0
 11
106.0128191363958194
 21
159.368001603749974
 31
0.0
  0
LINE
  5
BB
100
AcDbEntity
100
AcDbLine
  8
FORT
 62
256
370
-1
  6
ByLayer
 10
106.0128191363958194
 20
144.368001603749974
 30
0.0
 11
114.5128191363957626
 21
144.368001603749974
 31
0.0
  0
LINE
  5
BC
100
AcDbEntity
100
AcDbLine
  8
FORT
 62
256
370
-1
  6
ByLayer
 10
101.0128191363957626
 20
164.368001603749974
 30
0.0
 11
114.5128191363957626
 21
164.368001603749974
 31
0.0
  0
LINE
  5
BD
100
AcDbEntity
100
AcDbLine
  8
FORT
 62
256
370
-1
  6
ByLayer
 10
111.0128191363958194
 20
179.368001603749974
 30
0.0
 11
111.0128191363958194
 21
164.368001603749974
 31
0.0
  0
LINE
  5
BE
100
AcDbEntity
100
AcDbLine
  8
FORT
 62
256
370
-1
  6
ByLayer
 10
111.0128191363958194
 20
159.368001603749974
 30
0.0
 11
111.0128191363958194
 21
144.368001603749974
 31
0.0
  0
LINE
  5
BF
100
AcDbEntity
100
AcDbLine
  8
FORT
 62
256
370
-1
  6
ByLayer
 10
106.6794858030519322
 20
159.368001603749974
 30
0.0
 11
110.0128191364894406
 21
164.368001603749974
 31
0.0
  0
ARC
  5
C0
100
AcDbEntity
  8
FORT
 62
256
370
-1
  6
ByLayer
100
AcDbCircle
 10
90.5128191363957626
 20
210.8680016037500309
 30
0.0
 40
25.0
100
AcDbArc
 50
126.86989764584402
 51
199.9484435887999894
  0
ARC
  5
C1
100
AcDbEntity
  8
FORT
 62
256
370
-1
  6
ByLayer
100
AcDbCircle
 10
90.5128191363957626
 20
210.8680016037500309
 30
0.0
 40
25.0
100
AcDbArc
 50
308.3161344736657838
 51
51.6838655263342233
  0
LINE
  5
C2
100
AcDbEntity
100
AcDbLine
  8
FORT
 62
256
370
-1
  6
ByLayer
 10
112.9069776218958054
 20
221.9811319335000803
 30
0.0
 11
68.1186606508958334
 21
221.9811319335000803
 31
0.0
  0
LINE
  5
C3
100
AcDbEntity
100
AcDbLine
  8
FORT
 62
256
370
-1
  6
ByLayer
 10
73.5128191363957626
 20
205.5959656962501185
 30
0.0
 11
79.5128191363958194
 21
205.5959656962501185
 31
0.0
  0
CIRCLE
  5
C4
100
AcDbEntity
100
AcDbCircle
  8
FORT
 62
256
370
-1
  6
ByLayer
 10
90.5128191363957626
 20
210.8680016037500309
 30
0.0
 40
2.5
  0
LINE
  5
C5
100
AcDbEntity
100
AcDbLine
  8
FORT
 62
256
370
-1
  6
ByLayer
 10
67.0128191363958194
 20
199.7474731822499621
 30
0.0
 11
73.5128191363957626
 21
199.7474731822499621
 31
0.0
  0
LINE
  5
C6
100
AcDbEntity
100
AcDbLine
  8
FORT
 62
256
370
-1
  6
ByLayer
 10
79.5128191363958194
 20
199.7474731822499621
 30
0.0
 11
87.2628191363957626
 21
199.7474731822499621
 31
0.0
  0
LINE
  5
C7
100
AcDbEntity
100
AcDbLine
  8
FORT
 62
256
370
-1
  6
ByLayer
 10
64.1725891936457629
 20
191.1305568837501028
 30
0.0
 11
65.5658085516457732
 21
212.4948583542500273
 31
0.0
  0
LINE
  5
C8
100
AcDbEntity
100
AcDbLine
  8
FORT
 62
256
370
-1
  6
ByLayer
 10
67.0128191363958194
 20
190.8680016037500309
 30
0.0
 11
67.0128191363958194
 21
202.3386405491340838
 31
0.0
  0
LINE
  5
C9
100
AcDbEntity
100
AcDbLine
  8
FORT
 62
256
370
-1
  6
ByLayer
 10
64.2015585488957754
 20
191.1430422690001478
 30
0.0
 11
62.0128191363958194
 21
190.1997263325000347
 31
0.0
  0
LINE
  5
CA
100
AcDbEntity
100
AcDbLine
  8
FORT
 62
256
370
-1
  6
ByLayer
 10
64.2015585488957754
 20
191.1430422690001478
 30
0.0
 11
67.0128191363958194
 21
191.1430422690001478
 31
0.0
  0
LINE
  5
CB
100
AcDbEntity
100
AcDbLine
  8
FORT
 62
256
370
-1
  6
ByLayer
 10
106.0128191363958194
 20
191.3239102562500875
 30
0.0
 11
101.0128191363957626
 21
191.3239102562500875
 31
0.0
  0
LINE
  5
CC
100
AcDbEntity
100
AcDbLine
  8
FORT
 62
256
370
-1
  6
ByLayer
 10
87.2628191363957626
 20
190.8680016037500309
 30
0.0
 11
79.5128191363958194
 21
190.8680016037500309
 31
0.0
  0
LINE
  5
CD
100
AcDbEntity
100
AcDbLine
  8
FORT
 62
256
370
-1
  6
ByLayer
 10
114.0128191363957626
 20
195.8680016037500309
 30
0.0
 11
116.5128191363957626
 21
195.8680016037500309
 31
0.0
  0
LINE
  5
CE
100
AcDbEntity
100
AcDbLine
  8
FORT
 62
256
370
-1
  6
ByLayer
 10
101.0128191363957626
 20
190.8680016037500309
 30
0.0
 11
93.7628191363958194
 21
190.8680016037500309
 31
0.0
  0
LINE
  5
CF
100
AcDbEntity
100
AcDbLine
  8
FORT
 62
256
370
-1
  6
ByLayer
 10
67.0128191363958194
 20
190.8680016037500309
 30
0.0
 11
73.5128191363957626
 21
190.8680016037500309
 31
0.0
  0
LINE
  5
D0
100
AcDbEntity
100
AcDbLine
  8
FORT
 62
256
370
-1
  6
ByLayer
 10
114.0128191363957626
 20
179.368001603749974
 30
0.0
 11
114.0128191363957626
 21
195.8680016037500309
 31
0.0
  0
LINE
  5
D1
100
AcDbEntity
100
AcDbLine
  8
FORT
 62
256
370
-1
  6
ByLayer
 10
73.5128191363957626
 20
178.3680016037500309
 30
0.0
 11
67.0128191363958194
 21
178.3680016037500309
 31
0.0
  0
LINE
  5
D2
100
AcDbEntity
100
AcDbLine
  8
FORT
 62
256
370
-1
  6
ByLayer
 10
86.0128191363957626
 20
185.618001603749974
 30
0.0
 11
81.0128191363957626
 21
185.618001603749974
 31
0.0
  0
LINE
  5
D3
100
AcDbEntity
100
AcDbLine
  8
FORT
 62
256
370
-1
  6
ByLayer
 10
96.0128191363957626
 20
177.3680016037500877
 30
0.0
 11
93.7628191363958194
 21
179.6180016037500309
 31
0.0
  0
LINE
  5
D4
100
AcDbEntity
100
AcDbLine
  8
FORT
 62
256
370
-1
  6
ByLayer
 10
67.0128191363958194
 20
182.8680016037500593
 30
0.0
 11
72.0128191363958194
 21
182.8680016037500593
 31
0.0
  0
LINE
  5
D5
100
AcDbEntity
100
AcDbLine
  8
FORT
 62
256
370
-1
  6
ByLayer
 10
87.2628191363957626
 20
181.1152039267498708
 30
0.0
 11
79.5128191363958194
 21
181.1152039267498708
 31
0.0
  0
LINE
  5
D6
100
AcDbEntity
100
AcDbLine
  8
FORT
 62
256
370
-1
  6
ByLayer
 10
114.0128191363957626
 20
181.0893649320000236
 30
0.0
 11
101.0128191363957626
 21
181.0893649320000236
 31
0.0
  0
LINE
  5
D7
100
AcDbEntity
100
AcDbLine
  8
FORT
 62
256
370
-1
  6
ByLayer
 10
81.0128191363957626
 20
185.6176867432500615
 30
0.0
 11
81.0128191363957626
 21
181.1152039267498708
 31
0.0
  0
LINE
  5
D8
100
AcDbEntity
100
AcDbLine
  8
FORT
 62
256
370
-1
  6
ByLayer
 10
86.0128191363957626
 20
185.6176867432500615
 30
0.0
 11
86.0128191363957626
 21
181.1152039267498708
 31
0.0
  0
LINE
  5
D9
100
AcDbEntity
100
AcDbLine
  8
FORT
 62
256
370
-1
  6
ByLayer
 10
72.0128191363958194
 20
178.3680016037500309
 30
0.0
 11
72.0128191363958194
 21
190.8680016037500309
 31
0.0
  0
LINE
  5
DA
100
AcDbEntity
100
AcDbLine
  8
FORT
 62
256
370
-1
  6
ByLayer
 10
106.0128191363958194
 20
191.3239102562500875
 30
0.0
 11
106.0128191363958194
 21
173.5026091325000834
 31
0.0
  0
LINE
  5
DB
100
AcDbEntity
100
AcDbLine
  8
FORT
 62
256
370
-1
  6
ByLayer
 10
106.0128191363958194
 20
176.7592379130000495
 30
0.0
 11
101.0128191363957626
 21
176.7592379130000495
 31
0.0
  0
LINE
  5
DC
100
AcDbEntity
100
AcDbLine
  8
FORT
 62
256
370
-1
  6
ByLayer
 10
101.0128191363957626
 20
173.5026091325000834
 30
0.0
 11
106.0128191363958194
 21
173.5026091325000834
 31
0.0
  0
LINE
  5
DD
100
AcDbEntity
100
AcDbLine
  8
AXE
 62
256
370
-1
  6
ByLayer
 10
94.9503364253649238
 20
141.4844748105517738
 30
0.0
 11
85.5753018474266582
 21
141.4844748105517738
 31
0.0
  0
LINE
  5
DE
100
AcDbEntity
100
AcDbLine
  8
FORT
 62
256
370
-1
  6
ByLayer
 10
93.7628191363958194
 20
145.3680016037500593
 30
0.0
 11
96.0128191363957626
 21
145.3680016037500593
 31
0.0
  0
LINE
  5
DF
100
AcDbEntity
100
AcDbLine
  8
FORT
 62
256
370
-1
  6
ByLayer
 10
79.5128191363958194
 20
138.1180131202500831
 30
0.0
 11
73.5128191363957626
 21
138.1180131202500831
 31
0.0
  0
LINE
  5
E0
100
AcDbEntity
100
AcDbLine
  8
FORT
 62
256
370
-1
  6
ByLayer
 10
81.0128191363957626
 20
143.1415708427500704
 30
0.0
 11
79.5128191363958194
 21
143.1415708427500704
 31
0.0
  0
LINE
  5
E1
100
AcDbEntity
100
AcDbLine
  8
FORT
 62
256
370
-1
  6
ByLayer
 10
73.5128191363957626
 20
143.1415708427500704
 30
0.0
 11
72.0128191363958194
 21
143.1415708427500704
 31
0.0
  0
LINE
  5
E2
100
AcDbEntity
100
AcDbLine
  8
FORT
 62
256
370
-1
  6
ByLayer
 10
72.0128191363958194
 20
136.9410870675001206
 30
0.0
 11
96.0128191363957626
 21
136.9410870675001206
 31
0.0
  0
LINE
  5
E3
100
AcDbEntity
100
AcDbLine
  8
FORT
 62
256
370
-1
  6
ByLayer
 10
101.0128191363957626
 20
154.2615951430000791
 30
0.0
 11
96.0128191363957626
 21
154.2615951430000791
 31
0.0
  0
LINE
  5
E4
100
AcDbEntity
100
AcDbLine
  8
FORT
 62
256
370
-1
  6
ByLayer
 10
67.0128191363958194
 20
165.3680016037500593
 30
0.0
 11
73.5128191363957626
 21
165.3680016037500593
 31
0.0
  0
LINE
  5
E5
100
AcDbEntity
100
AcDbLine
  8
FORT
 62
256
370
-1
  6
ByLayer
 10
96.0128191363957626
 20
158.3680016037500309
 30
0.0
 11
93.7628191363958194
 21
158.3680016037500309
 31
0.0
  0
LINE
  5
E6
100
AcDbEntity
100
AcDbLine
  8
FORT
 62
256
370
-1
  6
ByLayer
 10
93.7628191363958194
 20
164.1180016037500593
 30
0.0
 11
96.0128191363957626
 21
166.3680016037501446
 31
0.0
  0
LINE
  5
E7
100
AcDbEntity
100
AcDbLine
  8
FORT
 62
256
370
-1
  6
ByLayer
 10
81.0128191363957626
 20
160.8652371322500301
 30
0.0
 11
79.5128191363958194
 21
160.8652371322500301
 31
0.0
  0
LINE
  5
E8
100
AcDbEntity
100
AcDbLine
  8
FORT
 62
256
370
-1
  6
ByLayer
 10
87.2628191363957626
 20
162.6207992807500773
 30
0.0
 11
79.5128191363958194
 21
162.6207992807500773
 31
0.0
  0
LINE
  5
E9
100
AcDbEntity
100
AcDbLine
  8
FORT
 62
256
370
-1
  6
ByLayer
 10
67.0128191363958194
 20
160.8680016037500309
 30
0.0
 11
73.5128191363957626
 21
160.8680016037500309
 31
0.0
  0
LINE
  5
EA
100
AcDbEntity
100
AcDbLine
  8
FORT
 62
256
370
-1
  6
ByLayer
 10
96.0128191363957626
 20
136.9410870675001206
 30
0.0
 11
96.0128191363957626
 21
190.8680016037500309
 31
0.0
  0
LINE
  5
EB
100
AcDbEntity
100
AcDbLine
  8
FORT
 62
256
370
-1
  6
ByLayer
 10
101.0128191363957626
 20
154.2615951430000791
 30
0.0
 11
101.0128191363957626
 21
190.8189806120000469
 31
0.0
  0
LINE
  5
EC
100
AcDbEntity
100
AcDbLine
  8
FORT
 62
256
370
-1
  6
ByLayer
 10
67.0128191363958194
 20
182.8680016037500593
 30
0.0
 11
67.0128191363958194
 21
160.8680016037500309
 31
0.0
  0
LINE
  5
ED
100
AcDbEntity
100
AcDbLine
  8
FORT
 62
256
370
-1
  6
ByLayer
 10
72.0128191363958194
 20
136.9410870675001206
 30
0.0
 11
72.0128191363958194
 21
165.3680016037500593
 31
0.0
  0
LINE
  5
EE
100
AcDbEntity
100
AcDbLine
  8
FORT
 62
256
370
-1
  6
ByLayer
 10
87.2628191363957626
 20
158.3680016037500309
 30
0.0
 11
86.0128191363957626
 21
158.3680016037500309
 31
0.0
  0
LINE
  5
EF
100
AcDbEntity
100
AcDbLine
  8
FORT
 62
256
370
-1
  6
ByLayer
 10
81.0128191363957626
 20
162.6207992807500773
 30
0.0
 11
81.0128191363957626
 21
136.9410870675001206
 31
0.0
  0
LINE
  5
F0
100
AcDbEntity
100
AcDbLine
  8
FORT
 62
256
370
-1
  6
ByLayer
 10
86.0128191363957626
 20
162.6207992807500773
 30
0.0
 11
86.0128191363957626
 21
136.9410870675001206
 31
0.0
  0
LINE
  5
F1
100
AcDbEntity
100
AcDbLine
  8
FORT
 62
256
370
-1
  6
ByLayer
 10
87.2628191363957626
 20
145.3680016037499172
 30
0.0
 11
86.0128191363957626
 21
145.3680016037499172
 31
0.0
  0
LINE
  5
F2
100
AcDbEntity
100
AcDbLine
  8
FORT
 62
256
370
-1
  6
ByLayer
 10
73.5128191363957626
 20
205.5959656962501185
 30
0.0
 11
73.5128191363957626
 21
138.1180131202500831
 31
0.0
  0
LINE
  5
F3
100
AcDbEntity
100
AcDbLine
  8
FORT
 62
256
370
-1
  6
ByLayer
 10
79.5128191363958194
 20
205.5959656962501185
 30
0.0
 11
79.5128191363958194
 21
138.1180131202500831
 31
0.0
  0
LINE
  5
F4
100
AcDbEntity
100
AcDbLine
  8
FORT
 62
256
370
-1
  6
ByLayer
 10
62.0128191363958194
 20
124.4410870675001206
 30
0.0
 11
62.0128191363958194
 21
190.1997263325000347
 31
0.0
  0
LINE
  5
F5
100
AcDbEntity
100
AcDbLine
  8
AXE
 62
256
370
-1
  6
ByLayer
 10
88.7003364253649238
 20
183.8245515176980973
 30
0.0
 11
79.3253018474266582
 21
183.8245515176980973
 31
0.0
  0
LINE
  5
F6
100
AcDbEntity
100
AcDbLine
  8
AXE
 62
256
370
-1
  6
ByLayer
 10
77.8253018474267719
 20
179.3220687011979066
 30
0.0
 11
88.9503364253648101
 21
179.3220687011979066
 31
0.0
  0
LINE
  5
F7
100
AcDbEntity
100
AcDbLine
  8
AXE
 62
256
370
-1
  6
ByLayer
 10
77.8253018474267719
 20
164.4139345063020698
 30
0.0
 11
88.9503364253648101
 21
164.4139345063020698
 31
0.0
  0
LINE
  5
F8
100
AcDbEntity
100
AcDbLine
  8
AXE
 62
256
370
-1
  6
ByLayer
 10
70.0620292000832592
 20
159.3220687011979066
 30
0.0
 11
82.7003364253648101
 21
159.3220687011979066
 31
0.0
  0
LINE
  5
F9
100
AcDbEntity
100
AcDbLine
  8
AXE
 62
256
370
-1
  6
ByLayer
 10
70.0620292000832592
 20
144.4139345063020698
 30
0.0
 11
82.7003364253648101
 21
144.4139345063020698
 31
0.0
  0
LINE
  5
FA
100
AcDbEntity
100
AcDbLine
  8
AXE
 62
256
370
-1
  6
ByLayer
 10
54.4367431983316123
 20
151.868001603749974
 30
0.0
 11
118.4851073395207663
 21
151.868001603749974
 31
0.0
  0
LINE
  5
FB
100
AcDbEntity
100
AcDbLine
  8
AXE
 62
256
370
-1
  6
ByLayer
 10
110.4178425681578801
 20
233.3680016037500309
 30
0.0
 11
92.2011803622711454
 21
233.3680016037500309
 31
0.0
  0
LINE
  5
FC
100
AcDbEntity
100
AcDbLine
  8
0
 62
7
370
-1
  6
CONTINUOUS
 10
231.2033783046458097
 20
210.868001603749974
 30
0.0
 11
231.2033783046458097
 21
210.868001603749974
 31
0.0
  0
LINE
  5
FD
100
AcDbEntity
100
AcDbLine
  8
0
 62
7
370
-1
  6
CONTINUOUS
 10
231.2033783046458097
 20
210.868001603749974
 30
0.0
 11
231.2033783046458097
 21
211.3720016037499363
 31
0.0
  0
LINE
  5
FE
100
AcDbEntity
100
AcDbLine
  8
0
 62
7
370
-1
  6
CONTINUOUS
 10
229.1948233403958852
 20
167.7242656585000304
 30
0.0
 11
229.6895870013958643
 21
167.6750659769999743
 31
0.0
  0
LINE
  5
FF
100
AcDbEntity
100
AcDbLine
  8
AXE
 62
256
370
-1
  6
ByLayer
 10
238.7033783046458097
 20
224.2596705008066067
 30
0.0
 11
238.7033783046458097
 21
242.4763327066933982
 31
0.0
  0
LINE
  5
100
100
AcDbEntity
100
AcDbLine
  8
AXE
 62
256
370
-1
  6
ByLayer
 10
247.8117094075891487
 20
233.368001603749974
 30
0.0
 11
229.5950472017024708
 21
233.368001603749974
 31
0.0
  0
LINE
  5
101
100
AcDbEntity
100
AcDbLine
  8
AXE
 62
256
370
-1
  6
ByLayer
 10
196.2033783046458097
 20
201.7596705008066067
 30
0.0
 11
196.2033783046458097
 21
219.9763327066933982
 31
0.0
  0
LINE
  5
102
100
AcDbEntity
100
AcDbLine
  8
AXE
 62
256
370
-1
  6
ByLayer
 10
205.3117094075891487
 20
210.868001603749974
 30
0.0
 11
187.0950472017024708
 21
210.868001603749974
 31
0.0
  0
LINE
  5
103
100
AcDbEntity
100
AcDbLine
  8
FORT
 62
256
370
-1
  6
ByLayer
 10
206.2033783046458097
 20
253.368001603749974
 30
0.0
 11
156.2033783046458097
 21
253.368001603749974
 31
0.0
  0
LINE
  5
104
100
AcDbEntity
100
AcDbLine
  8
FORT
 62
256
370
-1
  6
ByLayer
 10
156.2033783046458097
 20
244.3680016037499172
 30
0.0
 11
181.2033783046458097
 21
244.3680016037499172
 31
0.0
  0
LINE
  5
105
100
AcDbEntity
100
AcDbLine
  8
FORT
 62
256
370
-1
  6
ByLayer
 10
206.2033783046458097
 20
260.868001603749974
 30
0.0
 11
206.2033783046458097
 21
230.868001603749974
 31
0.0
  0
LINE
  5
106
100
AcDbEntity
100
AcDbLine
  8
FORT
 62
256
370
-1
  6
ByLayer
 10
206.2033783046458097
 20
260.868001603749974
 30
0.0
 11
211.2033783046458097
 21
260.868001603749974
 31
0.0
  0
LINE
  5
107
100
AcDbEntity
100
AcDbLine
  8
FORT
 62
256
370
-1
  6
ByLayer
 10
211.2033783046458097
 20
260.868001603749974
 30
0.0
 11
211.2033783046458097
 21
230.868001603749974
 31
0.0
  0
LINE
  5
108
100
AcDbEntity
100
AcDbLine
  8
FORT
 62
256
370
-1
  6
ByLayer
 10
227.6985688331457709
 20
239.7974935279999045
 30
0.0
 11
214.7081877763957323
 21
247.2974935279999045
 31
0.0
  0
ARC
  5
109
100
AcDbEntity
  8
FORT
 62
256
370
-1
  6
ByLayer
100
AcDbCircle
 10
221.2033783046458097
 20
243.5474935279999045
 30
0.0
 40
7.5
100
AcDbArc
 50
150.0
 51
330.0
  0
LINE
  5
10A
100
AcDbEntity
100
AcDbLine
  8
FORT
 62
256
370
-1
  6
ByLayer
 10
181.2033783046458097
 20
246.3680016037500877
 30
0.0
 11
206.2033783046458097
 21
246.3680016037500877
 31
0.0
  0
LINE
  5
10B
100
AcDbEntity
100
AcDbLine
  8
FORT
 62
256
370
-1
  6
ByLayer
 10
181.2033783046458097
 20
246.3680016037500877
 30
0.0
 11
181.2033783046458097
 21
251.3680016037500877
 31
0.0
  0
LINE
  5
10C
100
AcDbEntity
100
AcDbLine
  8
FORT
 62
256
370
-1
  6
ByLayer
 10
181.2033783046458097
 20
251.3680016037500877
 30
0.0
 11
206.2033783046458097
 21
251.3680016037500877
 31
0.0
  0
LINE
  5
10D
100
AcDbEntity
100
AcDbLine
  8
FORT
 62
256
370
-1
  6
ByLayer
 10
156.2033783046458097
 20
253.368001603749974
 30
0.0
 11
156.2033783046458097
 21
244.3680016037499172
 31
0.0
  0
LINE
  5
10E
100
AcDbEntity
100
AcDbLine
  8
FORT
 62
256
370
-1
  6
ByLayer
 10
181.2033783046458097
 20
245.126344216749942
 30
0.0
 11
206.2033783046458097
 21
245.126344216749942
 31
0.0
  0
LINE
  5
10F
100
AcDbEntity
100
AcDbLine
  8
FORT
 62
256
370
-1
  6
ByLayer
 10
181.2033783046458097
 20
230.868001603749974
 30
0.0
 11
222.9595013914976676
 21
230.868001603749974
 31
0.0
  0
ARC
  5
110
100
AcDbEntity
  8
FORT
 62
256
370
-1
  6
ByLayer
100
AcDbCircle
 10
252.3533783048957844
 20
249.8680016037500309
 30
0.0
 40
35.0
100
AcDbArc
 50
212.878349564399997
 51
232.8225400827000158
  0
CIRCLE
  5
111
100
AcDbEntity
100
AcDbCircle
  8
FORT
 62
256
370
-1
  6
ByLayer
 10
238.7033783046458097
 20
233.368001603749974
 30
0.0
 40
5.0
  0
LINE
  5
112
100
AcDbEntity
100
AcDbLine
  8
FORT
 62
256
370
-1
  6
ByLayer
 10
251.2033783046458097
 20
237.773990835999939
 30
0.0
 11
211.2033783046458097
 21
260.868001603749974
 31
0.0
  0
LINE
  5
113
100
AcDbEntity
100
AcDbLine
  8
FORT
 62
256
370
-1
  6
ByLayer
 10
251.2033783046458097
 20
223.368001603749974
 30
0.0
 11
251.2033783046458097
 21
237.773990835999939
 31
0.0
  0
LINE
  5
114
100
AcDbEntity
100
AcDbLine
  8
FORT
 62
256
370
-1
  6
ByLayer
 10
229.489651574395964
 20
223.368001603749974
 30
0.0
 11
251.2033783046458097
 21
223.368001603749974
 31
0.0
  0
LINE
  5
115
100
AcDbEntity
100
AcDbLine
  8
FORT
 62
256
370
-1
  6
ByLayer
 10
138.7033783046458097
 20
195.868001603749974
 30
0.0
 11
138.7033783046458097
 21
217.9390694155001142
 31
0.0
  0
LINE
  5
116
100
AcDbEntity
100
AcDbLine
  8
FORT
 62
256
370
-1
  6
ByLayer
 10
138.7033783046458097
 20
217.9390694155001142
 30
0.0
 11
146.6323104928957832
 21
225.868001603749974
 31
0.0
  0
LINE
  5
117
100
AcDbEntity
100
AcDbLine
  8
FORT
 62
256
370
-1
  6
ByLayer
 10
148.7033783046458097
 20
220.868001603749974
 30
0.0
 11
143.7033783046458097
 21
215.868001603749974
 31
0.0
  0
LINE
  5
118
100
AcDbEntity
100
AcDbLine
  8
FORT
 62
256
370
-1
  6
ByLayer
 10
143.7033783046458097
 20
215.868001603749974
 30
0.0
 11
143.7033783046458097
 21
200.868001603749974
 31
0.0
  0
LINE
  5
119
100
AcDbEntity
100
AcDbLine
  8
FORT
 62
256
370
-1
  6
ByLayer
 10
143.7033783046458097
 20
200.868001603749974
 30
0.0
 11
153.7033783046458097
 21
200.868001603749974
 31
0.0
  0
LINE
  5
11A
100
AcDbEntity
100
AcDbLine
  8
FORT
 62
256
370
-1
  6
ByLayer
 10
181.2033783046458097
 20
176.6096589905000371
 30
0.0
 11
181.2033783046458097
 21
245.126344216749942
 31
0.0
  0
LINE
  5
11B
100
AcDbEntity
100
AcDbLine
  8
FORT
 62
256
370
-1
  6
ByLayer
 10
148.7033783046458097
 20
202.3680016037500309
 30
0.0
 11
148.7033783046458097
 21
219.3680016037499172
 31
0.0
  0
LINE
  5
11C
100
AcDbEntity
100
AcDbLine
  8
FORT
 62
256
370
-1
  6
ByLayer
 10
138.7033783046458097
 20
195.868001603749974
 30
0.0
 11
181.2033783046458097
 21
195.868001603749974
 31
0.0
  0
LINE
  5
11D
100
AcDbEntity
100
AcDbLine
  8
FORT
 62
256
370
-1
  6
ByLayer
 10
146.6323104928957832
 20
225.868001603749974
 30
0.0
 11
181.2033783046458097
 21
225.868001603749974
 31
0.0
  0
LINE
  5
11E
100
AcDbEntity
100
AcDbLine
  8
FORT
 62
256
370
-1
  6
ByLayer
 10
153.7033783046458097
 20
219.3680016037499172
 30
0.0
 11
148.7033783046458097
 21
219.3680016037499172
 31
0.0
  0
LINE
  5
11F
100
AcDbEntity
100
AcDbLine
  8
FORT
 62
256
370
-1
  6
ByLayer
 10
148.7033783046458097
 20
202.3680016037500309
 30
0.0
 11
153.7033783046458097
 21
202.3680016037500309
 31
0.0
  0
LINE
  5
120
100
AcDbEntity
100
AcDbLine
  8
FORT
 62
256
370
-1
  6
ByLayer
 10
153.7033783046458097
 20
225.868001603749974
 30
0.0
 11
153.7033783046458097
 21
195.868001603749974
 31
0.0
  0
LINE
  5
121
100
AcDbEntity
100
AcDbLine
  8
FORT
 62
256
370
-1
  6
ByLayer
 10
148.7033783046458097
 20
210.868001603749974
 30
0.0
 11
153.7033783046458097
 21
210.868001603749974
 31
0.0
  0
LINE
  5
122
100
AcDbEntity
100
AcDbLine
  8
FORT
 62
256
370
-1
  6
ByLayer
 10
148.7033783046458097
 20
203.368001603749974
 30
0.0
 11
153.7033783046458097
 21
203.368001603749974
 31
0.0
  0
LINE
  5
123
100
AcDbEntity
100
AcDbLine
  8
FORT
 62
256
370
-1
  6
ByLayer
 10
153.7033783046458097
 20
220.868001603749974
 30
0.0
 11
148.7033783046458097
 21
220.868001603749974
 31
0.0
  0
CIRCLE
  5
124
100
AcDbEntity
100
AcDbCircle
  8
FORT
 62
256
370
-1
  6
ByLayer
 10
196.2033783046458097
 20
210.868001603749974
 30
0.0
 40
6.0
  0
LINE
  5
125
100
AcDbEntity
100
AcDbLine
  8
FORT
 62
256
370
-1
  6
ByLayer
 10
181.2033783046458097
 20
177.3680016037500309
 30
0.0
 11
156.2033783046458097
 21
177.3680016037500309
 31
0.0
  0
LINE
  5
126
100
AcDbEntity
100
AcDbLine
  8
FORT
 62
256
370
-1
  6
ByLayer
 10
156.2033783046458097
 20
168.368001603749974
 30
0.0
 11
181.2033783046458097
 21
168.368001603749974
 31
0.0
  0
LINE
  5
127
100
AcDbEntity
100
AcDbLine
  8
FORT
 62
256
370
-1
  6
ByLayer
 10
181.2033783046458097
 20
190.868001603749974
 30
0.0
 11
206.2033783046458097
 21
190.868001603749974
 31
0.0
  0
LINE
  5
128
100
AcDbEntity
100
AcDbLine
  8
FORT
 62
256
370
-1
  6
ByLayer
 10
181.2033783046458097
 20
144.0521106304999535
 30
0.0
 11
181.2033783046458097
 21
175.3680016037500025
 31
0.0
  0
LINE
  5
129
100
AcDbEntity
100
AcDbLine
  8
FORT
 62
256
370
-1
  6
ByLayer
 10
156.2033783046458097
 20
177.3680016037500309
 30
0.0
 11
156.2033783046458097
 21
168.368001603749974
 31
0.0
  0
ARC
  5
12A
100
AcDbEntity
  8
FORT
 62
256
370
-1
  6
ByLayer
100
AcDbCircle
 10
217.7033783046458097
 20
151.8680016037499172
 30
0.0
 40
33.7500000000000284
100
AcDbArc
 50
109.9220104155024131
 51
312.8395884070826583
  0
LINE
  5
12B
100
AcDbEntity
100
AcDbLine
  8
FORT
 62
256
370
-1
  6
ByLayer
 10
181.2033783046458097
 20
175.3680016037500025
 30
0.0
 11
193.4791652111313738
 21
175.3680016037500025
 31
0.0
  0
LINE
  5
12C
100
AcDbEntity
100
AcDbLine
  8
FORT
 62
256
370
-1
  6
ByLayer
 10
194.7487951074568286
 20
176.6096589905000371
 30
0.0
 11
181.2033783046458097
 21
176.6096589905000371
 31
0.0
  0
LINE
  5
12D
100
AcDbEntity
100
AcDbLine
  8
FORT
 62
256
370
-1
  6
ByLayer
 10
181.2033783046458097
 20
144.0521106304999535
 30
0.0
 11
185.104038114030061
 21
143.1304093074415107
 31
0.0
  0
LINE
  5
12E
100
AcDbEntity
100
AcDbLine
  8
FORT
 62
256
370
-1
  6
ByLayer
 10
239.80917013214588
 20
157.079647016999985
 30
0.0
 11
246.0878543096459339
 21
160.7046470169999566
 31
0.0
  0
LINE
  5
12F
100
AcDbEntity
100
AcDbLine
  8
FORT
 62
256
370
-1
  6
ByLayer
 10
230.4866458566459073
 20
151.6972851169999217
 30
0.0
 11
236.7780812188959203
 21
155.3296470170000134
 31
0.0
  0
LINE
  5
130
100
AcDbEntity
100
AcDbLine
  8
FORT
 62
256
370
-1
  6
ByLayer
 10
268.849203927645874
 20
128.2808330294999735
 30
0.0
 11
265.8181150143959144
 21
126.5308330295000019
 31
0.0
  0
LINE
  5
131
100
AcDbEntity
100
AcDbLine
  8
FORT
 62
256
370
-1
  6
ByLayer
 10
259.5394308371457441
 20
122.9058330295000303
 30
0.0
 11
256.5083419238957845
 21
121.1558330295000587
 31
0.0
  0
LINE
  5
132
100
AcDbEntity
100
AcDbLine
  8
FORT
 62
256
370
-1
  6
ByLayer
 10
250.2169065616457715
 20
117.523471129499967
 30
0.0
 11
247.1985688331457709
 21
115.7808330294999735
 31
0.0
  0
LINE
  5
133
100
AcDbEntity
100
AcDbLine
  8
FORT
 62
256
370
-1
  6
ByLayer
 10
263.3181150143959144
 20
130.860960048499976
 30
0.0
 11
257.0394308371457441
 21
127.2359600485000044
 31
0.0
  0
LINE
  5
134
100
AcDbEntity
100
AcDbLine
  8
FORT
 62
256
370
-1
  6
ByLayer
 10
254.0083419238957845
 20
125.4859600485000328
 30
0.0
 11
247.7169065616457715
 21
121.8535981484999411
 31
0.0
  0
LINE
  5
135
100
AcDbEntity
100
AcDbLine
  8
FORT
 62
256
370
-1
  6
ByLayer
 10
227.8070080156457493
 20
149.3680016037499172
 30
0.0
 11
247.1985688331948836
 21
115.7808330295282531
 31
0.0
  0
LINE
  5
136
100
AcDbEntity
100
AcDbLine
  8
FORT
 62
256
370
-1
  6
ByLayer
 10
250.2169065617565025
 20
117.5234711295639158
 30
0.0
 11
230.4866458566459073
 21
151.6972851169999217
 31
0.0
  0
LINE
  5
137
100
AcDbEntity
100
AcDbLine
  8
FORT
 62
256
370
-1
  6
ByLayer
 10
236.7780812188959203
 20
155.3296470170000134
 30
0.0
 11
256.5083419240627904
 21
121.1558330294665637
 31
0.0
  0
LINE
  5
138
100
AcDbEntity
100
AcDbLine
  8
FORT
 62
256
370
-1
  6
ByLayer
 10
259.5394308373354875
 20
122.9058330294272707
 30
0.0
 11
239.80917013214588
 21
157.079647016999985
 31
0.0
  0
LINE
  5
139
100
AcDbEntity
100
AcDbLine
  8
FORT
 62
256
370
-1
  6
ByLayer
 10
246.0878543096459339
 20
160.7046470169999566
 30
0.0
 11
265.8181150146180585
 21
126.5308330292241692
 31
0.0
  0
LINE
  5
13A
100
AcDbEntity
100
AcDbLine
  8
FORT
 62
256
370
-1
  6
ByLayer
 10
268.8492039279518053
 20
128.2808330292202186
 30
0.0
 11
253.849203927645874
 21
154.2615951430000223
 31
0.0
  0
CIRCLE
  5
13B
100
AcDbEntity
100
AcDbCircle
  8
FORT
 62
256
370
-1
  6
ByLayer
 10
217.7033783046458097
 20
151.8680016037499172
 30
0.0
 40
1.0
  0
CIRCLE
  5
13C
100
AcDbEntity
100
AcDbCircle
  8
FORT
 62
256
370
-1
  6
ByLayer
 10
252.3443944561458352
 20
171.8680016037499172
 30
0.0
 40
1.0
  0
CIRCLE
  5
13D
100
AcDbEntity
100
AcDbCircle
  8
FORT
 62
256
370
-1
  6
ByLayer
 10
252.3443944561458352
 20
171.8680016037499172
 30
0.0
 40
7.5
  0
CIRCLE
  5
13E
100
AcDbEntity
100
AcDbCircle
  8
FORT
 62
256
370
-1
  6
ByLayer
 10
252.3443944561458352
 20
171.8680016037499172
 30
0.0
 40
2.0
  0
ARC
  5
13F
100
AcDbEntity
  8
FORT
 62
256
370
-1
  6
ByLayer
100
AcDbCircle
 10
217.7033783046458097
 20
151.8680016037499172
 30
0.0
 40
8.0
100
AcDbArc
 50
18.2099568643000005
 51
341.7900431356999889
  0
CIRCLE
  5
140
100
AcDbEntity
100
AcDbCircle
  8
FORT
 62
256
370
-1
  6
ByLayer
 10
217.7033783046458097
 20
151.8680016037499172
 30
0.0
 40
2.0
  0
LINE
  5
141
100
AcDbEntity
100
AcDbLine
  8
FORT
 62
256
370
-1
  6
ByLayer
 10
207.5243388538958129
 20
187.3791954114999783
 30
0.0
 11
215.2033783046458097
 21
186.6155857839999612
 31
0.0
  0
LINE
  5
142
100
AcDbEntity
100
AcDbLine
  8
FORT
 62
256
370
-1
  6
ByLayer
 10
207.5243388538958129
 20
187.3791954114999783
 30
0.0
 11
208.0191025148959056
 21
192.3546560857500367
 31
0.0
  0
LINE
  5
143
100
AcDbEntity
100
AcDbLine
  8
FORT
 62
256
370
-1
  6
ByLayer
 10
208.0191025148959056
 20
192.3546560857500367
 30
0.0
 11
215.2033783046458097
 21
191.6402461395001069
 31
0.0
  0
LINE
  5
144
100
AcDbEntity
100
AcDbLine
  8
FORT
 62
256
370
-1
  6
ByLayer
 10
207.5243388538958129
 20
169.8791954114999783
 30
0.0
 11
215.2033783046458097
 21
169.1155857839999612
 31
0.0
  0
LINE
  5
145
100
AcDbEntity
100
AcDbLine
  8
FORT
 62
256
370
-1
  6
ByLayer
 10
207.5243388538958129
 20
169.8791954114999783
 30
0.0
 11
208.0191025148959056
 21
174.8546560857500367
 31
0.0
  0
LINE
  5
146
100
AcDbEntity
100
AcDbLine
  8
FORT
 62
256
370
-1
  6
ByLayer
 10
208.0191025148959056
 20
174.8546560857500367
 30
0.0
 11
215.2033783046458097
 21
174.1402461395001069
 31
0.0
  0
LINE
  5
147
100
AcDbEntity
100
AcDbLine
  8
FORT
 62
256
370
-1
  6
ByLayer
 10
231.2033783046458097
 20
202.3386405490000186
 30
0.0
 11
220.2033783046458097
 21
202.3386405490000186
 31
0.0
  0
LINE
  5
148
100
AcDbEntity
100
AcDbLine
  8
FORT
 62
256
370
-1
  6
ByLayer
 10
215.2033783046458097
 20
202.3386405490000186
 30
0.0
 11
206.2033783046458097
 21
202.3386405490000186
 31
0.0
  0
LINE
  5
149
100
AcDbEntity
100
AcDbLine
  8
FORT
 62
256
370
-1
  6
ByLayer
 10
225.7033783046458097
 20
138.0115951430000223
 30
0.0
 11
232.1985688331457709
 21
141.7615951430000223
 31
0.0
  0
ARC
  5
14A
100
AcDbEntity
  8
FORT
 62
256
370
-1
  6
ByLayer
100
AcDbCircle
 10
217.7033783046458097
 20
151.8680016037499172
 30
0.0
 40
16.0
100
AcDbArc
 50
135.9513743258999909
 51
300.0
  0
LINE
  5
14B
100
AcDbEntity
100
AcDbLine
  8
FORT
 62
256
370
-1
  6
ByLayer
 10
206.2033783046458097
 20
202.3386405490000186
 30
0.0
 11
206.2033783046458097
 21
162.9922993342500206
 31
0.0
  0
LINE
  5
14C
100
AcDbEntity
100
AcDbLine
  8
FORT
 62
256
370
-1
  6
ByLayer
 10
229.1948233403958852
 20
185.2242656585000304
 30
0.0
 11
229.6895870013958643
 21
190.1997263324999778
 31
0.0
  0
LINE
  5
14D
100
AcDbEntity
100
AcDbLine
  8
FORT
 62
256
370
-1
  6
ByLayer
 10
225.3027203816458837
 20
149.3680016037499172
 30
0.0
 11
227.8070080156457493
 21
149.3680016037499172
 31
0.0
  0
LINE
  5
14E
100
AcDbEntity
100
AcDbLine
  8
FORT
 62
256
370
-1
  6
ByLayer
 10
229.6895870013958643
 20
154.3680016037499172
 30
0.0
 11
225.3027203816458837
 21
154.3680016037499172
 31
0.0
  0
LINE
  5
14F
100
AcDbEntity
100
AcDbLine
  8
FORT
 62
256
370
-1
  6
ByLayer
 10
229.6895870013958643
 20
167.6750659769999743
 30
0.0
 11
229.6895870013958643
 21
154.3680016037499172
 31
0.0
  0
LINE
  5
150
100
AcDbEntity
100
AcDbLine
  8
FORT
 62
256
370
-1
  6
ByLayer
 10
229.1948233403958852
 20
167.7242656585000304
 30
0.0
 11
229.6895870013958643
 21
172.6997263324999778
 31
0.0
  0
LINE
  5
151
100
AcDbEntity
100
AcDbLine
  8
FORT
 62
256
370
-1
  6
ByLayer
 10
229.6895870013958643
 20
185.1750659769999743
 30
0.0
 11
229.6895870013958643
 21
172.6997263324999778
 31
0.0
  0
LINE
  5
152
100
AcDbEntity
100
AcDbLine
  8
FORT
 62
256
370
-1
  6
ByLayer
 10
220.2033783046458097
 20
173.643042269000091
 30
0.0
 11
229.6895870013958643
 21
172.6997263324999778
 31
0.0
  0
LINE
  5
153
100
AcDbEntity
100
AcDbLine
  8
FORT
 62
256
370
-1
  6
ByLayer
 10
220.2033783046458097
 20
159.4673436804999369
 30
0.0
 11
220.2033783046458097
 21
212.4948583542499705
 31
0.0
  0
LINE
  5
154
100
AcDbEntity
100
AcDbLine
  8
FORT
 62
256
370
-1
  6
ByLayer
 10
215.2033783046458097
 20
159.4673436804999369
 30
0.0
 11
215.2033783046458097
 21
212.4948583542499705
 31
0.0
  0
LINE
  5
155
100
AcDbEntity
100
AcDbLine
  8
FORT
 62
256
370
-1
  6
ByLayer
 10
220.2033783046458097
 20
186.1183819132499764
 30
0.0
 11
229.6895870013958643
 21
185.1750659770472112
 31
0.0
  0
LINE
  5
156
100
AcDbEntity
100
AcDbLine
  8
FORT
 62
256
370
-1
  6
ByLayer
 10
220.2033783046458097
 20
168.6183819132499764
 30
0.0
 11
229.6895870013958643
 21
167.6750659770472112
 31
0.0
  0
CIRCLE
  5
157
100
AcDbEntity
100
AcDbCircle
  8
FORT
 62
256
370
-1
  6
ByLayer
 10
252.3443944561458352
 20
171.8680016037499172
 30
0.0
 40
12.5
  0
LINE
  5
158
100
AcDbEntity
100
AcDbLine
  8
FORT
 62
256
370
-1
  6
ByLayer
 10
229.1948233403958852
 20
185.2242656585000304
 30
0.0
 11
229.6895870013958643
 21
185.1750659769999743
 31
0.0
  0
ARC
  5
159
100
AcDbEntity
  8
FORT
 62
256
370
-1
  6
ByLayer
100
AcDbCircle
 10
252.3443944561458352
 20
171.8680016037499172
 30
0.0
 40
16.0
100
AcDbArc
 50
300.0
 51
84.3211326576000033
  0
LINE
  5
15A
100
AcDbEntity
100
AcDbLine
  8
FORT
 62
256
370
-1
  6
ByLayer
 10
253.849203927645874
 20
154.2615951430000223
 30
0.0
 11
260.3443944561458352
 21
158.0115951430000223
 31
0.0
  0
LINE
  5
15B
100
AcDbEntity
100
AcDbLine
  8
FORT
 62
256
370
-1
  6
ByLayer
 10
253.9276381716458104
 20
187.7894757607500367
 30
0.0
 11
220.2033783046458097
 21
191.1430422688548276
 31
0.0
  0
LINE
  5
15C
100
AcDbEntity
100
AcDbLine
  8
FORT
 62
256
370
-1
  6
ByLayer
 10
276.2033783046458097
 20
221.7005016037500411
 30
0.0
 11
271.2033783046458097
 21
221.7005016037500411
 31
0.0
  0
ARC
  5
15D
100
AcDbEntity
  8
FORT
 62
256
370
-1
  6
ByLayer
100
AcDbCircle
 10
252.3443944561458352
 20
171.8680016037499172
 30
0.0
 40
27.0
100
AcDbArc
 50
283.8723797868000247
 51
137.979929563799999
  0
LINE
  5
15E
100
AcDbEntity
100
AcDbLine
  8
FORT
 62
256
370
-1
  6
ByLayer
 10
276.2033783046458097
 20
221.7005016037500411
 30
0.0
 11
276.2033783046458097
 21
200.0355016037500491
 31
0.0
  0
LINE
  5
15F
100
AcDbEntity
100
AcDbLine
  8
FORT
 62
256
370
-1
  6
ByLayer
 10
276.2033783046458097
 20
217.5636430592499551
 30
0.0
 11
271.2033783046458097
 21
217.5636430592499551
 31
0.0
  0
LINE
  5
160
100
AcDbEntity
100
AcDbLine
  8
FORT
 62
256
370
-1
  6
ByLayer
 10
276.2033783046458097
 20
204.1334056110000574
 30
0.0
 11
271.2033783046458097
 21
204.1334056110000574
 31
0.0
  0
LINE
  5
161
100
AcDbEntity
100
AcDbLine
  8
FORT
 62
256
370
-1
  6
ByLayer
 10
232.7033783046458097
 20
218.368001603749974
 30
0.0
 11
231.2033783046458097
 21
218.368001603749974
 31
0.0
  0
LINE
  5
162
100
AcDbEntity
100
AcDbLine
  8
FORT
 62
256
370
-1
  6
ByLayer
 10
231.2033783046458097
 20
203.368001603749974
 30
0.0
 11
232.7033783046458097
 21
203.368001603749974
 31
0.0
  0
LINE
  5
163
100
AcDbEntity
100
AcDbLine
  8
FORT
 62
256
370
-1
  6
ByLayer
 10
234.7033783046458097
 20
213.368001603749974
 30
0.0
 11
232.7033783046458097
 21
213.368001603749974
 31
0.0
  0
LINE
  5
164
100
AcDbEntity
100
AcDbLine
  8
FORT
 62
256
370
-1
  6
ByLayer
 10
232.7033783046458097
 20
208.368001603749974
 30
0.0
 11
234.7033783046458097
 21
208.368001603749974
 31
0.0
  0
LINE
  5
165
100
AcDbEntity
100
AcDbLine
  8
FORT
 62
256
370
-1
  6
ByLayer
 10
231.2033783046458097
 20
202.3386405490000186
 30
0.0
 11
231.2033783046458097
 21
221.9811319335000235
 31
0.0
  0
LINE
  5
166
100
AcDbEntity
100
AcDbLine
  8
FORT
 62
256
370
-1
  6
ByLayer
 10
232.7033783046458097
 20
218.368001603749974
 30
0.0
 11
232.7033783046458097
 21
203.368001603749974
 31
0.0
  0
ARC
  5
167
100
AcDbEntity
  8
FORT
 62
256
370
-1
  6
ByLayer
100
AcDbCircle
 10
252.3631293546458778
 20
171.8680016037499172
 30
0.0
 40
35.0
100
AcDbArc
 50
127.1974968783999884
 51
147.121650435600003
  0
LINE
  5
168
100
AcDbEntity
100
AcDbLine
  8
FORT
 62
256
370
-1
  6
ByLayer
 10
231.2033783046458097
 20
199.7474731822499052
 30
0.0
 11
231.2033783046458097
 21
202.3386405490000186
 31
0.0
  0
LINE
  5
169
100
AcDbEntity
100
AcDbLine
  8
AXE
 62
256
370
-1
  6
ByLayer
 10
233.052836519444952
 20
219.7629444758437103
 30
0.0
 11
274.2271065768518952
 21
219.762944475843824
 31
0.0
  0
LINE
  5
16A
100
AcDbEntity
100
AcDbLine
  8
FORT
 62
256
370
-1
  6
ByLayer
 10
234.7033783046458097
 20
221.7005016037501832
 30
0.0
 11
276.2033783046458097
 21
221.7005016037499843
 31
0.0
  0
LINE
  5
16B
100
AcDbEntity
100
AcDbLine
  8
AXE
 62
256
370
-1
  6
ByLayer
 10
286.8024992221712068
 20
210.8680016037499172
 30
0.0
 11
134.4603841987877217
 21
210.8680016037500593
 31
0.0
  0
LINE
  5
16C
100
AcDbEntity
100
AcDbLine
  8
FORT
 62
256
370
-1
  6
ByLayer
 10
234.7033783046458097
 20
221.7005016037501832
 30
0.0
 11
234.7033783046458097
 21
200.640506693549014
 31
0.0
  0
LINE
  5
16D
100
AcDbEntity
100
AcDbLine
  8
FORT
 62
256
370
-1
  6
ByLayer
 10
270.9361787640058878
 20
200.0355016037500491
 30
0.0
 11
276.2033783046458097
 21
200.0355016037500491
 31
0.0
  0
LINE
  5
16E
100
AcDbEntity
100
AcDbLine
  8
FORT
 62
256
370
-1
  6
ByLayer
 10
271.2033783046455824
 20
199.8573072078913526
 30
0.0
 11
271.2033783046458097
 21
221.7005016037503253
 31
0.0
  0
ARC
  5
16F
100
AcDbEntity
  8
FORT
 62
7
370
40
  6
CONTINUOUS
100
AcDbCircle
 10
252.3443944561458352
 20
171.8680016037499172
 30
0.0
 40
33.7500000000000142
100
AcDbArc
 50
287.16041159288568
 51
146.0220524667586233
  0
LINE
  5
170
100
AcDbEntity
100
AcDbLine
  8
AXE
 62
256
370
-1
  6
ByLayer
 10
214.709079391759758
 20
248.8680016037499456
 30
0.0
 11
152.0081248542412027
 21
248.8680016037499456
 31
0.0
  0
LINE
  5
171
100
AcDbEntity
100
AcDbLine
  8
AXE
 62
256
370
-1
  6
ByLayer
 10
199.663346033153914
 20
172.8680016037500025
 30
0.0
 11
152.0081248542412027
 21
172.8680016037500025
 31
0.0
  0
ARC
  5
172
100
AcDbEntity
  8
AXE
 62
3
370
20
  6
CENTERX2
100
AcDbCircle
 10
252.3443944561458352
 20
171.8680016037499172
 30
0.0
 40
32.0038994733567321
100
AcDbArc
 50
283.0256803183342527
 51
149.6919487205259713
  0
ARC
  5
173
100
AcDbEntity
  8
AXE
 62
3
370
20
  6
CENTERX2
100
AcDbCircle
 10
217.7033783046458097
 20
151.8680016037499172
 30
0.0
 40
32.0038994733567321
100
AcDbArc
 50
105.4728420496909536
 51
316.7286841628224465
  0
LINE
  5
174
100
AcDbEntity
100
AcDbLine
  8
AXE
 62
256
370
-1
  6
ByLayer
 10
180.3913484257784035
 20
151.8680016037499172
 30
0.0
 11
255.015408183513216
 21
151.8680016037499172
 31
0.0
  0
LINE
  5
175
100
AcDbEntity
100
AcDbLine
  8
AXE
 62
256
370
-1
  6
ByLayer
 10
217.7033783046458097
 20
121.723989938843431
 30
0.0
 11
217.7033783046456961
 21
186.9566515460573441
 31
0.0
  0
LINE
  5
176
100
AcDbEntity
100
AcDbLine
  8
AXE
 62
256
370
-1
  6
ByLayer
 10
221.0399938133995761
 20
171.8680016037498888
 30
0.0
 11
289.6564243350130141
 21
171.8680016037497467
 31
0.0
  0
MTEXT
  5
177
100
AcDbEntity
100
AcDbMText
  8
TEXTE
 62
7
370
-1
  6
CONTINUOUS
 10
324.1846363758129428
 20
234.7899833782184658
 30
0.0
 40
5.0
 41
100.0
 71
7
 72
2
  1
A-A
  7
ISO9
 50
360.0
 73
0
 44
1.0
  0
LINE
  5
178
100
AcDbEntity
100
AcDbLine
  8
FORT
 62
7
370
-1
  6
CONTINUOUS
 10
252.3443944561456078
 20
265.3968210988673491
 30
0.0
 11
249.5443944561456533
 21
264.4634880988674013
 31
0.0
  0
LINE
  5
179
100
AcDbEntity
100
AcDbLine
  8
FORT
 62
7
370
-1
  6
CONTINUOUS
 10
252.3443944561456078
 20
265.3968210988673491
 30
0.0
 11
249.5443944561456533
 21
266.3301540988674105
 31
0.0
  0
LINE
  5
17A
100
AcDbEntity
100
AcDbLine
  8
FORT
 62
7
370
-1
  6
CONTINUOUS
 10
242.9257834561456662
 20
265.3968210988673491
 30
0.0
 11
252.3443944561456078
 21
265.3968210988673491
 31
0.0
  0
MTEXT
  5
17B
100
AcDbEntity
100
AcDbMText
  8
TEXTE
 62
7
370
-1
  6
CONTINUOUS
 10
253.7169764561456873
 20
272.6035870988674219
 30
0.0
 40
5.0
 41
100.0
 71
9
 72
2
  1
A
  7
ISO9
 50
360.0
 73
0
 44
1.0
  0
LINE
  5
17C
100
AcDbEntity
100
AcDbLine
  8
FORT
 62
7
370
-1
  6
CONTINUOUS
 10
252.3443944561456078
 20
270.063488098867424
 30
0.0
 11
252.3443944561456078
 21
260.063488098867424
 31
0.0
  0
LINE
  5
17D
100
AcDbEntity
100
AcDbLine
  8
FORT
 62
7
370
-1
  6
CONTINUOUS
 10
171.1532184995289754
 20
124.9922543095323988
 30
0.0
 11
168.944928411338708
 21
126.9504589401288115
 31
0.0
  0
LINE
  5
17E
100
AcDbEntity
100
AcDbLine
  8
FORT
 62
7
370
-1
  6
CONTINUOUS
 10
171.1532184995289754
 20
124.9922543095323988
 30
0.0
 11
170.5615085877194019
 21
127.8837919401288161
 31
0.0
  0
LINE
  5
17F
100
AcDbEntity
100
AcDbLine
  8
FORT
 62
7
370
-1
  6
CONTINUOUS
 10
166.4439129995290045
 20
133.1490107038959252
 30
0.0
 11
171.1532184995289754
 21
124.9922543095323988
 31
0.0
  0
LINE
  5
180
100
AcDbEntity
100
AcDbLine
  8
FORT
 62
7
370
-1
  6
CONTINUOUS
 10
175.1946706725315721
 20
127.3255878095324363
 30
0.0
 11
166.5344166346871475
 21
122.3255878095324363
 31
0.0
  0
MTEXT
  5
181
100
AcDbEntity
100
AcDbMText
  8
TEXTE
 62
7
370
-1
  6
CONTINUOUS
 10
162.9741593116255842
 20
118.0140309657174242
 30
0.0
 40
5.0
 41
100.0
 71
9
 72
2
  1
A
  7
ISO9
 50
360.0
 73
0
 44
1.0
  0
LINE
  5
182
100
AcDbEntity
100
AcDbLine
  8
AXE
 62
256
370
-1
  6
ByLayer
 10
243.6841404182937936
 20
166.8680016037631617
 30
0.0
 11
175.1946706725315721
 21
127.3255878095324363
 31
0.0
  0
LINE
  5
183
100
AcDbEntity
100
AcDbLine
  8
AXE
 62
256
370
-1
  6
ByLayer
 10
252.3443944561456078
 20
181.8680016037499172
 30
0.0
 11
252.3443944561456078
 21
260.063488098867424
 31
0.0
  0
LINE
  5
184
100
AcDbEntity
100
AcDbLine
  8
FORT
 62
256
370
-1
  6
ByLayer
 10
252.3443944561458352
 20
171.8680016037499172
 30
0.0
 11
243.6841404182937936
 21
166.8680016037631617
 31
0.0
  0
LINE
  5
185
100
AcDbEntity
100
AcDbLine
  8
FORT
 62
256
370
-1
  6
ByLayer
 10
252.3443944561456078
 20
181.8680016037499172
 30
0.0
 11
252.3443944561458352
 21
171.8680016037499172
 31
0.0
  0
LINE
  5
186
100
AcDbEntity
100
AcDbLine
  8
AXE
 62
256
370
-1
  6
ByLayer
 10
399.5466688961538466
 20
171.8680016037500025
 30
0.0
 11
301.1139808581764896
 21
171.8680016037500025
 31
0.0
  0
LINE
  5
187
100
AcDbEntity
100
AcDbLine
  8
AXE
 62
256
370
-1
  6
ByLayer
 10
358.8072359321457725
 20
131.868001603749974
 30
0.0
 11
301.1139808581764896
 21
131.868001603749974
 31
0.0
  0
LINE
  5
188
100
AcDbEntity
100
AcDbLine
  8
AXE
 62
256
370
-1
  6
ByLayer
 10
314.237088343307903
 20
210.8680016037499172
 30
0.0
 11
346.3773835209838694
 21
210.8680016037499172
 31
0.0
  0
LINE
  5
189
100
AcDbEntity
100
AcDbLine
  8
AXE
 62
256
370
-1
  6
ByLayer
 10
330.3072359321458862
 20
194.7978540147871342
 30
0.0
 11
330.3072359321458862
 21
226.9381491924631007
 31
0.0
  0
LINE
  5
18A
100
AcDbEntity
100
AcDbLine
  8
FORT
 62
256
370
-1
  6
ByLayer
 10
324.8072359321457725
 20
187.9469147414999952
 30
0.0
 11
319.8072359321457725
 21
187.9469147414999952
 31
0.0
  0
LINE
  5
18B
100
AcDbEntity
100
AcDbLine
  8
FORT
 62
256
370
-1
  6
ByLayer
 10
319.8072359321457725
 20
187.9469147414999952
 30
0.0
 11
319.8072359321457725
 21
179.8680016037500309
 31
0.0
  0
LINE
  5
18C
100
AcDbEntity
100
AcDbLine
  8
FORT
 62
256
370
-1
  6
ByLayer
 10
314.8072359321457725
 20
181.0893649320000236
 30
0.0
 11
319.8072359321457725
 21
181.0893649320000236
 31
0.0
  0
LINE
  5
18D
100
AcDbEntity
100
AcDbLine
  8
FORT
 62
256
370
-1
  6
ByLayer
 10
314.8072359321457725
 20
179.8680016037500309
 30
0.0
 11
314.8072359321457725
 21
181.0893649320000236
 31
0.0
  0
LINE
  5
18E
100
AcDbEntity
100
AcDbLine
  8
FORT
 62
256
370
-1
  6
ByLayer
 10
309.8072359321457725
 20
179.8680016037500309
 30
0.0
 11
319.8072359321457725
 21
179.8680016037500309
 31
0.0
  0
LINE
  5
18F
100
AcDbEntity
100
AcDbLine
  8
FORT
 62
256
370
-1
  6
ByLayer
 10
314.8072359321457725
 20
163.8680016037500309
 30
0.0
 11
314.8072359321457725
 21
139.8680016037500309
 31
0.0
  0
LINE
  5
190
100
AcDbEntity
100
AcDbLine
  8
FORT
 62
256
370
-1
  6
ByLayer
 10
314.8072359321457725
 20
163.8680016037500309
 30
0.0
 11
309.8072359321457725
 21
163.8680016037500309
 31
0.0
  0
LINE
  5
191
100
AcDbEntity
100
AcDbLine
  8
FORT
 62
256
370
-1
  6
ByLayer
 10
319.8072359321457725
 20
123.8680016037500167
 30
0.0
 11
309.8072359321457725
 21
123.8680016037500167
 31
0.0
  0
LINE
  5
192
100
AcDbEntity
100
AcDbLine
  8
FORT
 62
256
370
-1
  6
ByLayer
 10
319.8072359321457725
 20
108.5359509249999945
 30
0.0
 11
324.8072359321457725
 21
108.5359509249999945
 31
0.0
  0
LINE
  5
193
100
AcDbEntity
100
AcDbLine
  8
FORT
 62
256
370
-1
  6
ByLayer
 10
319.8072359321457725
 20
123.8680016037500167
 30
0.0
 11
319.8072359321457725
 21
108.5359509249999945
 31
0.0
  0
LINE
  5
194
100
AcDbEntity
100
AcDbLine
  8
FORT
 62
256
370
-1
  6
ByLayer
 10
309.8072359321457725
 20
139.8680016037500309
 30
0.0
 11
314.8072359321457725
 21
139.8680016037500309
 31
0.0
  0
LINE
  5
195
100
AcDbEntity
100
AcDbLine
  8
FORT
 62
256
370
-1
  6
ByLayer
 10
393.8072359321457725
 20
164.368001603749974
 30
0.0
 11
393.8072359321457725
 21
179.368001603749974
 31
0.0
  0
LINE
  5
196
100
AcDbEntity
100
AcDbLine
  8
FORT
 62
256
370
-1
  6
ByLayer
 10
393.8072359321457725
 20
164.368001603749974
 30
0.0
 11
363.8072359321457725
 21
164.368001603749974
 31
0.0
  0
LINE
  5
197
100
AcDbEntity
100
AcDbLine
  8
FORT
 62
256
370
-1
  6
ByLayer
 10
358.8072359321457725
 20
184.368001603749974
 30
0.0
 11
393.8072359321457725
 21
184.368001603749974
 31
0.0
  0
LINE
  5
198
100
AcDbEntity
100
AcDbLine
  8
FORT
 62
256
370
-1
  6
ByLayer
 10
393.8072359321457725
 20
159.368001603749974
 30
0.0
 11
358.8072359321457725
 21
159.368001603749974
 31
0.0
  0
LINE
  5
199
100
AcDbEntity
100
AcDbLine
  8
FORT
 62
256
370
-1
  6
ByLayer
 10
348.8072359321457725
 20
187.9469147414999952
 30
0.0
 11
358.8072359321457725
 21
187.9469147414999952
 31
0.0
  0
LINE
  5
19A
100
AcDbEntity
100
AcDbLine
  8
FORT
 62
256
370
-1
  6
ByLayer
 10
353.8072359321457725
 20
182.8680016037500309
 30
0.0
 11
353.8072359321457725
 21
173.8680016037500309
 31
0.0
  0
LINE
  5
19B
100
AcDbEntity
100
AcDbLine
  8
FORT
 62
256
370
-1
  6
ByLayer
 10
393.8072359321457725
 20
179.368001603749974
 30
0.0
 11
393.8072359321457725
 21
184.368001603749974
 31
0.0
  0
LINE
  5
19C
100
AcDbEntity
100
AcDbLine
  8
FORT
 62
256
370
-1
  6
ByLayer
 10
358.8072359321457725
 20
184.368001603749974
 30
0.0
 11
358.8072359321457725
 21
187.9469147414999952
 31
0.0
  0
LINE
  5
19D
100
AcDbEntity
100
AcDbLine
  8
FORT
 62
256
370
-1
  6
ByLayer
 10
348.8072359321457725
 20
159.166295681500003
 30
0.0
 11
353.8072359321457725
 21
159.166295681500003
 31
0.0
  0
LINE
  5
19E
100
AcDbEntity
100
AcDbLine
  8
FORT
 62
256
370
-1
  6
ByLayer
 10
353.8072359321457725
 20
169.8680016037500309
 30
0.0
 11
353.8072359321457725
 21
159.166295681500003
 31
0.0
  0
LINE
  5
19F
100
AcDbEntity
100
AcDbLine
  8
FORT
 62
256
370
-1
  6
ByLayer
 10
393.8072359321457725
 20
159.368001603749974
 30
0.0
 11
393.8072359321457725
 21
164.368001603749974
 31
0.0
  0
LINE
  5
1A0
100
AcDbEntity
100
AcDbLine
  8
FORT
 62
256
370
-1
  6
ByLayer
 10
348.8072359321457725
 20
161.8930365776918165
 30
0.0
 11
348.8072359321457725
 21
133.8680016037500309
 31
0.0
  0
LINE
  5
1A1
100
AcDbEntity
100
AcDbLine
  8
FORT
 62
256
370
-1
  6
ByLayer
 10
353.8072359321457725
 20
182.8680016037500309
 30
0.0
 11
348.8072359321457725
 21
182.8680016037500309
 31
0.0
  0
LINE
  5
1A2
100
AcDbEntity
100
AcDbLine
  8
FORT
 62
256
370
-1
  6
ByLayer
 10
348.8072359321457725
 20
187.9469147414999952
 30
0.0
 11
348.8072359321457725
 21
182.8680016037500309
 31
0.0
  0
LINE
  5
1A3
100
AcDbEntity
100
AcDbLine
  8
FORT
 62
256
370
-1
  6
ByLayer
 10
363.8072359321457725
 20
179.368001603749974
 30
0.0
 11
393.8072359321457725
 21
179.368001603749974
 31
0.0
  0
LINE
  5
1A4
100
AcDbEntity
100
AcDbLine
  8
FORT
 62
256
370
-1
  6
ByLayer
 10
363.8072359321457725
 20
164.368001603749974
 30
0.0
 11
363.8072359321457725
 21
179.368001603749974
 31
0.0
  0
LINE
  5
1A5
100
AcDbEntity
100
AcDbLine
  8
FORT
 62
256
370
-1
  6
ByLayer
 10
363.8072359321457725
 20
169.8680016037500309
 30
0.0
 11
353.8072359321457725
 21
169.8680016037500309
 31
0.0
  0
LINE
  5
1A6
100
AcDbEntity
100
AcDbLine
  8
FORT
 62
256
370
-1
  6
ByLayer
 10
353.8072359321457725
 20
173.8680016037500309
 30
0.0
 11
363.8072359321457725
 21
173.8680016037500309
 31
0.0
  0
LINE
  5
1A7
100
AcDbEntity
100
AcDbLine
  8
FORT
 62
256
370
-1
  6
ByLayer
 10
358.8072359321457725
 20
145.7084832387500342
 30
0.0
 11
353.8072359321457725
 21
145.7084832387500342
 31
0.0
  0
LINE
  5
1A8
100
AcDbEntity
100
AcDbLine
  8
FORT
 62
256
370
-1
  6
ByLayer
 10
353.8072359321457725
 20
145.7084832387500342
 30
0.0
 11
353.8072359321457725
 21
139.8680016037500309
 31
0.0
  0
LINE
  5
1A9
100
AcDbEntity
100
AcDbLine
  8
FORT
 62
256
370
-1
  6
ByLayer
 10
353.8072359321457725
 20
139.8680016037500309
 30
0.0
 11
358.8072359321457725
 21
139.8680016037500309
 31
0.0
  0
LINE
  5
1AA
100
AcDbEntity
100
AcDbLine
  8
FORT
 62
256
370
-1
  6
ByLayer
 10
358.8072359321457725
 20
143.4983628300000191
 30
0.0
 11
353.8072359321457725
 21
143.4983628300000191
 31
0.0
  0
LINE
  5
1AB
100
AcDbEntity
100
AcDbLine
  8
FORT
 62
256
370
-1
  6
ByLayer
 10
358.8072359321457725
 20
123.8680016037500167
 30
0.0
 11
358.8072359321457725
 21
159.368001603749974
 31
0.0
  0
LINE
  5
1AC
100
AcDbEntity
100
AcDbLine
  8
FORT
 62
256
370
-1
  6
ByLayer
 10
348.8072359321457725
 20
133.8680016037500309
 30
0.0
 11
358.8072359321457725
 21
133.8680016037500309
 31
0.0
  0
LINE
  5
1AD
100
AcDbEntity
100
AcDbLine
  8
FORT
 62
256
370
-1
  6
ByLayer
 10
353.8072359321457725
 20
123.8680016037500167
 30
0.0
 11
353.8072359321457725
 21
115.868001603749974
 31
0.0
  0
LINE
  5
1AE
100
AcDbEntity
100
AcDbLine
  8
FORT
 62
256
370
-1
  6
ByLayer
 10
358.8072359321457725
 20
123.8680016037500167
 30
0.0
 11
353.8072359321457725
 21
123.8680016037500167
 31
0.0
  0
LINE
  5
1AF
100
AcDbEntity
100
AcDbLine
  8
FORT
 62
256
370
-1
  6
ByLayer
 10
353.8072359321457725
 20
115.868001603749974
 30
0.0
 11
348.8072359321457725
 21
115.868001603749974
 31
0.0
  0
LINE
  5
1B0
100
AcDbEntity
100
AcDbLine
  8
FORT
 62
256
370
-1
  6
ByLayer
 10
348.8072359321457725
 20
129.8680016037500309
 30
0.0
 11
358.8072359321457725
 21
129.8680016037500309
 31
0.0
  0
LINE
  5
1B1
100
AcDbEntity
100
AcDbLine
  8
FORT
 62
256
370
-1
  6
ByLayer
 10
348.8072359321457725
 20
129.8680016037500309
 30
0.0
 11
348.8072359321457725
 21
115.868001603749974
 31
0.0
  0
LINE
  5
1B2
100
AcDbEntity
100
AcDbLine
  8
FORT
 62
256
370
-1
  6
ByLayer
 10
309.8072359321457725
 20
139.8680016037500309
 30
0.0
 11
309.8072359321457725
 21
136.4229401320953627
 31
0.0
  0
LINE
  5
1B3
100
AcDbEntity
100
AcDbLine
  8
FORT
 62
256
370
-1
  6
ByLayer
 10
309.8072359321457725
 20
127.3130630754045853
 30
0.0
 11
309.8072359321457725
 21
123.8680016037500167
 31
0.0
  0
LINE
  5
1B4
100
AcDbEntity
100
AcDbLine
  8
FORT
 62
256
370
-1
  6
ByLayer
 10
324.8072359321457725
 20
108.5359509249999945
 30
0.0
 11
324.8072359321457725
 21
127.3130630754045853
 31
0.0
  0
LINE
  5
1B5
100
AcDbEntity
100
AcDbLine
  8
FORT
 62
256
370
-1
  6
ByLayer
 10
309.8072359321457725
 20
179.8680016037500309
 30
0.0
 11
309.8072359321457725
 21
176.4229401320953912
 31
0.0
  0
LINE
  5
1B6
100
AcDbEntity
100
AcDbLine
  8
FORT
 62
256
370
-1
  6
ByLayer
 10
324.8072359321457725
 20
176.4229401320953912
 30
0.0
 11
324.8072359321457725
 21
187.9469147414999952
 31
0.0
  0
LINE
  5
1B7
100
AcDbEntity
100
AcDbLine
  8
FORT
 62
256
370
-1
  6
ByLayer
 10
309.8072359321457725
 20
167.3130630754046138
 30
0.0
 11
309.8072359321457725
 21
163.8680016037500309
 31
0.0
  0
LINE
  5
1B8
100
AcDbEntity
100
AcDbLine
  8
FORT
 62
256
370
-1
  6
ByLayer
 10
324.8072359321457725
 20
136.4229401320953627
 30
0.0
 11
324.8072359321457725
 21
167.3130630754046138
 31
0.0
  0
LINE
  5
1B9
100
AcDbEntity
100
AcDbLine
  8
HACHURE
 62
256
370
-1
  6
ByLayer
 10
348.8072359321457725
 20
184.4667209982500253
 30
0.0
 11
352.2874296753957424
 21
187.9469147414999952
 31
0.0
  0
LINE
  5
1BA
100
AcDbEntity
100
AcDbLine
  8
HACHURE
 62
256
370
-1
  6
ByLayer
 10
353.8072359321457725
 20
178.2414008470000226
 30
0.0
 11
359.9338366886457834
 21
184.368001603749974
 31
0.0
  0
LINE
  5
1BB
100
AcDbEntity
100
AcDbLine
  8
HACHURE
 62
256
370
-1
  6
ByLayer
 10
366.1591568401457835
 20
179.368001603749974
 30
0.0
 11
371.1591568401457835
 21
184.368001603749974
 31
0.0
  0
LINE
  5
1BC
100
AcDbEntity
100
AcDbLine
  8
HACHURE
 62
256
370
-1
  6
ByLayer
 10
360.6591568401457835
 20
173.8680016037500309
 30
0.0
 11
363.8072359321457725
 21
177.0160806955000226
 31
0.0
  0
LINE
  5
1BD
100
AcDbEntity
100
AcDbLine
  8
HACHURE
 62
256
370
-1
  6
ByLayer
 10
377.3844769913957862
 20
179.368001603749974
 30
0.0
 11
382.3844769913957862
 21
184.368001603749974
 31
0.0
  0
LINE
  5
1BE
100
AcDbEntity
100
AcDbLine
  8
HACHURE
 62
256
370
-1
  6
ByLayer
 10
388.6097971426456752
 20
179.368001603749974
 30
0.0
 11
393.6097971426456752
 21
184.368001603749974
 31
0.0
  0
LINE
  5
1BF
100
AcDbEntity
100
AcDbLine
  8
HACHURE
 62
256
370
-1
  6
ByLayer
 10
353.8072359321457725
 20
167.0160806955000226
 30
0.0
 11
356.6591568401457835
 21
169.8680016037500309
 31
0.0
  0
LINE
  5
1C0
100
AcDbEntity
100
AcDbLine
  8
HACHURE
 62
256
370
-1
  6
ByLayer
 10
348.8072359321457725
 20
150.7907605442500198
 30
0.0
 11
363.8072359321457725
 21
165.7907605442500198
 31
0.0
  0
LINE
  5
1C1
100
AcDbEntity
100
AcDbLine
  8
HACHURE
 62
256
370
-1
  6
ByLayer
 10
368.6097971426456752
 20
159.368001603749974
 30
0.0
 11
373.6097971426456752
 21
164.368001603749974
 31
0.0
  0
LINE
  5
1C2
100
AcDbEntity
100
AcDbLine
  8
HACHURE
 62
256
370
-1
  6
ByLayer
 10
354.9502787778957327
 20
145.7084832387500342
 30
0.0
 11
358.8072359321457725
 21
149.5654403929999603
 31
0.0
  0
LINE
  5
1C3
100
AcDbEntity
100
AcDbLine
  8
HACHURE
 62
256
370
-1
  6
ByLayer
 10
348.8072359321457725
 20
139.5654403929999603
 30
0.0
 11
353.8072359321457725
 21
144.5654403929999603
 31
0.0
  0
LINE
  5
1C4
100
AcDbEntity
100
AcDbLine
  8
HACHURE
 62
256
370
-1
  6
ByLayer
 10
379.8351172941456753
 20
159.368001603749974
 30
0.0
 11
384.8351172941456753
 21
164.368001603749974
 31
0.0
  0
LINE
  5
1C5
100
AcDbEntity
100
AcDbLine
  8
HACHURE
 62
256
370
-1
  6
ByLayer
 10
354.3351172941459026
 20
133.8680016037500309
 30
0.0
 11
358.8072359321457725
 21
138.3401202414999602
 31
0.0
  0
LINE
  5
1C6
100
AcDbEntity
100
AcDbLine
  8
HACHURE
 62
256
370
-1
  6
ByLayer
 10
391.0604374453959053
 20
159.368001603749974
 30
0.0
 11
393.8072359321457725
 21
162.1148000902500144
 31
0.0
  0
LINE
  5
1C7
100
AcDbEntity
100
AcDbLine
  8
HACHURE
 62
256
370
-1
  6
ByLayer
 10
348.8072359321457725
 20
128.3401202414999602
 30
0.0
 11
350.3351172941457889
 21
129.8680016037500309
 31
0.0
  0
LINE
  5
1C8
100
AcDbEntity
100
AcDbLine
  8
HACHURE
 62
256
370
-1
  6
ByLayer
 10
355.5604374453957917
 20
123.8680016037500167
 30
0.0
 11
358.8072359321457725
 21
127.1148000902500144
 31
0.0
  0
LINE
  5
1C9
100
AcDbEntity
100
AcDbLine
  8
HACHURE
 62
256
370
-1
  6
ByLayer
 10
348.8072359321457725
 20
117.1148000902500144
 30
0.0
 11
353.8072359321457725
 21
122.1148000902500144
 31
0.0
  0
LINE
  5
1CA
100
AcDbEntity
100
AcDbLine
  8
HACHURE
 62
256
370
-1
  6
ByLayer
 10
314.8072359321457725
 20
150.4667209982500253
 30
0.0
 11
324.8072359321457725
 21
160.4667209982500253
 31
0.0
  0
LINE
  5
1CB
100
AcDbEntity
100
AcDbLine
  8
HACHURE
 62
256
370
-1
  6
ByLayer
 10
319.8072359321457725
 20
121.7907605442500198
 30
0.0
 11
324.8072359321457725
 21
126.7907605442500198
 31
0.0
  0
LINE
  5
1CC
100
AcDbEntity
100
AcDbLine
  8
HACHURE
 62
256
370
-1
  6
ByLayer
 10
319.8072359321457725
 20
110.5654403929999887
 30
0.0
 11
324.8072359321457725
 21
115.5654403929999887
 31
0.0
  0
LINE
  5
1CD
100
AcDbEntity
100
AcDbLine
  8
HACHURE
 62
256
370
-1
  6
ByLayer
 10
309.8072359321457725
 20
179.1426814522500308
 30
0.0
 11
310.5325560833957752
 21
179.8680016037500309
 31
0.0
  0
LINE
  5
1CE
100
AcDbEntity
100
AcDbLine
  8
HACHURE
 62
256
370
-1
  6
ByLayer
 10
348.8072359321457725
 20
129.8680016037500309
 30
0.0
 11
348.8072359321457725
 21
129.368001603749974
 31
0.0
  0
LINE
  5
1CF
100
AcDbEntity
100
AcDbLine
  8
HACHURE
 62
256
370
-1
  6
ByLayer
 10
348.8072359321457725
 20
134.368001603749974
 30
0.0
 11
348.8072359321457725
 21
133.8680016037500309
 31
0.0
  0
LINE
  5
1D0
100
AcDbEntity
100
AcDbLine
  8
HACHURE
 62
256
370
-1
  6
ByLayer
 10
348.8072359321457725
 20
159.8728110752500129
 30
0.0
 11
348.8072359321457725
 21
159.166295681500003
 31
0.0
  0
LINE
  5
1D1
100
AcDbEntity
100
AcDbLine
  8
HACHURE
 62
256
370
-1
  6
ByLayer
 10
321.9642889861376034
 20
135.1731337496866274
 30
0.0
 11
324.8072359321457725
 21
138.0160806954999657
 31
0.0
  0
LINE
  5
1D2
100
AcDbEntity
100
AcDbLine
  8
HACHURE
 62
256
370
-1
  6
ByLayer
 10
311.9887752170257613
 20
136.4229401320953627
 30
0.0
 11
324.8072359321457725
 21
149.2414008469999658
 31
0.0
  0
LINE
  5
1D3
100
AcDbEntity
100
AcDbLine
  8
HACHURE
 62
256
370
-1
  6
ByLayer
 10
310.6591568401457835
 20
123.8680016037500167
 30
0.0
 11
314.1042183118003663
 21
127.3130630754045853
 31
0.0
  0
LINE
  5
1D4
100
AcDbEntity
100
AcDbLine
  8
HACHURE
 62
256
370
-1
  6
ByLayer
 10
318.3128147630512785
 20
176.4229401320953912
 30
0.0
 11
324.8072359321457725
 21
182.9173613010000281
 31
0.0
  0
LINE
  5
1D5
100
AcDbEntity
100
AcDbLine
  8
HACHURE
 62
256
370
-1
  6
ByLayer
 10
314.8072359321457725
 20
161.6920411497500254
 30
0.0
 11
320.4282578578004177
 21
167.3130630754046138
 31
0.0
  0
LINE
  5
1D6
100
AcDbEntity
100
AcDbLine
  8
FIN
 62
256
370
-1
  6
ByLayer
 10
87.2628191363957626
 20
183.8436591700001657
 30
0.0
 11
93.7628191363958194
 21
183.1640889370000593
 31
0.0
  0
LINE
  5
1D7
100
AcDbEntity
100
AcDbLine
  8
FIN
 62
256
370
-1
  6
ByLayer
 10
93.7628191363958194
 20
185.6818289115146285
 30
0.0
 11
87.2628191363957626
 21
186.3534897895145264
 31
0.0
  0
LINE
  5
1D8
100
AcDbEntity
100
AcDbLine
  8
FIN
 62
256
370
-1
  6
ByLayer
 10
93.7628191363958194
 20
188.1995688860292262
 30
0.0
 11
87.2628191363957626
 21
188.871229764029124
 31
0.0
  0
ENDSEC
  0
SECTION
  2
OBJECTS
  0
DICTIONARY
  5
C
100
AcDbDictionary
280
0
281
1
  3
ACAD_GROUP
350
D
  3
ACAD_LAYOUT
350
1A
  3
ACAD_MLINESTYLE
350
17
  3
ACAD_PLOTSETTINGS
350
19
  3
ACAD_PLOTSTYLENAME
350
E
  3
AcDbVariableDictionary
350
1D9
  0
DICTIONARY
  5
D
100
AcDbDictionary
280
0
281
1
  0
ACDBDICTIONARYWDFLT
  5
E
100
AcDbDictionary
281
1
  3
Normal
350
F
100
AcDbDictionaryWithDefault
340
F
  0
ACDBPLACEHOLDER
  5
F
  0
DICTIONARY
  5
17
100
AcDbDictionary
280
0
281
1
  3
Standard
350
18
  0
MLINESTYLE
  5
18
100
AcDbMlineStyle
  2
STANDARD
 70
0
  3

 62
256
 51
90.0
 52
90.0
 71
2
 49
0.5
 62
256
  6
BYLAYER
 49
-0.5
 62
256
  6
BYLAYER
  0
DICTIONARY
  5
19
100
AcDbDictionary
280
0
281
1
  0
DICTIONARY
  5
1A
100
AcDbDictionary
281
1
  3
Layout1
350
1E
  3
Layout2
350
26
  3
Model
350
22
  0
LAYOUT
  5
1E
100
AcDbPlotSettings
  1

  2
C:\Program Files\AutoCAD 2002\plotters\DWF ePlot (optimized for plotting).pc3
  4

  6

 40
0.0
 41
0.0
 42
0.0
 43
0.0
 44
0.0
 45
0.0
 46
0.0
 47
0.0
 48
0.0
 49
0.0
140
0.0
141
0.0
142
1.0
143
1.0
 70
688
 72
0
 73
0
 74
5
  7

 75
16
147
1.0
148
0.0
149
0.0
100
AcDbLayout
  1
Layout1
 70
1
 71
1
 10
0.0
 20
0.0
 11
420.0
 21
297.0
 12
0.0
 22
0.0
 32
0.0
 14
100000000000000000000.0
 24
100000000000000000000.0
 34
100000000000000000000.0
 15
-100000000000000000000.0
 25
-100000000000000000000.0
 35
-100000000000000000000.0
146
0.0
 13
0.0
 23
0.0
 33
0.0
 16
1.0
 26
0.0
 36
0.0
 17
0.0
 27
1.0
 37
0.0
 76
0
330
1B
  0
LAYOUT
  5
22
100
AcDbPlotSettings
  1

  2
C:\Program Files\AutoCAD 2002\plotters\DWF ePlot (optimized for plotting).pc3
  4

  6

 40
0.0
 41
0.0
 42
0.0
 43
0.0
 44
0.0
 45
0.0
 46
0.0
 47
0.0
 48
0.0
 49
0.0
140
0.0
141
0.0
142
1.0
143
1.0
 70
1712
 72
0
 73
0
 74
0
  7

 75
0
147
1.0
148
0.0
149
0.0
100
AcDbLayout
  1
Model
 70
1
 71
0
 10
0.0
 20
0.0
 11
12.0
 21
9.0
 12
0.0
 22
0.0
 32
0.0
 14
0.0
 24
0.0
 34
0.0
 15
0.0
 25
0.0
 35
0.0
146
0.0
 13
0.0
 23
0.0
 33
0.0
 16
1.0
 26
0.0
 36
0.0
 17
0.0
 27
1.0
 37
0.0
 76
0
330
1F
  0
LAYOUT
  5
26
100
AcDbPlotSettings
  1

  2
C:\Program Files\AutoCAD 2002\plotters\DWF ePlot (optimized for plotting).pc3
  4

  6

 40
0.0
 41
0.0
 42
0.0
 43
0.0
 44
0.0
 45
0.0
 46
0.0
 47
0.0
 48
0.0
 49
0.0
140
0.0
141
0.0
142
1.0
143
1.0
 70
688
 72
0
 73
0
 74
5
  7

 75
16
147
1.0
148
0.0
149
0.0
100
AcDbLayout
  1
Layout2
 70
1
 71
2
 10
0.0
 20
0.0
 11
12.0
 21
9.0
 12
0.0
 22
0.0
 32
0.0
 14
0.0
 24
0.0
 34
0.0
 15
0.0
 25
0.0
 35
0.0
146
0.0
 13
0.0
 23
0.0
 33
0.0
 16
1.0
 26
0.0
 36
0.0
 17
0.0
 27
1.0
 37
0.0
 76
0
330
23
  0
DICTIONARY
  5
1D9
100
AcDbDictionary
281
1
  3
DIMASSOC
350
1DB
  3
HIDETEXT
350
1DA
  0
DICTIONARYVAR
  5
1DA
100
DictionaryVariables
280
0
  1
2
  0
DICTIONARYVAR
  5
1DB
100
DictionaryVariables
280
0
  1
1
  0
ENDSEC
  0
EOF
