999
dxflib 2.0.4.8
  0
SECTION
  2
HEADER
  9
$ACADVER
  1
AC1015
  9
$HANDSEED
  5
FFFF
  9
$DIMTAD
 70
0
  9
$AXISUNIT
 10
0.0
 20
0.0
 30
0.0
  9
$USERR4
 40
0.0
  9
$VIEWSIZE
 40
9.0
  9
$SNAPBASE
 10
0.0
 20
0.0
 30
0.0
  9
$CLAYER
  8
FORT
  9
$MENU
  1
acad
  9
$VIEWDIR
 10
0.0
 20
0.0
 30
1.0
  9
$CHAMFERA
 40
10.0
  9
$ATTREQ
 70
1
  9
$USERR5
 40
0.0
  9
$EXTMIN
 10
0.0
 20
0.0
 30
0.0
  9
$ORTHOMODE
 70
0
  9
$REGENMODE
 70
1
  9
$TRACEWID
 40
0.05
  9
$CHAMFERB
 40
10.0
  9
$DIMADEC
 70
0
  9
$GRIDUNIT
 10
0.0
 20
0.0
  9
$DIMASZ
 40
2.0
  9
$SNAPSTYLE
 70
0
  9
$DIMSHO
 70
1
  9
$DIMALT
 70
0
  9
$SKETCHINC
 40
0.1
  9
$USRTIMER
 70
1
  9
$ANGBASE
 50
0.0
  9
$DIMGAP
 40
1.0
  9
$LIMMIN
 10
0.0
 20
-4.592784
  9
$DIMTSZ
 40
0.0
  9
$AXISMODE
 70
0
  9
$SPLFRAME
 70
0
  9
$BLIPMODE
 70
1
  9
$LUNITS
 70
2
  9
$AUPREC
 70
0
  9
$SPLINESEGS
 70
10
  9
$INSBASE
 10
0.0
 20
0.0
 30
0.0
  9
$DIMRND
 40
0.0
  9
$DIMCEN
 40
0.09
  9
$ELEVATION
 40
0.0
  9
$SKPOLY
 70
0
  9
$USERI1
 70
0
  9
$EXTMAX
 10
210.0
 20
297.0
 30
0.0
  9
$FILLMODE
 70
1
  9
$DRAGMODE
 70
2
  9
$TEXTSIZE
 40
0.2
  9
$USERI2
 70
0
  9
$INSUNITS
 70
4
  9
$DIMEXO
 40
1.0
  9
$VIEWCTR
 10
6.0
 20
4.5
  9
$DIMSCALE
 40
1.0
  9
$DIMDLE
 40
0.0
  9
$DIMZIN
 70
0
  9
$TDUSRTIMER
 40
0.0
  9
$ANGDIR
 70
0
  9
$USERI3
 70
0
  9
$LIMMAX
 10
490.6569349999999758
 20
301.5927839999999946
  9
$QTEXTMODE
 70
0
  9
$OSMODE
 70
0
  9
$USERI4
 70
0
  9
$DIMLUNIT
 70
2
  9
$ATTMODE
 70
1
  9
$DIMLIM
 70
0
  9
$DIMSE1
 70
0
  9
$THICKNESS
 40
0.0
  9
$LIMCHECK
 70
0
  9
$FASTZOOM
 70
1
  9
$PDMODE
 70
0
  9
$USERI5
 70
0
  9
$GRIDMODE
 70
1
  9
$DIMTXT
 40
3.0
  9
$CELTYPE
  6
CONTINUOUS
  9
$DIMTOH
 70
1
  9
$DIMSE2
 70
0
  9
$DIMLFAC
 40
1.0
  9
$TDINDWG
 40
0.0
  9
$LUPREC
 70
4
  9
$SNAPMODE
 70
0
  9
$SNAPANG
 50
0.0
  9
$CECOLOR
 62
5
  9
$DIMDLI
 40
0.38
  9
$DIMTM
 40
0.0
  9
$DIMASO
 70
1
  9
$PLINEWID
 40
0.0
  9
$DIMSTYLE
  2
Standard
  9
$LTSCALE
 40
0.3
  9
$DIMTIH
 70
1
  9
$DIMALTD
 70
2
  9
$FILLETRAD
 40
10.0
  9
$TDUPDATE
 40
0.0
  9
$PLIMMIN
 10
0.0
 20
0.0
  9
$PLIMMAX
 10
420.0
 20
297.0
  9
$PINSBASE
 10
0.0
 20
-1.5
 30
0.0
  9
$PDSIZE
 40
0.0
  9
$ATTDIA
 70
0
  9
$USERR1
 40
0.0
  9
$DIMEXE
 40
2.0
  9
$SNAPUNIT
 10
1.0
 20
1.0
 30
0.0
  9
$SNAPISOPAIR
 70
0
  9
$TEXTSTYLE
  7
STANDARD
  9
$DIMTP
 40
0.0
  9
$DIMTOL
 70
0
  9
$DIMALTF
 40
25.3999999999999986
  9
$TDCREATE
 40
0.0
  9
$COORDS
 70
2
  9
$USERR2
 40
0.0
  9
$DIMAUNIT
 70
0
  9
$USERR3
 40
0.0
  9
$AUNITS
 70
0
  0
ENDSEC
  0
SECTION
  2
TABLES
  0
TABLE
  2
VPORT
  5
8
100
AcDbSymbolTable
 70
1
  0
VPORT
  5
30
100
AcDbSymbolTableRecord
100
AcDbViewportTableRecord
  2
*Active
 70
0
 10
0.0
 20
0.0
 11
1.0
 21
1.0
 12
286.3055555555554861
 22
148.5
 13
0.0
 23
0.0
 14
10.0
 24
10.0
 15
10.0
 25
10.0
 16
0.0
 26
0.0
 36
1.0
 17
0.0
 27
0.0
 37
0.0
 40
297.0
 41
1.92798353909465
 42
50.0
 43
0.0
 44
0.0
 50
0.0
 51
0.0
 71
0
 72
100
 73
1
 74
3
 75
1
 76
1
 77
0
 78
0
281
0
 65
1
110
0.0
120
0.0
130
0.0
111
1.0
121
0.0
131
0.0
112
0.0
122
1.0
132
0.0
 79
0
146
0.0
  0
ENDTAB
  0
TABLE
  2
LTYPE
  5
5
100
AcDbSymbolTable
 70
21
  0
LTYPE
  5
14
100
AcDbSymbolTableRecord
100
AcDbLinetypeTableRecord
  2
ByBlock
 70
0
  3

 72
65
 73
0
 40
0.0
  0
LTYPE
  5
15
100
AcDbSymbolTableRecord
100
AcDbLinetypeTableRecord
  2
ByLayer
 70
0
  3

 72
65
 73
0
 40
0.0
  0
LTYPE
  5
16
100
AcDbSymbolTableRecord
100
AcDbLinetypeTableRecord
  2
CONTINUOUS
 70
0
  3
Solid line
 72
65
 73
0
 40
0.0
  0
LTYPE
  5
31
100
AcDbSymbolTableRecord
100
AcDbLinetypeTableRecord
  2
DOT
 70
0
  3
Dot . . . . . . . . . . . . . . . . . . . . . .
 72
65
 73
2
 40
6.3499999999999996
 49
0.0
 74
0
 49
-6.3499999999999996
 74
0
  0
LTYPE
  5
32
100
AcDbSymbolTableRecord
100
AcDbLinetypeTableRecord
  2
DOT2
 70
0
  3
Dot (.5x) .....................................
 72
65
 73
2
 40
3.1749999999999998
 49
0.0
 74
0
 49
-3.1749999999999998
 74
0
  0
LTYPE
  5
33
100
AcDbSymbolTableRecord
100
AcDbLinetypeTableRecord
  2
DOTX2
 70
0
  3
Dot (2x) .  .  .  .  .  .  .  .  .  .  .  .  .
 72
65
 73
2
 40
12.6999999999999993
 49
0.0
 74
0
 49
-12.6999999999999993
 74
0
  0
LTYPE
  5
34
100
AcDbSymbolTableRecord
100
AcDbLinetypeTableRecord
  2
DASHED
 70
0
  3
Dashed __ __ __ __ __ __ __ __ __ __ __ __ __ _
 72
65
 73
2
 40
19.0500000000000007
 49
12.6999999999999993
 74
0
 49
-6.3499999999999996
 74
0
  0
LTYPE
  5
35
100
AcDbSymbolTableRecord
100
AcDbLinetypeTableRecord
  2
DASHED2
 70
0
  3
Dashed (.5x) _ _ _ _ _ _ _ _ _ _ _ _ _ _ _ _ _
 72
65
 73
2
 40
9.5250000000000004
 49
6.3499999999999996
 74
0
 49
-3.1749999999999998
 74
0
  0
LTYPE
  5
36
100
AcDbSymbolTableRecord
100
AcDbLinetypeTableRecord
  2
DASHEDX2
 70
0
  3
Dashed (2x) ____  ____  ____  ____  ____  ___
 72
65
 73
2
 40
38.1000000000000014
 49
25.3999999999999986
 74
0
 49
-12.6999999999999993
 74
0
  0
LTYPE
  5
37
100
AcDbSymbolTableRecord
100
AcDbLinetypeTableRecord
  2
DASHDOT
 70
0
  3
Dash dot __ . __ . __ . __ . __ . __ . __ . __
 72
65
 73
4
 40
25.3999999999999986
 49
12.6999999999999993
 74
0
 49
-6.3499999999999996
 74
0
 49
0.0
 74
0
 49
-6.3499999999999996
 74
0
  0
LTYPE
  5
38
100
AcDbSymbolTableRecord
100
AcDbLinetypeTableRecord
  2
DASHDOT2
 70
0
  3
Dash dot (.5x) _._._._._._._._._._._._._._._.
 72
65
 73
4
 40
12.6999999999999993
 49
6.3499999999999996
 74
0
 49
-3.1749999999999998
 74
0
 49
0.0
 74
0
 49
-3.1749999999999998
 74
0
  0
LTYPE
  5
39
100
AcDbSymbolTableRecord
100
AcDbLinetypeTableRecord
  2
DASHDOTX2
 70
0
  3
Dash dot (2x) ____  .  ____  .  ____  .  ___
 72
65
 73
4
 40
50.7999999999999972
 49
25.3999999999999986
 74
0
 49
-12.6999999999999993
 74
0
 49
0.0
 74
0
 49
-12.6999999999999993
 74
0
  0
LTYPE
  5
3A
100
AcDbSymbolTableRecord
100
AcDbLinetypeTableRecord
  2
DIVIDE
 70
0
  3
Divide ____ . . ____ . . ____ . . ____ . . ____
 72
65
 73
6
 40
31.75
 49
12.6999999999999993
 74
0
 49
-6.3499999999999996
 74
0
 49
0.0
 74
0
 49
-6.3499999999999996
 74
0
 49
0.0
 74
0
 49
-6.3499999999999996
 74
0
  0
LTYPE
  5
3B
100
AcDbSymbolTableRecord
100
AcDbLinetypeTableRecord
  2
DIVIDE2
 70
0
  3
Divide (.5x) __..__..__..__..__..__..__..__.._
 72
65
 73
6
 40
15.875
 49
6.3499999999999996
 74
0
 49
-3.1749999999999998
 74
0
 49
0.0
 74
0
 49
-3.1749999999999998
 74
0
 49
0.0
 74
0
 49
-3.1749999999999998
 74
0
  0
LTYPE
  5
3C
100
AcDbSymbolTableRecord
100
AcDbLinetypeTableRecord
  2
DIVIDEX2
 70
0
  3
Divide (2x) ________  .  .  ________  .  .  _
 72
65
 73
6
 40
63.5
 49
25.3999999999999986
 74
0
 49
-12.6999999999999993
 74
0
 49
0.0
 74
0
 49
-12.6999999999999993
 74
0
 49
0.0
 74
0
 49
-12.6999999999999993
 74
0
  0
LTYPE
  5
3D
100
AcDbSymbolTableRecord
100
AcDbLinetypeTableRecord
  2
CENTER
 70
0
  3
Center ____ _ ____ _ ____ _ ____ _ ____ _ ____
 72
65
 73
4
 40
50.7999999999999972
 49
31.75
 74
0
 49
-6.3499999999999996
 74
0
 49
6.3499999999999996
 74
0
 49
-6.3499999999999996
 74
0
  0
LTYPE
  5
3E
100
AcDbSymbolTableRecord
100
AcDbLinetypeTableRecord
  2
CENTER2
 70
0
  3
Center (.5x) ___ _ ___ _ ___ _ ___ _ ___ _ ___
 72
65
 73
4
 40
28.5749999999999993
 49
19.0500000000000007
 74
0
 49
-3.1749999999999998
 74
0
 49
3.1749999999999998
 74
0
 49
-3.1749999999999998
 74
0
  0
LTYPE
  5
3F
100
AcDbSymbolTableRecord
100
AcDbLinetypeTableRecord
  2
CENTERX2
 70
0
  3
Center (2x) ________  __  ________  __  _____
 72
65
 73
4
 40
101.5999999999999943
 49
63.5
 74
0
 49
-12.6999999999999993
 74
0
 49
12.6999999999999993
 74
0
 49
-12.6999999999999993
 74
0
  0
LTYPE
  5
40
100
AcDbSymbolTableRecord
100
AcDbLinetypeTableRecord
  2
BORDER
 70
0
  3
Border __ __ . __ __ . __ __ . __ __ . __ __ .
 72
65
 73
6
 40
44.4500000000000028
 49
12.6999999999999993
 74
0
 49
-6.3499999999999996
 74
0
 49
12.6999999999999993
 74
0
 49
-6.3499999999999996
 74
0
 49
0.0
 74
0
 49
-6.3499999999999996
 74
0
  0
LTYPE
  5
41
100
AcDbSymbolTableRecord
100
AcDbLinetypeTableRecord
  2
BORDER2
 70
0
  3
Border (.5x) __.__.__.__.__.__.__.__.__.__.__.
 72
65
 73
6
 40
22.2250000000000014
 49
6.3499999999999996
 74
0
 49
-3.1749999999999998
 74
0
 49
6.3499999999999996
 74
0
 49
-3.1749999999999998
 74
0
 49
0.0
 74
0
 49
-3.1749999999999998
 74
0
  0
LTYPE
  5
42
100
AcDbSymbolTableRecord
100
AcDbLinetypeTableRecord
  2
BORDERX2
 70
0
  3
Border (2x) ____  ____  .  ____  ____  .  ___
 72
65
 73
6
 40
88.9000000000000057
 49
25.3999999999999986
 74
0
 49
-12.6999999999999993
 74
0
 49
25.3999999999999986
 74
0
 49
-12.6999999999999993
 74
0
 49
0.0
 74
0
 49
-12.6999999999999993
 74
0
  0
ENDTAB
  0
TABLE
  2
LAYER
  5
2
100
AcDbSymbolTable
 70
8
  0
LAYER
  5
10
100
AcDbSymbolTableRecord
100
AcDbLayerTableRecord
  2
0
 70
0
 62
7
  6
CONTINUOUS
390
F
  0
LAYER
  5
43
100
AcDbSymbolTableRecord
100
AcDbLayerTableRecord
  2
FORT
 70
0
 62
7
  6
CONTINUOUS
370
40
390
F
  0
LAYER
  5
44
100
AcDbSymbolTableRecord
100
AcDbLayerTableRecord
  2
INTERROMPU
 70
0
 62
5
  6
DASHED
370
20
390
F
  0
LAYER
  5
45
100
AcDbSymbolTableRecord
100
AcDbLayerTableRecord
  2
AXE
 70
0
 62
3
  6
CENTERX2
370
20
390
F
  0
LAYER
  5
46
100
AcDbSymbolTableRecord
100
AcDbLayerTableRecord
  2
FIN
 70
0
 62
5
  6
CONTINUOUS
370
20
390
F
  0
LAYER
  5
47
100
AcDbSymbolTableRecord
100
AcDbLayerTableRecord
  2
HACHURE
 70
0
 62
7
  6
CONTINUOUS
370
20
390
F
  0
LAYER
  5
48
100
AcDbSymbolTableRecord
100
AcDbLayerTableRecord
  2
TEXTE
 70
0
 62
7
  6
CONTINUOUS
370
60
390
F
  0
LAYER
  5
49
100
AcDbSymbolTableRecord
100
AcDbLayerTableRecord
  2
RENFORCE
 70
0
 62
7
  6
CONTINUOUS
370
90
390
F
  0
ENDTAB
  0
TABLE
  2
STYLE
  5
3
100
AcDbSymbolTable
 70
1
  0
STYLE
  5
11
100
AcDbSymbolTableRecord
100
AcDbTextStyleTableRecord
  2
Standard
 70
0
 40
0.0
 41
0.75
 50
0.0
 71
0
 42
2.5
  3
txt
  4

  0
ENDTAB
  0
TABLE
  2
VIEW
  5
6
100
AcDbSymbolTable
 70
0
  0
ENDTAB
  0
TABLE
  2
UCS
  5
7
100
AcDbSymbolTable
 70
0
  0
ENDTAB
  0
TABLE
  2
APPID
  5
9
100
AcDbSymbolTable
 70
1
  0
APPID
  5
12
100
AcDbSymbolTableRecord
100
AcDbRegAppTableRecord
  2
ACAD
 70
0
  0
ENDTAB
  0
TABLE
  2
DIMSTYLE
  5
A
100
AcDbSymbolTable
 70
1
100
AcDbDimStyleTable
 71
0
  0
DIMSTYLE
105
27
100
AcDbSymbolTableRecord
100
AcDbDimStyleTableRecord
  2
Standard
 41
2.0
 42
1.0
 43
3.75
 44
2.0
 70
0
 73
0
 74
0
 77
1
 78
8
140
3.0
141
2.5
143
0.03937007874016
147
1.0
171
3
172
1
271
2
272
2
274
3
278
44
283
0
284
8
340
11
  0
ENDTAB
  0
TABLE
  2
BLOCK_RECORD
  5
1
100
AcDbSymbolTable
 70
1
  0
BLOCK_RECORD
  5
1F
100
AcDbSymbolTableRecord
100
AcDbBlockTableRecord
  2
*Model_Space
340
22
  0
BLOCK_RECORD
  5
1B
100
AcDbSymbolTableRecord
100
AcDbBlockTableRecord
  2
*Paper_Space
340
1E
  0
BLOCK_RECORD
  5
23
100
AcDbSymbolTableRecord
100
AcDbBlockTableRecord
  2
*Paper_Space0
340
26
  0
ENDTAB
  0
ENDSEC
  0
SECTION
  2
BLOCKS
  0
BLOCK
  5
20
100
AcDbEntity
  8
0
100
AcDbBlockBegin
  2
*Model_Space
 70
0
 10
0.0
 20
0.0
 30
0.0
  3
*Model_Space
  1

  0
ENDBLK
  5
21
100
AcDbEntity
  8
0
100
AcDbBlockEnd
  0
BLOCK
  5
1C
100
AcDbEntity
 67
1
  8
0
100
AcDbBlockBegin
  2
*Paper_Space
 70
0
 10
0.0
 20
0.0
 30
0.0
  3
*Paper_Space
  1

  0
ENDBLK
  5
1D
100
AcDbEntity
 67
1
  8
0
100
AcDbBlockEnd
  0
BLOCK
  5
24
100
AcDbEntity
  8
0
100
AcDbBlockBegin
  2
*Paper_Space0
 70
0
 10
0.0
 20
0.0
 30
0.0
  3
*Paper_Space0
  1

  0
ENDBLK
  5
25
100
AcDbEntity
  8
0
100
AcDbBlockEnd
  0
ENDSEC
  0
SECTION
  2
ENTITIES
  0
LINE
  5
4A
100
AcDbEntity
100
AcDbLine
  8
RENFORCE
 62
256
370
-1
  6
ByLayer
 10
220.0
 20
10.0
 30
0.0
 11
410.0
 21
10.0
 31
0.0
  0
LINE
  5
4B
100
AcDbEntity
100
AcDbLine
  8
RENFORCE
 62
256
370
-1
  6
ByLayer
 10
220.0
 20
40.0
 30
0.0
 11
410.0
 21
40.0
 31
0.0
  0
LINE
  5
4C
100
AcDbEntity
100
AcDbLine
  8
RENFORCE
 62
256
370
-1
  6
ByLayer
 10
220.0
 20
40.0
 30
0.0
 11
220.0
 21
10.0
 31
0.0
  0
LINE
  5
4D
100
AcDbEntity
100
AcDbLine
  8
RENFORCE
 62
256
370
-1
  6
ByLayer
 10
410.0
 20
40.0
 30
0.0
 11
410.0
 21
10.0
 31
0.0
  0
LINE
  5
4E
100
AcDbEntity
100
AcDbLine
  8
FIN
 62
256
370
-1
  6
ByLayer
 10
220.0
 20
20.0
 30
0.0
 11
410.0
 21
20.0
 31
0.0
  0
LINE
  5
4F
100
AcDbEntity
100
AcDbLine
  8
FIN
 62
256
370
-1
  6
ByLayer
 10
220.0
 20
30.0
 30
0.0
 11
260.0
 21
30.0
 31
0.0
  0
LINE
  5
50
100
AcDbEntity
100
AcDbLine
  8
FIN
 62
256
370
-1
  6
ByLayer
 10
260.0
 20
40.0
 30
0.0
 11
260.0
 21
10.0
 31
0.0
  0
LINE
  5
51
100
AcDbEntity
100
AcDbLine
  8
AXE
 62
256
370
-1
  6
ByLayer
 10
223.0
 20
25.0
 30
0.0
 11
257.0
 21
25.0
 31
0.0
  0
CIRCLE
  5
52
100
AcDbEntity
100
AcDbCircle
  8
FORT
 62
256
370
-1
  6
ByLayer
 10
249.4912073672424526
 20
25.0
 30
0.0
 40
3.0
  0
CIRCLE
  5
53
100
AcDbEntity
100
AcDbCircle
  8
FORT
 62
256
370
-1
  6
ByLayer
 10
249.4912073672424526
 20
25.0
 30
0.0
 40
1.4142135623730951
  0
LINE
  5
54
100
AcDbEntity
100
AcDbLine
  8
AXE
 62
256
370
-1
  6
ByLayer
 10
249.4912073672424526
 20
29.0
 30
0.0
 11
249.4912073672424526
 21
21.0
 31
0.0
  0
LINE
  5
55
100
AcDbEntity
100
AcDbLine
  8
FORT
 62
256
370
-1
  6
ByLayer
 10
227.4912073672424526
 20
26.4142135623730958
 30
0.0
 11
227.4912073672424526
 21
23.5857864376269042
 31
0.0
  0
LINE
  5
56
100
AcDbEntity
100
AcDbLine
  8
FORT
 62
256
370
-1
  6
ByLayer
 10
239.4912073672424526
 20
28.0
 30
0.0
 11
239.4912073672424526
 21
22.0
 31
0.0
  0
LINE
  5
57
100
AcDbEntity
100
AcDbLine
  8
FORT
 62
256
370
-1
  6
ByLayer
 10
239.4912073672424526
 20
28.0
 30
0.0
 11
227.4912073672424526
 21
26.4142135623730958
 31
0.0
  0
LINE
  5
58
100
AcDbEntity
100
AcDbLine
  8
FORT
 62
256
370
-1
  6
ByLayer
 10
239.4912073672424526
 20
22.0
 30
0.0
 11
227.4912073672424526
 21
23.5857864376269042
 31
0.0
  0
MTEXT
  5
59
100
AcDbEntity
100
AcDbMText
  8
TEXTE
 62
7
370
-1
  6
CONTINUOUS
 10
234.0037869999999884
 20
11.9279770000000003
 30
0.0
 40
7.0
 41
100.0
 71
7
 72
2
  1
A3
  7
ISO9
 50
0.0
 73
1
 44
1.0
  0
LINE
  5
5A
100
AcDbEntity
100
AcDbLine
  8
FORT
 62
256
370
-1
  6
ByLayer
 10
220.0
 20
10.0
 30
0.0
 11
13.0
 21
10.0
 31
0.0
  0
LINE
  5
5B
100
AcDbEntity
100
AcDbLine
  8
FORT
 62
256
370
-1
  6
ByLayer
 10
13.0
 20
10.0
 30
0.0
 11
13.0
 21
287.0
 31
0.0
  0
LINE
  5
5C
100
AcDbEntity
100
AcDbLine
  8
FORT
 62
256
370
-1
  6
ByLayer
 10
13.0
 20
287.0
 30
0.0
 11
410.0
 21
287.0
 31
0.0
  0
LINE
  5
5D
100
AcDbEntity
100
AcDbLine
  8
FORT
 62
256
370
-1
  6
ByLayer
 10
410.0
 20
40.0
 30
0.0
 11
410.0
 21
287.0
 31
0.0
  0
MTEXT
  5
5E
100
AcDbEntity
100
AcDbMText
  8
TEXTE
 62
7
370
-1
  6
CONTINUOUS
 10
228.5955338097676304
 20
32.3186510000000027
 30
0.0
 40
5.0
 41
100.0
 71
7
 72
2
  1
Ech.\~4:1
  7
ISO9
 50
0.0
 73
1
 44
1.0
  0
LINE
  5
5F
100
AcDbEntity
100
AcDbLine
  8
0
 62
7
370
-1
  6
CONTINUOUS
 10
221.4089894067998898
 20
207.762159699588608
 30
0.0
 11
226.2089894067999012
 21
207.762159699588608
 31
0.0
  0
LINE
  5
60
100
AcDbEntity
100
AcDbLine
  8
0
 62
7
370
-1
  6
CONTINUOUS
 10
227.4089894067998898
 20
218.7616393711885507
 30
0.0
 11
231.4089894067998898
 21
218.7616393711885507
 31
0.0
  0
LINE
  5
61
100
AcDbEntity
100
AcDbLine
  8
0
 62
7
370
-1
  6
CONTINUOUS
 10
233.1123507567999127
 20
247.4177955771885422
 30
0.0
 11
233.1044531037999263
 21
247.4180703889884967
 31
0.0
  0
CIRCLE
  5
62
100
AcDbEntity
100
AcDbCircle
  8
0
 62
7
370
-1
  6
CONTINUOUS
 10
235.0089894067999126
 20
238.9618912595885263
 30
0.0
 40
2.0
  0
LINE
  5
63
100
AcDbEntity
100
AcDbLine
  8
0
 62
7
370
-1
  6
CONTINUOUS
 10
243.4089894067998898
 20
223.3266181815885716
 30
0.0
 11
243.4089894067998898
 21
222.9226744661885391
 31
0.0
  0
LINE
  5
64
100
AcDbEntity
100
AcDbLine
  8
0
 62
7
370
-1
  6
CONTINUOUS
 10
99.7918928300463506
 20
238.9618912595885263
 30
0.0
 11
99.7918928300463506
 21
238.9618912595885263
 31
0.0
  0
LINE
  5
65
100
AcDbEntity
100
AcDbLine
  8
0
 62
7
370
-1
  6
CONTINUOUS
 10
99.7918928300463506
 20
238.9618912595885263
 30
0.0
 11
99.7918928300463506
 21
239.3650912595884961
 31
0.0
  0
LINE
  5
66
100
AcDbEntity
100
AcDbLine
  8
0
 62
7
370
-1
  6
CONTINUOUS
 10
69.3372316336464394
 20
247.6298912595885326
 30
0.0
 11
67.977231633646312
 21
247.6298912595885326
 31
0.0
  0
LINE
  5
67
100
AcDbEntity
100
AcDbLine
  8
0
 62
7
370
-1
  6
CONTINUOUS
 10
345.752317418656844
 20
238.9618912595885263
 30
0.0
 11
345.752317418656844
 21
238.9618912595885263
 31
0.0
  0
LINE
  5
68
100
AcDbEntity
100
AcDbLine
  8
0
 62
7
370
-1
  6
CONTINUOUS
 10
345.752317418656844
 20
238.9618912595885263
 30
0.0
 11
345.752317418656844
 21
239.3650912595884961
 31
0.0
  0
LINE
  5
69
100
AcDbEntity
100
AcDbLine
  8
0
 62
7
370
-1
  6
CONTINUOUS
 10
344.1454734472569044
 20
204.4469025033885714
 30
0.0
 11
344.5412843760568649
 21
204.4075427581885265
 31
0.0
  0
LINE
  5
6A
100
AcDbEntity
100
AcDbLine
  8
FIN
 62
256
370
-1
  6
ByLayer
 10
37.0
 20
190.0
 30
0.0
 11
27.0
 21
190.0
 31
0.0
  0
LINE
  5
6B
100
AcDbEntity
100
AcDbLine
  8
FIN
 62
256
370
-1
  6
ByLayer
 10
37.0
 20
230.0
 30
0.0
 11
27.0
 21
230.0
 31
0.0
  0
LINE
  5
6C
100
AcDbEntity
100
AcDbLine
  8
FIN
 62
256
370
-1
  6
ByLayer
 10
37.0
 20
150.0
 30
0.0
 11
27.0
 21
150.0
 31
0.0
  0
LINE
  5
6D
100
AcDbEntity
100
AcDbLine
  8
FIN
 62
256
370
-1
  6
ByLayer
 10
88.4000000000000057
 20
150.0
 30
0.0
 11
78.4000000000000057
 21
150.0
 31
0.0
  0
LINE
  5
6E
100
AcDbEntity
100
AcDbLine
  8
FIN
 62
256
370
-1
  6
ByLayer
 10
139.8000000000000114
 20
150.0
 30
0.0
 11
129.8000000000000114
 21
150.0
 31
0.0
  0
LINE
  5
6F
100
AcDbEntity
100
AcDbLine
  8
FIN
 62
256
370
-1
  6
ByLayer
 10
191.2000000000000171
 20
150.0
 30
0.0
 11
181.2000000000000171
 21
150.0
 31
0.0
  0
LINE
  5
70
100
AcDbEntity
100
AcDbLine
  8
FIN
 62
256
370
-1
  6
ByLayer
 10
242.6000000000000227
 20
150.0
 30
0.0
 11
232.6000000000000227
 21
150.0
 31
0.0
  0
LINE
  5
71
100
AcDbEntity
100
AcDbLine
  8
FIN
 62
256
370
-1
  6
ByLayer
 10
294.0
 20
150.0
 30
0.0
 11
284.0
 21
150.0
 31
0.0
  0
LINE
  5
72
100
AcDbEntity
100
AcDbLine
  8
FIN
 62
256
370
-1
  6
ByLayer
 10
396.7999999999999545
 20
150.0
 30
0.0
 11
386.7999999999999545
 21
150.0
 31
0.0
  0
LINE
  5
73
100
AcDbEntity
100
AcDbLine
  8
FIN
 62
256
370
-1
  6
ByLayer
 10
181.2000000000000171
 20
150.0
 30
0.0
 11
156.4504677955279419
 21
235.9763587889791836
 31
0.0
  0
LINE
  5
74
100
AcDbEntity
100
AcDbLine
  8
FIN
 62
256
370
-1
  6
ByLayer
 10
37.0
 20
190.0
 30
0.0
 11
66.92910531370039
 21
203.0387537345283988
 31
0.0
  0
LINE
  5
75
100
AcDbEntity
100
AcDbLine
  8
FIN
 62
256
370
-1
  6
ByLayer
 10
37.0
 20
150.0
 30
0.0
 11
83.5078745198463537
 21
176.8402048655569843
 31
0.0
  0
LINE
  5
76
100
AcDbEntity
100
AcDbLine
  8
FIN
 62
256
370
-1
  6
ByLayer
 10
88.4000000000000057
 20
150.0
 30
0.0
 11
103.5661384976525881
 21
175.6121478873239425
 31
0.0
  0
MTEXT
  5
77
100
AcDbEntity
100
AcDbMText
  8
TEXTE
 62
7
370
-1
  6
CONTINUOUS
 10
31.316355999999999
 20
152.0
 30
0.0
 40
5.0
 41
100.0
 71
7
 72
2
  1
1
  7
ISO9
 50
0.0
 73
0
 44
1.0
  0
MTEXT
  5
78
100
AcDbEntity
100
AcDbMText
  8
TEXTE
 62
7
370
-1
  6
CONTINUOUS
 10
31.316355999999999
 20
232.0
 30
0.0
 40
5.0
 41
100.0
 71
7
 72
2
  1
2
  7
ISO9
 50
0.0
 73
0
 44
1.0
  0
MTEXT
  5
79
100
AcDbEntity
100
AcDbMText
  8
TEXTE
 62
7
370
-1
  6
CONTINUOUS
 10
31.316355999999999
 20
192.0
 30
0.0
 40
5.0
 41
100.0
 71
7
 72
2
  1
3
  7
ISO9
 50
0.0
 73
0
 44
1.0
  0
MTEXT
  5
7A
100
AcDbEntity
100
AcDbMText
  8
TEXTE
 62
7
370
-1
  6
CONTINUOUS
 10
185.5163560000000302
 20
152.0
 30
0.0
 40
5.0
 41
100.0
 71
7
 72
2
  1
6
  7
ISO9
 50
0.0
 73
0
 44
1.0
  0
MTEXT
  5
7B
100
AcDbEntity
100
AcDbMText
  8
TEXTE
 62
7
370
-1
  6
CONTINUOUS
 10
134.1163559999999961
 20
152.0
 30
0.0
 40
5.0
 41
100.0
 71
7
 72
2
  1
9
  7
ISO9
 50
0.0
 73
0
 44
1.0
  0
MTEXT
  5
7C
100
AcDbEntity
100
AcDbMText
  8
TEXTE
 62
7
370
-1
  6
CONTINUOUS
 10
391.3163559999999848
 20
152.0
 30
0.0
 40
5.0
 41
100.0
 71
7
 72
2
  1
7
  7
ISO9
 50
0.0
 73
0
 44
1.0
  0
MTEXT
  5
7D
100
AcDbEntity
100
AcDbMText
  8
TEXTE
 62
7
370
-1
  6
CONTINUOUS
 10
339.716355999999962
 20
152.0
 30
0.0
 40
5.0
 41
100.0
 71
7
 72
2
  1
8
  7
ISO9
 50
0.0
 73
0
 44
1.0
  0
MTEXT
  5
7E
100
AcDbEntity
100
AcDbMText
  8
TEXTE
 62
7
370
-1
  6
CONTINUOUS
 10
82.7163560000000047
 20
152.0
 30
0.0
 40
5.0
 41
100.0
 71
7
 72
2
  1
4
  7
ISO9
 50
0.0
 73
0
 44
1.0
  0
MTEXT
  5
7F
100
AcDbEntity
100
AcDbMText
  8
TEXTE
 62
7
370
-1
  6
CONTINUOUS
 10
236.9163560000000075
 20
152.0
 30
0.0
 40
5.0
 41
100.0
 71
7
 72
2
  1
5
  7
ISO9
 50
0.0
 73
0
 44
1.0
  0
MTEXT
  5
80
100
AcDbEntity
100
AcDbMText
  8
TEXTE
 62
7
370
-1
  6
CONTINUOUS
 10
286.6466196843789476
 20
152.0
 30
0.0
 40
5.0
 41
100.0
 71
7
 72
2
  1
10
  7
ISO9
 50
0.0
 73
0
 44
1.0
  0
ARC
  5
81
100
AcDbEntity
  8
AXE
 62
3
370
20
  6
CENTERX2
100
AcDbCircle
 10
110.5918928300463051
 20
191.7618912595884808
 30
0.0
 40
25.6031195786853871
100
AcDbArc
 50
215.3892445412267307
 51
351.9521101721410901
  0
LINE
  5
82
100
AcDbEntity
100
AcDbLine
  8
AXE
 62
256
370
-1
  6
ByLayer
 10
98.3123262582069657
 20
231.8771005915136811
 30
0.0
 11
65.3729102122814396
 21
231.8771005915136811
 31
0.0
  0
LINE
  5
83
100
AcDbEntity
100
AcDbLine
  8
AXE
 62
256
370
-1
  6
ByLayer
 10
98.3123262582069657
 20
246.0778455572634584
 30
0.0
 11
65.3729102122814396
 21
246.0778455572634584
 31
0.0
  0
ARC
  5
84
100
AcDbEntity
  8
FORT
 62
7
370
40
  6
CONTINUOUS
100
AcDbCircle
 10
82.8790799088464212
 20
207.7618912595884808
 30
0.0
 40
27.0
100
AcDbArc
 50
123.4265600449409277
 51
252.8395884070819761
  0
ARC
  5
85
100
AcDbEntity
  8
FORT
 62
7
370
40
  6
CONTINUOUS
100
AcDbCircle
 10
82.8790799088464212
 20
207.7618912595884808
 30
0.0
 40
27.0
100
AcDbArc
 50
33.9779475333948113
 51
58.486679710543271
  0
ARC
  5
86
100
AcDbEntity
  8
FORT
 62
7
370
40
  6
CONTINUOUS
100
AcDbCircle
 10
82.8790799088464212
 20
207.7618912595884808
 30
0.0
 40
25.759999999999998
100
AcDbArc
 50
35.4736149758152592
 51
253.4690016322980455
  0
LINE
  5
87
100
AcDbEntity
100
AcDbLine
  8
FORT
 62
256
370
-1
  6
ByLayer
 10
63.7918928300463506
 20
233.6053780949885663
 30
0.0
 11
67.7918928300463506
 21
233.6053780949885663
 31
0.0
  0
LINE
  5
88
100
AcDbEntity
100
AcDbLine
  8
FORT
 62
256
370
-1
  6
ByLayer
 10
63.7918928300463506
 20
244.3495680537885733
 30
0.0
 11
67.7918928300463506
 21
244.3495680537885733
 31
0.0
  0
LINE
  5
89
100
AcDbEntity
100
AcDbLine
  8
FORT
 62
256
370
-1
  6
ByLayer
 10
96.9918928300463961
 20
247.6278912595885799
 30
0.0
 11
63.7918928300463506
 21
247.6278912595885799
 31
0.0
  0
LINE
  5
8A
100
AcDbEntity
100
AcDbLine
  8
FORT
 62
256
370
-1
  6
ByLayer
 10
63.7918928300463506
 20
230.2958912595885863
 30
0.0
 11
96.9918928300463961
 21
230.2958912595885863
 31
0.0
  0
LINE
  5
8B
100
AcDbEntity
100
AcDbLine
  8
FORT
 62
256
370
-1
  6
ByLayer
 10
96.9918928300463961
 20
247.6278912595885799
 30
0.0
 11
96.9918928300463961
 21
230.2958912595885863
 31
0.0
  0
LINE
  5
8C
100
AcDbEntity
100
AcDbLine
  8
FORT
 62
256
370
-1
  6
ByLayer
 10
63.7918928300463506
 20
230.2958912595885863
 30
0.0
 11
63.7918928300463506
 21
247.6278912595885799
 31
0.0
  0
LINE
  5
8D
100
AcDbEntity
100
AcDbLine
  8
FORT
 62
256
370
-1
  6
ByLayer
 10
67.7918928300463506
 20
230.2958912595885863
 30
0.0
 11
67.7918928300463506
 21
247.6278912595885799
 31
0.0
  0
LINE
  5
8E
100
AcDbEntity
100
AcDbLine
  8
FORT
 62
256
370
-1
  6
ByLayer
 10
106.1772440436463114
 20
223.2698550627885083
 30
0.0
 11
110.4004934186463345
 21
223.2698550627885083
 31
0.0
  0
ARC
  5
8F
100
AcDbEntity
  8
FORT
 62
256
370
-1
  6
ByLayer
100
AcDbCircle
 10
82.8640919900464326
 20
207.7618912595884808
 30
0.0
 40
28.0
100
AcDbArc
 50
33.6319446888999991
 51
52.8025031215999974
  0
LINE
  5
90
100
AcDbEntity
100
AcDbLine
  8
FORT
 62
256
370
-1
  6
ByLayer
 10
115.7918928300463506
 20
222.9618912595885263
 30
0.0
 11
110.282654098446443
 21
222.9618912595885263
 31
0.0
  0
LINE
  5
91
100
AcDbEntity
100
AcDbLine
  8
FORT
 62
256
370
-1
  6
ByLayer
 10
111.9743608562463635
 20
215.1389819221885205
 30
0.0
 11
111.9743608562463635
 21
211.1389819221885205
 31
0.0
  0
LINE
  5
92
100
AcDbEntity
100
AcDbLine
  8
FORT
 62
256
370
-1
  6
ByLayer
 10
74.1015840690462539
 20
215.1389819221885205
 30
0.0
 11
72.1015840690462539
 21
211.6748803069885412
 31
0.0
  0
LINE
  5
93
100
AcDbEntity
100
AcDbLine
  8
FORT
 62
256
370
-1
  6
ByLayer
 10
78.6141012764464051
 20
212.5336788977885476
 30
0.0
 11
74.1015840690462539
 21
215.1389819221885205
 31
0.0
  0
LINE
  5
94
100
AcDbEntity
100
AcDbLine
  8
FORT
 62
256
370
-1
  6
ByLayer
 10
72.1015840690462539
 20
211.6748803069885412
 30
0.0
 11
76.6141012764464051
 21
209.0695772825885683
 31
0.0
  0
LINE
  5
95
100
AcDbEntity
100
AcDbLine
  8
FORT
 62
256
370
-1
  6
ByLayer
 10
101.2841851784463927
 20
199.4450998543886158
 30
0.0
 11
105.7587341306463316
 21
211.1389819221885205
 31
0.0
  0
LINE
  5
96
100
AcDbEntity
100
AcDbLine
  8
FORT
 62
256
370
-1
  6
ByLayer
 10
106.3269141974464276
 20
196.5336788977885476
 30
0.0
 11
101.2841851784463927
 21
199.4450998543886158
 31
0.0
  0
LINE
  5
97
100
AcDbEntity
100
AcDbLine
  8
FORT
 62
256
370
-1
  6
ByLayer
 10
89.5001034622463578
 20
201.6298404519886276
 30
0.0
 11
94.5230508040462212
 21
198.7298404519885366
 31
0.0
  0
LINE
  5
98
100
AcDbEntity
100
AcDbLine
  8
FORT
 62
256
370
-1
  6
ByLayer
 10
97.7763082142463702
 20
201.4703735639886304
 30
0.0
 11
89.1440585412464372
 21
206.4542052363885318
 31
0.0
  0
LINE
  5
99
100
AcDbEntity
100
AcDbLine
  8
FORT
 62
256
370
-1
  6
ByLayer
 10
101.4759061020462525
 20
211.1389819221885205
 30
0.0
 11
97.7763082142463702
 21
201.4703735639886304
 31
0.0
  0
LINE
  5
9A
100
AcDbEntity
100
AcDbLine
  8
FORT
 62
256
370
-1
  6
ByLayer
 10
90.2666398740463194
 20
211.1389819221885205
 30
0.0
 11
101.4759061020462525
 21
211.1389819221885205
 31
0.0
  0
LINE
  5
9B
100
AcDbEntity
100
AcDbLine
  8
FORT
 62
256
370
-1
  6
ByLayer
 10
88.7528119386462606
 20
210.3034010553885196
 30
0.0
 11
90.2666398740463194
 21
211.1389819221885205
 31
0.0
  0
LINE
  5
9C
100
AcDbEntity
100
AcDbLine
  8
FORT
 62
256
370
-1
  6
ByLayer
 10
89.2359976208462342
 20
215.1389819221885205
 30
0.0
 11
85.9968849716464376
 21
213.351103331788579
 31
0.0
  0
LINE
  5
9D
100
AcDbEntity
100
AcDbLine
  8
FORT
 62
256
370
-1
  6
ByLayer
 10
103.0064667580462867
 20
215.1389819221885205
 30
0.0
 11
89.2359976208462342
 21
215.1389819221885205
 31
0.0
  0
LINE
  5
9E
100
AcDbEntity
100
AcDbLine
  8
FORT
 62
256
370
-1
  6
ByLayer
 10
106.1393852392463089
 20
223.3266181815885716
 30
0.0
 11
103.0064667580462867
 21
215.1389819221885205
 31
0.0
  0
LINE
  5
9F
100
AcDbEntity
100
AcDbLine
  8
FORT
 62
256
370
-1
  6
ByLayer
 10
107.2892947866463658
 20
215.1389819221885205
 30
0.0
 11
110.4004934186463345
 21
223.2698550627885083
 31
0.0
  0
LINE
  5
A0
100
AcDbEntity
100
AcDbLine
  8
FORT
 62
256
370
-1
  6
ByLayer
 10
81.6752323316462991
 20
193.6767660909885649
 30
0.0
 11
76.4790799088463302
 21
196.6767660909885649
 31
0.0
  0
ARC
  5
A1
100
AcDbEntity
  8
FORT
 62
256
370
-1
  6
ByLayer
100
AcDbCircle
 10
82.8790799088464212
 20
207.7618912595884808
 30
0.0
 40
12.8000000000000007
100
AcDbArc
 50
95.6788673423999967
 51
239.9999999999999716
  0
LINE
  5
A2
100
AcDbEntity
100
AcDbLine
  8
FORT
 62
256
370
-1
  6
ByLayer
 10
81.61248493644635
 20
220.4990705851885764
 30
0.0
 11
105.9848201496462536
 21
222.9226744661885391
 31
0.0
  0
ARC
  5
A3
100
AcDbEntity
  8
FORT
 62
256
370
-1
  6
ByLayer
100
AcDbCircle
 10
82.8790799088464212
 20
207.7618912595884808
 30
0.0
 40
20.1999999999999993
100
AcDbArc
 50
44.9997865398445498
 51
257.2792872364000232
  0
LINE
  5
A4
100
AcDbEntity
100
AcDbLine
  8
FORT
 62
256
370
-1
  6
ByLayer
 10
115.7918928300463506
 20
215.1389819221885205
 30
0.0
 11
107.2892947866463658
 21
215.1389819221885205
 31
0.0
  0
LINE
  5
A5
100
AcDbEntity
100
AcDbLine
  8
FORT
 62
256
370
-1
  6
ByLayer
 10
105.7587341306463316
 20
211.1389819221885205
 30
0.0
 11
115.7918928300463506
 21
211.1389819221885205
 31
0.0
  0
CIRCLE
  5
A6
100
AcDbEntity
100
AcDbCircle
  8
FORT
 62
256
370
-1
  6
ByLayer
 10
82.8790799088464212
 20
207.7618912595884808
 30
0.0
 40
6.4000000000000004
  0
CIRCLE
  5
A7
100
AcDbEntity
100
AcDbCircle
  8
FORT
 62
256
370
-1
  6
ByLayer
 10
110.5918928300463051
 20
191.7618912595884808
 30
0.0
 40
6.4000000000000004
  0
ARC
  5
A8
100
AcDbEntity
  8
AXE
 62
3
370
20
  6
CENTERX2
100
AcDbCircle
 10
82.8790799088464212
 20
207.7618912595884808
 30
0.0
 40
24.1152093319252003
100
AcDbArc
 50
32.6684457625581501
 51
267.1250332120871462
  0
LINE
  5
A9
100
AcDbEntity
100
AcDbLine
  8
AXE
 62
256
370
-1
  6
ByLayer
 10
82.8790799088464212
 20
183.6466819276632805
 30
0.0
 11
82.8790799088464212
 21
235.8328112134344678
 31
0.0
  0
LINE
  5
AA
100
AcDbEntity
100
AcDbLine
  8
FORT
 62
256
370
-1
  6
ByLayer
 10
82.0792943589465551
 20
211.7608190091875429
 30
0.0
 11
83.6788654587461735
 21
211.7608190091875429
 31
0.0
  0
LINE
  5
AB
100
AcDbEntity
100
AcDbLine
  8
FORT
 62
256
370
-1
  6
ByLayer
 10
82.0792943589465551
 20
203.7259189893895268
 30
0.0
 11
83.6788654587461735
 21
203.7259189893895268
 31
0.0
  0
LINE
  5
AC
100
AcDbEntity
100
AcDbLine
  8
FORT
 62
256
370
-1
  6
ByLayer
 10
78.8616298989474274
 20
206.9435834493887114
 30
0.0
 11
78.8616298989474274
 21
208.5431545491883298
 31
0.0
  0
LINE
  5
AD
100
AcDbEntity
100
AcDbLine
  8
FORT
 62
256
370
-1
  6
ByLayer
 10
86.896529918745415
 20
206.9435834493887114
 30
0.0
 11
86.896529918745415
 21
208.5431545491883298
 31
0.0
  0
LINE
  5
AE
100
AcDbEntity
100
AcDbLine
  8
FORT
 62
256
370
-1
  6
ByLayer
 10
78.8616298989474274
 20
208.5431545491883298
 30
0.0
 11
82.0792943589465551
 21
208.5431545491883298
 31
0.0
  0
LINE
  5
AF
100
AcDbEntity
100
AcDbLine
  8
FORT
 62
256
370
-1
  6
ByLayer
 10
82.0792943589465551
 20
208.5431545491883298
 30
0.0
 11
82.0792943589465551
 21
211.7608190091875429
 31
0.0
  0
LINE
  5
B0
100
AcDbEntity
100
AcDbLine
  8
FORT
 62
256
370
-1
  6
ByLayer
 10
83.6788654587461735
 20
211.7608190091875429
 30
0.0
 11
83.6788654587461735
 21
208.5431545491883298
 31
0.0
  0
LINE
  5
B1
100
AcDbEntity
100
AcDbLine
  8
FORT
 62
256
370
-1
  6
ByLayer
 10
83.6788654587461735
 20
208.5431545491883298
 30
0.0
 11
86.896529918745415
 21
208.5431545491883298
 31
0.0
  0
LINE
  5
B2
100
AcDbEntity
100
AcDbLine
  8
FORT
 62
256
370
-1
  6
ByLayer
 10
86.896529918745415
 20
206.9435834493887114
 30
0.0
 11
83.6788654587461735
 21
206.9435834493887114
 31
0.0
  0
LINE
  5
B3
100
AcDbEntity
100
AcDbLine
  8
FORT
 62
256
370
-1
  6
ByLayer
 10
83.6788654587461735
 20
206.9435834493887114
 30
0.0
 11
83.6788654587461735
 21
203.7259189893895268
 31
0.0
  0
LINE
  5
B4
100
AcDbEntity
100
AcDbLine
  8
FORT
 62
256
370
-1
  6
ByLayer
 10
82.0792943589465551
 20
203.7259189893895268
 30
0.0
 11
82.0792943589465551
 21
206.9435834493887114
 31
0.0
  0
LINE
  5
B5
100
AcDbEntity
100
AcDbLine
  8
FORT
 62
256
370
-1
  6
ByLayer
 10
82.0792943589465551
 20
206.9435834493887114
 30
0.0
 11
78.8616298989474274
 21
206.9435834493887114
 31
0.0
  0
LINE
  5
B6
100
AcDbEntity
100
AcDbLine
  8
FORT
 62
256
370
-1
  6
ByLayer
 10
86.9616794590462234
 20
202.8331611073885483
 30
0.0
 11
69.6752323316009239
 21
172.8921564002147306
 31
0.0
  0
LINE
  5
B7
100
AcDbEntity
100
AcDbLine
  8
FORT
 62
256
370
-1
  6
ByLayer
 10
72.1001034621894092
 20
171.4921564002213756
 30
0.0
 11
89.5001034622463578
 21
201.6298404519886276
 31
0.0
  0
LINE
  5
B8
100
AcDbEntity
100
AcDbLine
  8
FORT
 62
256
370
-1
  6
ByLayer
 10
72.1001034622462669
 20
171.4921564001885486
 30
0.0
 11
69.6752323316462991
 21
172.8921564001885258
 31
0.0
  0
LINE
  5
B9
100
AcDbEntity
100
AcDbLine
  8
FORT
 62
256
370
-1
  6
ByLayer
 10
96.9479219346464163
 20
197.3298404519885594
 30
0.0
 11
101.9810702244464267
 21
194.4239509319885997
 31
0.0
  0
LINE
  5
BA
100
AcDbEntity
100
AcDbLine
  8
FORT
 62
256
370
-1
  6
ByLayer
 10
79.5479219346463253
 20
167.192156400188594
 30
0.0
 11
77.1230508040463576
 21
168.5921564001885713
 31
0.0
  0
LINE
  5
BB
100
AcDbEntity
100
AcDbLine
  8
FORT
 62
256
370
-1
  6
ByLayer
 10
86.9957404072462452
 20
162.8921564001885258
 30
0.0
 11
84.5810702244463357
 21
164.2862668801885206
 31
0.0
  0
LINE
  5
BC
100
AcDbEntity
100
AcDbLine
  8
FORT
 62
256
370
-1
  6
ByLayer
 10
79.1230508040463576
 20
172.0562580153885506
 30
0.0
 11
74.1001034622462669
 21
174.9562580153885278
 31
0.0
  0
LINE
  5
BD
100
AcDbEntity
100
AcDbLine
  8
FORT
 62
256
370
-1
  6
ByLayer
 10
86.5810702244463357
 20
167.7503684953884999
 30
0.0
 11
81.5479219346463253
 21
170.6562580153885733
 31
0.0
  0
LINE
  5
BE
100
AcDbEntity
100
AcDbLine
  8
FORT
 62
256
370
-1
  6
ByLayer
 10
94.5230508040462212
 20
198.7298404519885366
 30
0.0
 11
77.1230508039895284
 21
168.5921564002213699
 31
0.0
  0
LINE
  5
BF
100
AcDbEntity
100
AcDbLine
  8
FORT
 62
256
370
-1
  6
ByLayer
 10
79.5479219345894535
 20
167.1921564002214211
 30
0.0
 11
96.9479219346464163
 21
197.3298404519885594
 31
0.0
  0
LINE
  5
C0
100
AcDbEntity
100
AcDbLine
  8
FORT
 62
256
370
-1
  6
ByLayer
 10
101.9810702244464267
 20
194.4239509319885997
 30
0.0
 11
84.5810702243894781
 21
164.2862668802213477
 31
0.0
  0
LINE
  5
C1
100
AcDbEntity
100
AcDbLine
  8
FORT
 62
256
370
-1
  6
ByLayer
 10
86.9957404072008273
 20
162.8921564002147591
 30
0.0
 11
104.2821875346463969
 21
192.8331611073885483
 31
0.0
  0
LINE
  5
C2
100
AcDbEntity
100
AcDbLine
  8
FORT
 62
256
370
-1
  6
ByLayer
 10
109.7921072801464391
 20
195.7608190091875429
 30
0.0
 11
111.3916783799460575
 21
195.7608190091875429
 31
0.0
  0
LINE
  5
C3
100
AcDbEntity
100
AcDbLine
  8
FORT
 62
256
370
-1
  6
ByLayer
 10
109.7921072801464391
 20
187.7259189893895268
 30
0.0
 11
111.3916783799460575
 21
187.7259189893895268
 31
0.0
  0
LINE
  5
C4
100
AcDbEntity
100
AcDbLine
  8
FORT
 62
256
370
-1
  6
ByLayer
 10
106.5744428201473113
 20
190.9435834493887114
 30
0.0
 11
106.5744428201473113
 21
192.5431545491883298
 31
0.0
  0
LINE
  5
C5
100
AcDbEntity
100
AcDbLine
  8
FORT
 62
256
370
-1
  6
ByLayer
 10
114.6093428399452989
 20
190.9435834493887114
 30
0.0
 11
114.6093428399452989
 21
192.5431545491883298
 31
0.0
  0
LINE
  5
C6
100
AcDbEntity
100
AcDbLine
  8
FORT
 62
256
370
-1
  6
ByLayer
 10
106.5744428201473113
 20
192.5431545491883298
 30
0.0
 11
109.7921072801464391
 21
192.5431545491883298
 31
0.0
  0
LINE
  5
C7
100
AcDbEntity
100
AcDbLine
  8
FORT
 62
256
370
-1
  6
ByLayer
 10
109.7921072801464391
 20
192.5431545491883298
 30
0.0
 11
109.7921072801464391
 21
195.7608190091875429
 31
0.0
  0
LINE
  5
C8
100
AcDbEntity
100
AcDbLine
  8
FORT
 62
256
370
-1
  6
ByLayer
 10
111.3916783799460575
 20
195.7608190091875429
 30
0.0
 11
111.3916783799460575
 21
192.5431545491883298
 31
0.0
  0
LINE
  5
C9
100
AcDbEntity
100
AcDbLine
  8
FORT
 62
256
370
-1
  6
ByLayer
 10
111.3916783799460575
 20
192.5431545491883298
 30
0.0
 11
114.6093428399452989
 21
192.5431545491883298
 31
0.0
  0
LINE
  5
CA
100
AcDbEntity
100
AcDbLine
  8
FORT
 62
256
370
-1
  6
ByLayer
 10
114.6093428399452989
 20
190.9435834493887114
 30
0.0
 11
111.3916783799460575
 21
190.9435834493887114
 31
0.0
  0
LINE
  5
CB
100
AcDbEntity
100
AcDbLine
  8
FORT
 62
256
370
-1
  6
ByLayer
 10
111.3916783799460575
 20
190.9435834493887114
 30
0.0
 11
111.3916783799460575
 21
187.7259189893895268
 31
0.0
  0
LINE
  5
CC
100
AcDbEntity
100
AcDbLine
  8
FORT
 62
256
370
-1
  6
ByLayer
 10
109.7921072801464391
 20
187.7259189893895268
 30
0.0
 11
109.7921072801464391
 21
190.9435834493887114
 31
0.0
  0
LINE
  5
CD
100
AcDbEntity
100
AcDbLine
  8
FORT
 62
256
370
-1
  6
ByLayer
 10
109.7921072801464391
 20
190.9435834493887114
 30
0.0
 11
106.5744428201473113
 21
190.9435834493887114
 31
0.0
  0
ARC
  5
CE
100
AcDbEntity
  8
FORT
 62
256
370
-1
  6
ByLayer
100
AcDbCircle
 10
110.5918928300463051
 20
191.7618912595884808
 30
0.0
 40
21.6000000000000014
100
AcDbArc
 50
223.8723797867999963
 51
336.9535719190999998
  0
LINE
  5
CF
100
AcDbEntity
100
AcDbLine
  8
FORT
 62
256
370
-1
  6
ByLayer
 10
119.7918928300463506
 20
190.9618912595885263
 30
0.0
 11
116.9416959764463684
 21
190.9618912595885263
 31
0.0
  0
LINE
  5
D0
100
AcDbEntity
100
AcDbLine
  8
FORT
 62
256
370
-1
  6
ByLayer
 10
139.7918928300463506
 20
185.5091784809885098
 30
0.0
 11
113.5353934880462532
 21
179.3049332087885546
 31
0.0
  0
ARC
  5
D1
100
AcDbEntity
  8
FORT
 62
256
370
-1
  6
ByLayer
100
AcDbCircle
 10
110.5918928300463051
 20
191.7618912595884808
 30
0.0
 40
12.8000000000000007
100
AcDbArc
 50
239.9999999999999716
 51
283.2947750129000042
  0
LINE
  5
D2
100
AcDbEntity
100
AcDbLine
  8
FORT
 62
256
370
-1
  6
ByLayer
 10
104.1918928300464415
 20
180.6767660909885649
 30
0.0
 11
98.9957404072462452
 21
183.6767660909885649
 31
0.0
  0
LINE
  5
D3
100
AcDbEntity
100
AcDbLine
  8
FORT
 62
256
370
-1
  6
ByLayer
 10
115.7918928300463506
 20
195.4928428807886007
 30
0.0
 11
115.7918928300463506
 21
278.9618912595885263
 31
0.0
  0
LINE
  5
D4
100
AcDbEntity
100
AcDbLine
  8
FORT
 62
256
370
-1
  6
ByLayer
 10
98.5918928300463051
 20
232.9618912595885263
 30
0.0
 11
99.7918928300463506
 21
232.9618912595885263
 31
0.0
  0
LINE
  5
D5
100
AcDbEntity
100
AcDbLine
  8
FORT
 62
256
370
-1
  6
ByLayer
 10
99.7918928300463506
 20
244.9618912595885263
 30
0.0
 11
98.5918928300463051
 21
244.9618912595885263
 31
0.0
  0
LINE
  5
D6
100
AcDbEntity
100
AcDbLine
  8
FORT
 62
256
370
-1
  6
ByLayer
 10
96.9918928300463961
 20
236.9618912595885263
 30
0.0
 11
98.5918928300463051
 21
236.9618912595885263
 31
0.0
  0
LINE
  5
D7
100
AcDbEntity
100
AcDbLine
  8
FORT
 62
256
370
-1
  6
ByLayer
 10
98.5918928300463051
 20
240.9618912595885263
 30
0.0
 11
96.9918928300463961
 21
240.9618912595885263
 31
0.0
  0
LINE
  5
D8
100
AcDbEntity
100
AcDbLine
  8
FORT
 62
256
370
-1
  6
ByLayer
 10
98.5918928300463051
 20
232.9618912595885263
 30
0.0
 11
98.5918928300463051
 21
244.9618912595885263
 31
0.0
  0
LINE
  5
D9
100
AcDbEntity
100
AcDbLine
  8
FORT
 62
256
370
-1
  6
ByLayer
 10
99.7918928300463506
 20
247.8523955233885658
 30
0.0
 11
99.7918928300463506
 21
230.0654685223884712
 31
0.0
  0
ARC
  5
DA
100
AcDbEntity
  8
FORT
 62
256
370
-1
  6
ByLayer
100
AcDbCircle
 10
82.8718928298464164
 20
270.1618912595885718
 30
0.0
 40
28.0
100
AcDbArc
 50
307.1774599172999842
 51
327.1216504355999746
  0
LINE
  5
DB
100
AcDbEntity
100
AcDbLine
  8
FORT
 62
256
370
-1
  6
ByLayer
 10
115.7918928300463506
 20
254.9618912595885263
 30
0.0
 11
106.3869943606463551
 21
254.9618912595885263
 31
0.0
  0
CIRCLE
  5
DC
100
AcDbEntity
100
AcDbCircle
  8
FORT
 62
256
370
-1
  6
ByLayer
 10
93.7918928300463506
 20
256.9618912595885263
 30
0.0
 40
4.0
  0
CIRCLE
  5
DD
100
AcDbEntity
100
AcDbCircle
  8
FORT
 62
256
370
-1
  6
ByLayer
 10
93.7918928300463506
 20
256.9618912595885263
 30
0.0
 40
5.2000000000000002
  0
LINE
  5
DE
100
AcDbEntity
100
AcDbLine
  8
FORT
 62
256
370
-1
  6
ByLayer
 10
83.7918928300463506
 20
248.9618912595885263
 30
0.0
 11
83.7918928300463506
 21
260.4866826453884983
 31
0.0
  0
LINE
  5
DF
100
AcDbEntity
100
AcDbLine
  8
FORT
 62
256
370
-1
  6
ByLayer
 10
101.1628742142462727
 20
248.9618912595885263
 30
0.0
 11
83.7918928300463506
 21
248.9618912595885263
 31
0.0
  0
LINE
  5
E0
100
AcDbEntity
100
AcDbLine
  8
FORT
 62
256
370
-1
  6
ByLayer
 10
115.7918928300463506
 20
263.3618912595886172
 30
0.0
 11
103.8281428988463233
 21
263.3618912595886172
 31
0.0
  0
LINE
  5
E1
100
AcDbEntity
100
AcDbLine
  8
FORT
 62
256
370
-1
  6
ByLayer
 10
103.8281428988463233
 20
267.3618912595886172
 30
0.0
 11
103.8281428988463233
 21
263.3618912595886172
 31
0.0
  0
LINE
  5
E2
100
AcDbEntity
100
AcDbLine
  8
FORT
 62
256
370
-1
  6
ByLayer
 10
115.7918928300463506
 20
267.3618912595886172
 30
0.0
 11
103.8281428988463233
 21
267.3618912595886172
 31
0.0
  0
LINE
  5
E3
100
AcDbEntity
100
AcDbLine
  8
FORT
 62
256
370
-1
  6
ByLayer
 10
119.7918928300463506
 20
278.9618912595885263
 30
0.0
 11
115.7918928300463506
 21
278.9618912595885263
 31
0.0
  0
LINE
  5
E4
100
AcDbEntity
100
AcDbLine
  8
FORT
 62
256
370
-1
  6
ByLayer
 10
119.7918928300463506
 20
271.3618912595886172
 30
0.0
 11
119.7918928300463506
 21
278.9618912595885263
 31
0.0
  0
LINE
  5
E5
100
AcDbEntity
100
AcDbLine
  8
FORT
 62
256
370
-1
  6
ByLayer
 10
83.7918928300463506
 20
260.4866826453884983
 30
0.0
 11
115.7918928300463506
 21
278.9618912595885263
 31
0.0
  0
LINE
  5
E6
100
AcDbEntity
100
AcDbLine
  8
FORT
 62
256
370
-1
  6
ByLayer
 10
139.7918928300463506
 20
265.7618912595884808
 30
0.0
 11
159.7918928300463506
 21
265.7618912595884808
 31
0.0
  0
LINE
  5
E7
100
AcDbEntity
100
AcDbLine
  8
FORT
 62
256
370
-1
  6
ByLayer
 10
159.7918928300463506
 20
272.9618912595885263
 30
0.0
 11
119.7918928300463506
 21
272.9618912595885263
 31
0.0
  0
LINE
  5
E8
100
AcDbEntity
100
AcDbLine
  8
FORT
 62
256
370
-1
  6
ByLayer
 10
139.7918928300463506
 20
271.3618912595886172
 30
0.0
 11
119.7918928300463506
 21
271.3618912595886172
 31
0.0
  0
LINE
  5
E9
100
AcDbEntity
100
AcDbLine
  8
FORT
 62
256
370
-1
  6
ByLayer
 10
139.7918928300463506
 20
271.3618912595886172
 30
0.0
 11
139.7918928300463506
 21
267.3618912595886172
 31
0.0
  0
LINE
  5
EA
100
AcDbEntity
100
AcDbLine
  8
FORT
 62
256
370
-1
  6
ByLayer
 10
139.7918928300463506
 20
267.3618912595886172
 30
0.0
 11
119.7918928300463506
 21
267.3618912595886172
 31
0.0
  0
LINE
  5
EB
100
AcDbEntity
100
AcDbLine
  8
FORT
 62
256
370
-1
  6
ByLayer
 10
119.7918928300463506
 20
266.3685653499885007
 30
0.0
 11
139.7918928300463506
 21
266.3685653499885007
 31
0.0
  0
LINE
  5
EC
100
AcDbEntity
100
AcDbLine
  8
FORT
 62
256
370
-1
  6
ByLayer
 10
139.7918928300463506
 20
266.3685653499885007
 30
0.0
 11
139.7918928300463506
 21
250.9618912595885263
 31
0.0
  0
LINE
  5
ED
100
AcDbEntity
100
AcDbLine
  8
FORT
 62
256
370
-1
  6
ByLayer
 10
159.7918928300463506
 20
265.7618912595884808
 30
0.0
 11
159.7918928300463506
 21
272.9618912595885263
 31
0.0
  0
LINE
  5
EE
100
AcDbEntity
100
AcDbLine
  8
FORT
 62
256
370
-1
  6
ByLayer
 10
161.7918928300463506
 20
232.1618912595885718
 30
0.0
 11
165.7918928300463506
 21
232.1618912595885718
 31
0.0
  0
LINE
  5
EF
100
AcDbEntity
100
AcDbLine
  8
FORT
 62
256
370
-1
  6
ByLayer
 10
161.7918928300463506
 20
230.9618912595885263
 30
0.0
 11
161.7918928300463506
 21
246.9618912595885263
 31
0.0
  0
LINE
  5
F0
100
AcDbEntity
100
AcDbLine
  8
FORT
 62
256
370
-1
  6
ByLayer
 10
165.7918928300463506
 20
238.9618912595885263
 30
0.0
 11
161.7918928300463506
 21
238.9618912595885263
 31
0.0
  0
LINE
  5
F1
100
AcDbEntity
100
AcDbLine
  8
FORT
 62
256
370
-1
  6
ByLayer
 10
119.7918928300463506
 20
250.9618912595885263
 30
0.0
 11
119.7918928300463506
 21
267.3618912595886172
 31
0.0
  0
LINE
  5
F2
100
AcDbEntity
100
AcDbLine
  8
FORT
 62
256
370
-1
  6
ByLayer
 10
167.4487470794462354
 20
250.9618912595885263
 30
0.0
 11
119.7918928300463506
 21
250.9618912595885263
 31
0.0
  0
LINE
  5
F3
100
AcDbEntity
100
AcDbLine
  8
FORT
 62
256
370
-1
  6
ByLayer
 10
173.7918928300463506
 20
244.6187455089886384
 30
0.0
 11
167.4487470794462354
 21
250.9618912595885263
 31
0.0
  0
LINE
  5
F4
100
AcDbEntity
100
AcDbLine
  8
FORT
 62
256
370
-1
  6
ByLayer
 10
173.7918928300463506
 20
226.9618912595885263
 30
0.0
 11
173.7918928300463506
 21
244.6187455089886384
 31
0.0
  0
LINE
  5
F5
100
AcDbEntity
100
AcDbLine
  8
FORT
 62
256
370
-1
  6
ByLayer
 10
169.7918928300463506
 20
242.9618912595885263
 30
0.0
 11
169.7918928300463506
 21
230.9618912595885263
 31
0.0
  0
LINE
  5
F6
100
AcDbEntity
100
AcDbLine
  8
FORT
 62
256
370
-1
  6
ByLayer
 10
165.7918928300463506
 20
246.9618912595885263
 30
0.0
 11
169.7918928300463506
 21
242.9618912595885263
 31
0.0
  0
LINE
  5
F7
100
AcDbEntity
100
AcDbLine
  8
FORT
 62
256
370
-1
  6
ByLayer
 10
119.7918928300463506
 20
246.9618912595885263
 30
0.0
 11
165.7918928300463506
 21
246.9618912595885263
 31
0.0
  0
LINE
  5
F8
100
AcDbEntity
100
AcDbLine
  8
FORT
 62
256
370
-1
  6
ByLayer
 10
119.7918928300463506
 20
230.9618912595885263
 30
0.0
 11
119.7918928300463506
 21
246.9618912595885263
 31
0.0
  0
LINE
  5
F9
100
AcDbEntity
100
AcDbLine
  8
FORT
 62
256
370
-1
  6
ByLayer
 10
169.7918928300463506
 20
230.9618912595885263
 30
0.0
 11
119.7918928300463506
 21
230.9618912595885263
 31
0.0
  0
LINE
  5
FA
100
AcDbEntity
100
AcDbLine
  8
FORT
 62
256
370
-1
  6
ByLayer
 10
173.7918928300463506
 20
226.9618912595885263
 30
0.0
 11
115.7918928300463506
 21
226.9618912595885263
 31
0.0
  0
LINE
  5
FB
100
AcDbEntity
100
AcDbLine
  8
FORT
 62
256
370
-1
  6
ByLayer
 10
139.7918928300463506
 20
246.9618912595885263
 30
0.0
 11
139.7918928300463506
 21
230.9618912595885263
 31
0.0
  0
LINE
  5
FC
100
AcDbEntity
100
AcDbLine
  8
FORT
 62
256
370
-1
  6
ByLayer
 10
139.7918928300463506
 20
253.9872032363885523
 30
0.0
 11
119.7918928300463506
 21
253.9872032363885523
 31
0.0
  0
LINE
  5
FD
100
AcDbEntity
100
AcDbLine
  8
FORT
 62
256
370
-1
  6
ByLayer
 10
165.7918928300463506
 20
232.1618912595885718
 30
0.0
 11
165.7918928300463506
 21
245.7618912595884808
 31
0.0
  0
LINE
  5
FE
100
AcDbEntity
100
AcDbLine
  8
FORT
 62
256
370
-1
  6
ByLayer
 10
165.7918928300463506
 20
245.7618912595884808
 30
0.0
 11
161.7918928300463506
 21
245.7618912595884808
 31
0.0
  0
LINE
  5
FF
100
AcDbEntity
100
AcDbLine
  8
FORT
 62
256
370
-1
  6
ByLayer
 10
165.7918928300463506
 20
244.9618912595885263
 30
0.0
 11
161.7918928300463506
 21
244.9618912595885263
 31
0.0
  0
LINE
  5
100
100
AcDbEntity
100
AcDbLine
  8
FORT
 62
256
370
-1
  6
ByLayer
 10
119.7918928300463506
 20
204.9618912595885263
 30
0.0
 11
159.7918928300463506
 21
204.9618912595885263
 31
0.0
  0
LINE
  5
101
100
AcDbEntity
100
AcDbLine
  8
FORT
 62
256
370
-1
  6
ByLayer
 10
159.7918928300463506
 20
212.1618912595885718
 30
0.0
 11
139.7918928300463506
 21
212.1618912595885718
 31
0.0
  0
LINE
  5
102
100
AcDbEntity
100
AcDbLine
  8
FORT
 62
256
370
-1
  6
ByLayer
 10
139.7918928300463506
 20
204.9618912595885263
 30
0.0
 11
139.7918928300463506
 21
185.5091784809885098
 31
0.0
  0
LINE
  5
103
100
AcDbEntity
100
AcDbLine
  8
FORT
 62
256
370
-1
  6
ByLayer
 10
159.7918928300463506
 20
204.9618912595885263
 30
0.0
 11
159.7918928300463506
 21
212.1618912595885718
 31
0.0
  0
LINE
  5
104
100
AcDbEntity
100
AcDbLine
  8
FORT
 62
256
370
-1
  6
ByLayer
 10
139.7918928300463506
 20
210.561891259588549
 30
0.0
 11
119.7918928300463506
 21
210.561891259588549
 31
0.0
  0
LINE
  5
105
100
AcDbEntity
100
AcDbLine
  8
FORT
 62
256
370
-1
  6
ByLayer
 10
139.7918928300463506
 20
210.561891259588549
 30
0.0
 11
139.7918928300463506
 21
206.561891259588549
 31
0.0
  0
LINE
  5
106
100
AcDbEntity
100
AcDbLine
  8
FORT
 62
256
370
-1
  6
ByLayer
 10
139.7918928300463506
 20
206.561891259588549
 30
0.0
 11
115.7918928300463506
 21
206.561891259588549
 31
0.0
  0
LINE
  5
107
100
AcDbEntity
100
AcDbLine
  8
FORT
 62
256
370
-1
  6
ByLayer
 10
119.7918928300463506
 20
210.561891259588549
 30
0.0
 11
119.7918928300463506
 21
226.9618912595885263
 31
0.0
  0
LINE
  5
108
100
AcDbEntity
100
AcDbLine
  8
FORT
 62
256
370
-1
  6
ByLayer
 10
119.7918928300463506
 20
223.9365792827886139
 30
0.0
 11
139.7918928300463506
 21
223.9365792827886139
 31
0.0
  0
LINE
  5
109
100
AcDbEntity
100
AcDbLine
  8
FORT
 62
256
370
-1
  6
ByLayer
 10
139.7918928300463506
 20
211.5552171689885768
 30
0.0
 11
119.7918928300463506
 21
211.5552171689885768
 31
0.0
  0
LINE
  5
10A
100
AcDbEntity
100
AcDbLine
  8
FORT
 62
256
370
-1
  6
ByLayer
 10
139.7918928300463506
 20
226.9618912595885263
 30
0.0
 11
139.7918928300463506
 21
211.5552171689885768
 31
0.0
  0
LINE
  5
10B
100
AcDbEntity
100
AcDbLine
  8
AXE
 62
256
370
-1
  6
ByLayer
 10
140.4415167331402472
 20
191.7618912595884808
 30
0.0
 11
80.7422689269523772
 21
191.7618912595884808
 31
0.0
  0
LINE
  5
10C
100
AcDbEntity
100
AcDbLine
  8
AXE
 62
256
370
-1
  6
ByLayer
 10
110.5918928300463051
 20
167.6466819276632805
 30
0.0
 11
110.5918928300463051
 21
219.8328112134344678
 31
0.0
  0
LINE
  5
10D
100
AcDbEntity
100
AcDbLine
  8
AXE
 62
256
370
-1
  6
ByLayer
 10
55.8280340067643195
 20
238.9618912595885831
 30
0.0
 11
177.7017260254710891
 21
238.9618912595885831
 31
0.0
  0
LINE
  5
10E
100
AcDbEntity
100
AcDbLine
  8
AXE
 62
256
370
-1
  6
ByLayer
 10
93.7918928300463506
 20
249.6752263772338267
 30
0.0
 11
93.7918928300463506
 21
264.2485561419432543
 31
0.0
  0
LINE
  5
10F
100
AcDbEntity
100
AcDbLine
  8
AXE
 62
256
370
-1
  6
ByLayer
 10
101.0785577124010644
 20
256.9618912595885263
 30
0.0
 11
86.505227947691651
 21
256.9618912595885263
 31
0.0
  0
LINE
  5
110
100
AcDbEntity
100
AcDbLine
  8
AXE
 62
256
370
-1
  6
ByLayer
 10
127.7918928300463506
 20
187.2752263772338495
 30
0.0
 11
127.7918928300463506
 21
201.848556141943277
 31
0.0
  0
LINE
  5
111
100
AcDbEntity
100
AcDbLine
  8
AXE
 62
256
370
-1
  6
ByLayer
 10
135.0785577124010501
 20
194.561891259588549
 30
0.0
 11
120.505227947691651
 21
194.561891259588549
 31
0.0
  0
LINE
  5
112
100
AcDbEntity
100
AcDbLine
  8
AXE
 62
256
370
-1
  6
ByLayer
 10
210.142265450890676
 20
238.9618912595885831
 30
0.0
 11
260.5586304515408074
 21
238.9618912595885831
 31
0.0
  0
LINE
  5
113
100
AcDbEntity
100
AcDbLine
  8
AXE
 62
256
370
-1
  6
ByLayer
 10
235.0089894067999126
 20
226.2775873987295085
 30
0.0
 11
235.0089894067999126
 21
251.232313761768836
 31
0.0
  0
LINE
  5
114
100
AcDbEntity
100
AcDbLine
  8
AXE
 62
256
370
-1
  6
ByLayer
 10
227.5590032379751619
 20
233.3097543531470137
 30
0.0
 11
220.0589755756246291
 21
233.3097543531470137
 31
0.0
  0
LINE
  5
115
100
AcDbEntity
100
AcDbLine
  8
AXE
 62
256
370
-1
  6
ByLayer
 10
227.5590032379751619
 20
182.2140281660299479
 30
0.0
 11
220.0589755756246007
 21
182.2140281660299479
 31
0.0
  0
LINE
  5
116
100
AcDbEntity
100
AcDbLine
  8
AXE
 62
256
370
-1
  6
ByLayer
 10
351.752317418656844
 20
249.6752263772338267
 30
0.0
 11
351.752317418656844
 21
264.2485561419432543
 31
0.0
  0
LINE
  5
117
100
AcDbEntity
100
AcDbLine
  8
AXE
 62
256
370
-1
  6
ByLayer
 10
359.038982301011572
 20
256.9618912595885263
 30
0.0
 11
344.4656525363021728
 21
256.9618912595885263
 31
0.0
  0
LINE
  5
118
100
AcDbEntity
100
AcDbLine
  8
AXE
 62
256
370
-1
  6
ByLayer
 10
317.752317418656844
 20
231.6752263772338267
 30
0.0
 11
317.752317418656844
 21
246.2485561419432543
 31
0.0
  0
LINE
  5
119
100
AcDbEntity
100
AcDbLine
  8
AXE
 62
256
370
-1
  6
ByLayer
 10
325.038982301011572
 20
238.9618912595885263
 30
0.0
 11
310.4656525363021728
 21
238.9618912595885263
 31
0.0
  0
LINE
  5
11A
100
AcDbEntity
100
AcDbLine
  8
AXE
 62
256
370
-1
  6
ByLayer
 10
245.8089894067998955
 20
231.6752263772338267
 30
0.0
 11
245.8089894067998955
 21
246.2485561419432543
 31
0.0
  0
LINE
  5
11B
100
AcDbEntity
100
AcDbLine
  8
AXE
 62
256
370
-1
  6
ByLayer
 10
224.2089894067999012
 20
231.6752263772338267
 30
0.0
 11
224.2089894067999012
 21
246.2485561419432543
 31
0.0
  0
ARC
  5
11C
100
AcDbEntity
  8
FORT
 62
256
370
-1
  6
ByLayer
100
AcDbCircle
 10
110.5918928300463051
 20
191.7618912595884808
 30
0.0
 40
27.0000000000000213
100
AcDbArc
 50
227.1604115928865895
 51
344.9956948215809689
  0
ARC
  5
11D
100
AcDbEntity
  8
FORT
 62
256
370
-1
  6
ByLayer
100
AcDbCircle
 10
110.5918928300463051
 20
191.7618912595884808
 30
0.0
 40
21.6000000000000014
100
AcDbArc
 50
1.1079588721
 51
17.3842666190000017
  0
LINE
  5
11E
100
AcDbEntity
100
AcDbLine
  8
FORT
 62
256
370
-1
  6
ByLayer
 10
119.7918928300463506
 20
190.9618912595885263
 30
0.0
 11
119.7918928300463506
 21
206.561891259588549
 31
0.0
  0
CIRCLE
  5
11F
100
AcDbEntity
100
AcDbCircle
  8
FORT
 62
256
370
-1
  6
ByLayer
 10
127.7918928300463506
 20
194.561891259588549
 30
0.0
 40
5.0
  0
LINE
  5
120
100
AcDbEntity
100
AcDbLine
  8
FORT
 62
256
370
-1
  6
ByLayer
 10
228.2090072593015293
 20
233.5897595789921866
 30
0.0
 11
228.2090072593015293
 21
244.3340229401847523
 31
0.0
  0
LINE
  5
121
100
AcDbEntity
100
AcDbLine
  8
FORT
 62
256
370
-1
  6
ByLayer
 10
241.808971554298239
 20
233.5897595789921866
 30
0.0
 11
241.808971554298239
 21
244.3340229401847523
 31
0.0
  0
CIRCLE
  5
122
100
AcDbEntity
100
AcDbCircle
  8
FORT
 62
256
370
-1
  6
ByLayer
 10
235.0089894067999126
 20
238.9618912595885263
 30
0.0
 40
8.6659999999978368
  0
ARC
  5
123
100
AcDbEntity
  8
FORT
 62
256
370
-1
  6
ByLayer
100
AcDbCircle
 10
245.8089894067998955
 20
238.9618912595885263
 30
0.0
 40
6.0
100
AcDbArc
 50
232.6934621796000044
 51
127.1220019752999946
  0
LINE
  5
124
100
AcDbEntity
100
AcDbLine
  8
FORT
 62
256
370
-1
  6
ByLayer
 10
225.0087749567024389
 20
242.9793412694874633
 30
0.0
 11
223.4092038569027636
 21
242.9793412694874633
 31
0.0
  0
LINE
  5
125
100
AcDbEntity
100
AcDbLine
  8
FORT
 62
256
370
-1
  6
ByLayer
 10
225.0087749567024389
 20
234.9444412496894472
 30
0.0
 11
223.4092038569027636
 21
234.9444412496894472
 31
0.0
  0
LINE
  5
126
100
AcDbEntity
100
AcDbLine
  8
FORT
 62
256
370
-1
  6
ByLayer
 10
220.1915393969035222
 20
238.1621057096886318
 30
0.0
 11
220.1915393969035222
 21
239.7616768094882786
 31
0.0
  0
LINE
  5
127
100
AcDbEntity
100
AcDbLine
  8
FORT
 62
256
370
-1
  6
ByLayer
 10
223.4092038569027636
 20
239.7616768094882786
 30
0.0
 11
223.4092038569027636
 21
242.9793412694874633
 31
0.0
  0
LINE
  5
128
100
AcDbEntity
100
AcDbLine
  8
FORT
 62
256
370
-1
  6
ByLayer
 10
220.1915393969035222
 20
239.7616768094882786
 30
0.0
 11
223.4092038569027636
 21
239.7616768094882786
 31
0.0
  0
LINE
  5
129
100
AcDbEntity
100
AcDbLine
  8
FORT
 62
256
370
-1
  6
ByLayer
 10
220.1915393969035222
 20
238.1621057096886318
 30
0.0
 11
223.4092038569027636
 21
238.1621057096886318
 31
0.0
  0
LINE
  5
12A
100
AcDbEntity
100
AcDbLine
  8
FORT
 62
256
370
-1
  6
ByLayer
 10
223.4092038569027636
 20
238.1621057096886318
 30
0.0
 11
223.4092038569027636
 21
234.9444412496894472
 31
0.0
  0
LINE
  5
12B
100
AcDbEntity
100
AcDbLine
  8
FORT
 62
256
370
-1
  6
ByLayer
 10
225.0087749567024389
 20
234.9444412496894472
 30
0.0
 11
225.0087749567024389
 21
238.1621057096886318
 31
0.0
  0
LINE
  5
12C
100
AcDbEntity
100
AcDbLine
  8
FORT
 62
256
370
-1
  6
ByLayer
 10
225.0087749567024389
 20
239.7616768094882786
 30
0.0
 11
225.0087749567024389
 21
242.9793412694874633
 31
0.0
  0
LINE
  5
12D
100
AcDbEntity
100
AcDbLine
  8
FORT
 62
256
370
-1
  6
ByLayer
 10
225.0087749567024389
 20
239.7616768094882786
 30
0.0
 11
226.37997445292865
 21
239.7616768094882786
 31
0.0
  0
LINE
  5
12E
100
AcDbEntity
100
AcDbLine
  8
FORT
 62
256
370
-1
  6
ByLayer
 10
225.0087749567024389
 20
238.1621057096886318
 30
0.0
 11
226.37997445292865
 21
238.1621057096886318
 31
0.0
  0
LINE
  5
12F
100
AcDbEntity
100
AcDbLine
  8
FORT
 62
256
370
-1
  6
ByLayer
 10
245.0092038568973862
 20
242.9793412694874633
 30
0.0
 11
246.6087749566970615
 21
242.9793412694874633
 31
0.0
  0
LINE
  5
130
100
AcDbEntity
100
AcDbLine
  8
FORT
 62
256
370
-1
  6
ByLayer
 10
245.0092038568973862
 20
234.9444412496894472
 30
0.0
 11
246.6087749566970615
 21
234.9444412496894472
 31
0.0
  0
LINE
  5
131
100
AcDbEntity
100
AcDbLine
  8
FORT
 62
256
370
-1
  6
ByLayer
 10
249.8264394166963029
 20
238.1621057096886318
 30
0.0
 11
249.8264394166963029
 21
239.7616768094882786
 31
0.0
  0
LINE
  5
132
100
AcDbEntity
100
AcDbLine
  8
FORT
 62
256
370
-1
  6
ByLayer
 10
246.6087749566970615
 20
239.7616768094882786
 30
0.0
 11
246.6087749566970615
 21
242.9793412694874633
 31
0.0
  0
LINE
  5
133
100
AcDbEntity
100
AcDbLine
  8
FORT
 62
256
370
-1
  6
ByLayer
 10
249.8264394166963029
 20
239.7616768094882786
 30
0.0
 11
246.6087749566970615
 21
239.7616768094882786
 31
0.0
  0
LINE
  5
134
100
AcDbEntity
100
AcDbLine
  8
FORT
 62
256
370
-1
  6
ByLayer
 10
249.8264394166963029
 20
238.1621057096886318
 30
0.0
 11
246.6087749566970615
 21
238.1621057096886318
 31
0.0
  0
LINE
  5
135
100
AcDbEntity
100
AcDbLine
  8
FORT
 62
256
370
-1
  6
ByLayer
 10
246.6087749566970615
 20
238.1621057096886318
 30
0.0
 11
246.6087749566970615
 21
234.9444412496894472
 31
0.0
  0
LINE
  5
136
100
AcDbEntity
100
AcDbLine
  8
FORT
 62
256
370
-1
  6
ByLayer
 10
245.0092038568973862
 20
234.9444412496894472
 30
0.0
 11
245.0092038568973862
 21
238.1621057096886318
 31
0.0
  0
LINE
  5
137
100
AcDbEntity
100
AcDbLine
  8
FORT
 62
256
370
-1
  6
ByLayer
 10
245.0092038568973862
 20
239.7616768094882786
 30
0.0
 11
245.0092038568973862
 21
242.9793412694874633
 31
0.0
  0
LINE
  5
138
100
AcDbEntity
100
AcDbLine
  8
FORT
 62
256
370
-1
  6
ByLayer
 10
245.0092038568973862
 20
239.7616768094882786
 30
0.0
 11
243.6380043606711752
 21
239.7616768094882786
 31
0.0
  0
LINE
  5
139
100
AcDbEntity
100
AcDbLine
  8
FORT
 62
256
370
-1
  6
ByLayer
 10
245.0092038568973862
 20
238.1621057096886318
 30
0.0
 11
243.6380043606711752
 21
238.1621057096886318
 31
0.0
  0
ARC
  5
13A
100
AcDbEntity
  8
FORT
 62
256
370
-1
  6
ByLayer
100
AcDbCircle
 10
224.2089894067999012
 20
238.9618912595885263
 30
0.0
 40
6.0
100
AcDbArc
 50
289.4712206345000141
 51
307.1235991441000124
  0
ARC
  5
13B
100
AcDbEntity
  8
FORT
 62
256
370
-1
  6
ByLayer
100
AcDbCircle
 10
224.2089894067999012
 20
238.9618912595885263
 30
0.0
 40
6.0
100
AcDbArc
 50
53.2704631559000035
 51
242.1818607153459482
  0
LINE
  5
13C
100
AcDbEntity
100
AcDbLine
  8
FORT
 62
256
370
-1
  6
ByLayer
 10
243.4089894067998898
 20
260.4866826453884983
 30
0.0
 11
239.4089894067998898
 21
260.4866826453884983
 31
0.0
  0
LINE
  5
13D
100
AcDbEntity
100
AcDbLine
  8
FORT
 62
256
370
-1
  6
ByLayer
 10
243.4089894067998898
 20
248.9618912595885263
 30
0.0
 11
239.4089894067998898
 21
248.9618912595885263
 31
0.0
  0
LINE
  5
13E
100
AcDbEntity
100
AcDbLine
  8
FORT
 62
256
370
-1
  6
ByLayer
 10
239.4089894067998898
 20
248.9618912595885263
 30
0.0
 11
239.4089894067998898
 21
278.9618912595885263
 31
0.0
  0
LINE
  5
13F
100
AcDbEntity
100
AcDbLine
  8
FORT
 62
256
370
-1
  6
ByLayer
 10
243.4089894067998898
 20
248.9618912595885263
 30
0.0
 11
243.4089894067998898
 21
278.9618912595885263
 31
0.0
  0
LINE
  5
140
100
AcDbEntity
100
AcDbLine
  8
FORT
 62
256
370
-1
  6
ByLayer
 10
243.4089894067998898
 20
251.7618912595884808
 30
0.0
 11
247.4089894067999182
 21
251.7618912595884808
 31
0.0
  0
LINE
  5
141
100
AcDbEntity
100
AcDbLine
  8
FORT
 62
256
370
-1
  6
ByLayer
 10
247.4089894067999182
 20
262.1618912595885718
 30
0.0
 11
243.4089894067998898
 21
262.1618912595885718
 31
0.0
  0
LINE
  5
142
100
AcDbEntity
100
AcDbLine
  8
FORT
 62
256
370
-1
  6
ByLayer
 10
231.4089894067998898
 20
259.1054847989884706
 30
0.0
 11
239.4089894067998898
 21
259.1054847989884706
 31
0.0
  0
LINE
  5
143
100
AcDbEntity
100
AcDbLine
  8
FORT
 62
256
370
-1
  6
ByLayer
 10
247.4089894067999182
 20
262.1618912595885718
 30
0.0
 11
247.4089894067999182
 21
251.7618912595884808
 31
0.0
  0
LINE
  5
144
100
AcDbEntity
100
AcDbLine
  8
FORT
 62
256
370
-1
  6
ByLayer
 10
231.4089894067998898
 20
262.1054847989884706
 30
0.0
 11
239.4089894067998898
 21
262.1054847989884706
 31
0.0
  0
LINE
  5
145
100
AcDbEntity
100
AcDbLine
  8
FORT
 62
256
370
-1
  6
ByLayer
 10
231.4089894067998898
 20
268.1054847989884706
 30
0.0
 11
239.4089894067998898
 21
268.1054847989884706
 31
0.0
  0
LINE
  5
146
100
AcDbEntity
100
AcDbLine
  8
FORT
 62
256
370
-1
  6
ByLayer
 10
255.8089894067998955
 20
263.3618912595886172
 30
0.0
 11
243.4089894067998898
 21
263.3618912595886172
 31
0.0
  0
LINE
  5
147
100
AcDbEntity
100
AcDbLine
  8
FORT
 62
256
370
-1
  6
ByLayer
 10
255.8089894067998955
 20
267.3618912595886172
 30
0.0
 11
243.4089894067998898
 21
267.3618912595886172
 31
0.0
  0
LINE
  5
148
100
AcDbEntity
100
AcDbLine
  8
FORT
 62
256
370
-1
  6
ByLayer
 10
238.2089894067999012
 20
278.9618912595885263
 30
0.0
 11
223.0089894067999126
 21
254.9618912595885263
 31
0.0
  0
LINE
  5
149
100
AcDbEntity
100
AcDbLine
  8
FORT
 62
256
370
-1
  6
ByLayer
 10
248.2089894067998728
 20
278.9618912595885263
 30
0.0
 11
238.2089894067999012
 21
278.9618912595885263
 31
0.0
  0
LINE
  5
14A
100
AcDbEntity
100
AcDbLine
  8
FORT
 62
256
370
-1
  6
ByLayer
 10
231.4089894067998898
 20
259.1054847989884706
 30
0.0
 11
231.4089894067998898
 21
268.1054847989884706
 31
0.0
  0
ARC
  5
14B
100
AcDbEntity
  8
FORT
 62
256
370
-1
  6
ByLayer
100
AcDbCircle
 10
248.2089894067998728
 20
271.3618912595886172
 30
0.0
 40
7.5999999999999996
100
AcDbArc
 50
0.0
 51
90.0
  0
LINE
  5
14C
100
AcDbEntity
100
AcDbLine
  8
FORT
 62
256
370
-1
  6
ByLayer
 10
255.8089894067998955
 20
226.9618912595885263
 30
0.0
 11
255.8089894067998955
 21
271.3618912595886172
 31
0.0
  0
LINE
  5
14D
100
AcDbEntity
100
AcDbLine
  8
FORT
 62
256
370
-1
  6
ByLayer
 10
223.0089894067999126
 20
254.9618912595885263
 30
0.0
 11
239.4089894067998898
 21
254.9618912595885263
 31
0.0
  0
LINE
  5
14E
100
AcDbEntity
100
AcDbLine
  8
FORT
 62
256
370
-1
  6
ByLayer
 10
212.2089894067999012
 20
217.7618912595884808
 30
0.0
 11
184.2089894067999012
 21
217.7618912595884808
 31
0.0
  0
LINE
  5
14F
100
AcDbEntity
100
AcDbLine
  8
FORT
 62
256
370
-1
  6
ByLayer
 10
184.2089894067999012
 20
197.7618912595884808
 30
0.0
 11
212.2089894067999012
 21
197.7618912595884808
 31
0.0
  0
LINE
  5
150
100
AcDbEntity
100
AcDbLine
  8
FORT
 62
256
370
-1
  6
ByLayer
 10
184.2089894067999012
 20
197.7618912595884808
 30
0.0
 11
184.2089894067999012
 21
217.7618912595884808
 31
0.0
  0
LINE
  5
151
100
AcDbEntity
100
AcDbLine
  8
FORT
 62
256
370
-1
  6
ByLayer
 10
212.2089894067999012
 20
193.6767660909885649
 30
0.0
 11
220.2089894067999012
 21
193.6767660909885649
 31
0.0
  0
LWPOLYLINE
  5
152
  8
FORT
 62
256
370
-1
  6
ByLayer
100
AcDbEntity
100
AcDbPolyline
 90
11
 70
0
 10
239.4089894067998898
 20
172.8921564001885258
 10
240.6604651271998705
 20
172.9774540787885257
 10
241.8811253617998887
 20
173.2312468021885365
 10
243.0409134047998805
 20
173.6472853513885752
 10
244.1112714251999023
 20
174.2153254767885642
 10
245.0658436561999167
 20
174.9213801449886319
 10
245.8811253617999171
 20
175.7480639467884771
 10
246.5370416003998741
 20
176.6750211837886013
 10
247.0174415371999146
 20
177.6794270917885683
 10
247.3104961315999333
 20
178.7365498645885395
 10
247.4089894067999182
 20
179.8203596305885981
  0
LINE
  5
153
100
AcDbEntity
100
AcDbLine
  8
FORT
 62
256
370
-1
  6
ByLayer
 10
239.4089894067998898
 20
172.8921564001885258
 30
0.0
 11
220.2089894067999012
 21
172.8921564001885258
 31
0.0
  0
LWPOLYLINE
  5
154
  8
FORT
 62
256
370
-1
  6
ByLayer
100
AcDbEntity
100
AcDbPolyline
 90
11
 70
0
 10
212.2089894067999012
 20
179.8203596305885981
 10
212.3074826819998862
 20
178.7365498645885395
 10
212.6005372763999048
 20
177.6794270917885683
 10
213.0809372131998884
 20
176.6750211837886013
 10
213.7368534517999024
 20
175.7480639467884771
 10
214.5521351573999027
 20
174.9213801449886319
 10
215.5067073883998887
 20
174.2153254767885642
 10
216.5770654087999105
 20
173.6472853513885752
 10
217.7368534517999024
 20
173.2312468021885365
 10
218.9575136863998637
 20
172.9774540787885257
 10
220.2089894067999012
 20
172.8921564001885258
  0
LWPOLYLINE
  5
155
  8
FORT
 62
256
370
-1
  6
ByLayer
100
AcDbEntity
100
AcDbPolyline
 90
11
 70
0
 10
247.4089894067999182
 20
178.4203596305885071
 10
247.3104961315999333
 20
177.3365498645885623
 10
247.0174415371999146
 20
176.279427091788591
 10
246.5370416003998741
 20
175.2750211837885104
 10
245.8811253617999171
 20
174.3480639467886135
 10
245.0658436561999167
 20
173.5213801449885409
 10
244.1112714251999023
 20
172.8153254767884732
 10
243.0409134047998805
 20
172.247285351388598
 10
241.8811253617998887
 20
171.8312468021885593
 10
240.6604651271998705
 20
171.5774540787885485
 10
239.4089894067998898
 20
171.4921564001885486
  0
LINE
  5
156
100
AcDbEntity
100
AcDbLine
  8
FORT
 62
256
370
-1
  6
ByLayer
 10
239.4089894067998898
 20
171.4921564001885486
 30
0.0
 11
220.2089894067999012
 21
171.4921564001885486
 31
0.0
  0
LWPOLYLINE
  5
157
  8
FORT
 62
256
370
-1
  6
ByLayer
100
AcDbEntity
100
AcDbPolyline
 90
11
 70
0
 10
220.2089894067999012
 20
171.4921564001885486
 10
218.9575136863998637
 20
171.5774540787885485
 10
217.7368534517999024
 20
171.8312468021885593
 10
216.5770654087999105
 20
172.247285351388598
 10
215.5067073883998887
 20
172.8153254767884732
 10
214.5521351573999027
 20
173.5213801449885409
 10
213.7368534517999024
 20
174.3480639467886135
 10
213.0809372131998884
 20
175.2750211837885104
 10
212.6005372763999048
 20
176.279427091788591
 10
212.3074826819998862
 20
177.3365498645885623
 10
212.2089894067999012
 20
178.4203596305885071
  0
LWPOLYLINE
  5
158
  8
FORT
 62
256
370
-1
  6
ByLayer
100
AcDbEntity
100
AcDbPolyline
 90
11
 70
0
 10
247.4089894067999182
 20
174.1203596305885526
 10
247.3104961315999333
 20
173.0365498645884941
 10
247.0174415371999146
 20
171.9794270917886365
 10
246.5370416003998741
 20
170.9750211837885558
 10
245.8811253617999171
 20
170.0480639467885453
 10
245.0658436561999167
 20
169.2213801449885864
 10
244.1112714251999023
 20
168.5153254767885187
 10
243.0409134047998805
 20
167.9472853513885298
 10
241.8811253617998887
 20
167.5312468021886048
 10
240.6604651271998705
 20
167.277454078788594
 10
239.4089894067998898
 20
167.192156400188594
  0
LWPOLYLINE
  5
159
  8
FORT
 62
256
370
-1
  6
ByLayer
100
AcDbEntity
100
AcDbPolyline
 90
11
 70
0
 10
239.4089894067998898
 20
168.5921564001885713
 10
240.6604651271998705
 20
168.6774540787885712
 10
241.8811253617998887
 20
168.931246802188582
 10
243.0409134047998805
 20
169.347285351388507
 10
244.1112714251999023
 20
169.9153254767886096
 10
245.0658436561999167
 20
170.6213801449885636
 10
245.8811253617999171
 20
171.4480639467885226
 10
246.5370416003998741
 20
172.3750211837885331
 10
247.0174415371999146
 20
173.3794270917885001
 10
247.3104961315999333
 20
174.436549864588585
 10
247.4089894067999182
 20
175.5203596305885299
  0
LINE
  5
15A
100
AcDbEntity
100
AcDbLine
  8
FORT
 62
256
370
-1
  6
ByLayer
 10
239.4089894067998898
 20
168.5921564001885713
 30
0.0
 11
220.2089894067999012
 21
168.5921564001885713
 31
0.0
  0
LWPOLYLINE
  5
15B
  8
FORT
 62
256
370
-1
  6
ByLayer
100
AcDbEntity
100
AcDbPolyline
 90
11
 70
0
 10
212.2089894067999012
 20
175.5203596305885299
 10
212.3074826819998862
 20
174.436549864588585
 10
212.6005372763999048
 20
173.3794270917885001
 10
213.0809372131998884
 20
172.3750211837885331
 10
213.7368534517999024
 20
171.4480639467885226
 10
214.5521351573999027
 20
170.6213801449885636
 10
215.5067073883998887
 20
169.9153254767886096
 10
216.5770654087999105
 20
169.347285351388507
 10
217.7368534517999024
 20
168.931246802188582
 10
218.9575136863998637
 20
168.6774540787885712
 10
220.2089894067999012
 20
168.5921564001885713
  0
LINE
  5
15C
100
AcDbEntity
100
AcDbLine
  8
FORT
 62
256
370
-1
  6
ByLayer
 10
239.4089894067998898
 20
167.192156400188594
 30
0.0
 11
220.2089894067999012
 21
167.192156400188594
 31
0.0
  0
LWPOLYLINE
  5
15D
  8
FORT
 62
256
370
-1
  6
ByLayer
100
AcDbEntity
100
AcDbPolyline
 90
11
 70
0
 10
220.2089894067999012
 20
167.192156400188594
 10
218.9575136863998637
 20
167.277454078788594
 10
217.7368534517999024
 20
167.5312468021886048
 10
216.5770654087999105
 20
167.9472853513885298
 10
215.5067073883998887
 20
168.5153254767885187
 10
214.5521351573999027
 20
169.2213801449885864
 10
213.7368534517999024
 20
170.0480639467885453
 10
213.0809372131998884
 20
170.9750211837885558
 10
212.6005372763999048
 20
171.9794270917886365
 10
212.3074826819998862
 20
173.0365498645884941
 10
212.2089894067999012
 20
174.1203596305885526
  0
LWPOLYLINE
  5
15E
  8
FORT
 62
256
370
-1
  6
ByLayer
100
AcDbEntity
100
AcDbPolyline
 90
11
 70
0
 10
239.4089894067998898
 20
164.2862668801885206
 10
240.6604651271998705
 20
164.3715645587885206
 10
241.8811253617998887
 20
164.6253572821885314
 10
243.0409134047998805
 20
165.0413958313885701
 10
244.1112714251999023
 20
165.609435956788559
 10
245.0658436561999167
 20
166.315490624988513
 10
245.8811253617999171
 20
167.1421744267885856
 10
246.5370416003998741
 20
168.0691316637884825
 10
247.0174415371999146
 20
169.0735375717885631
 10
247.3104961315999333
 20
170.1306603445885344
 10
247.4089894067999182
 20
171.2144701105884792
  0
LINE
  5
15F
100
AcDbEntity
100
AcDbLine
  8
FORT
 62
256
370
-1
  6
ByLayer
 10
239.4089894067998898
 20
164.2862668801885206
 30
0.0
 11
220.2089894067999012
 21
164.2862668801885206
 31
0.0
  0
LWPOLYLINE
  5
160
  8
FORT
 62
256
370
-1
  6
ByLayer
100
AcDbEntity
100
AcDbPolyline
 90
11
 70
0
 10
212.2089894067999012
 20
171.2144701105884792
 10
212.3074826819998862
 20
170.1306603445885344
 10
212.6005372763999048
 20
169.0735375717885631
 10
213.0809372131998884
 20
168.0691316637884825
 10
213.7368534517999024
 20
167.1421744267885856
 10
214.5521351573999027
 20
166.315490624988513
 10
215.5067073883998887
 20
165.609435956788559
 10
216.5770654087999105
 20
165.0413958313885701
 10
217.7368534517999024
 20
164.6253572821885314
 10
218.9575136863998637
 20
164.3715645587885206
 10
220.2089894067999012
 20
164.2862668801885206
  0
LWPOLYLINE
  5
161
  8
FORT
 62
256
370
-1
  6
ByLayer
100
AcDbEntity
100
AcDbPolyline
 90
11
 70
0
 10
247.4089894067999182
 20
169.8203596305885981
 10
247.3104961315999333
 20
168.7365498645885395
 10
247.0174415371999146
 20
167.6794270917885683
 10
246.5370416003998741
 20
166.6750211837886013
 10
245.8811253617999171
 20
165.7480639467884771
 10
245.0658436561999167
 20
164.9213801449886319
 10
244.1112714251999023
 20
164.2153254767885642
 10
243.0409134047998805
 20
163.6472853513885752
 10
241.8811253617998887
 20
163.2312468021885365
 10
240.6604651271998705
 20
162.9774540787885257
 10
239.4089894067998898
 20
162.8921564001885258
  0
LINE
  5
162
100
AcDbEntity
100
AcDbLine
  8
FORT
 62
256
370
-1
  6
ByLayer
 10
239.4089894067998898
 20
162.8921564001885258
 30
0.0
 11
220.2089894067999012
 21
162.8921564001885258
 31
0.0
  0
LWPOLYLINE
  5
163
  8
FORT
 62
256
370
-1
  6
ByLayer
100
AcDbEntity
100
AcDbPolyline
 90
11
 70
0
 10
220.2089894067999012
 20
162.8921564001885258
 10
218.9575136863998637
 20
162.9774540787885257
 10
217.7368534517999024
 20
163.2312468021885365
 10
216.5770654087999105
 20
163.6472853513885752
 10
215.5067073883998887
 20
164.2153254767885642
 10
214.5521351573999027
 20
164.9213801449886319
 10
213.7368534517999024
 20
165.7480639467884771
 10
213.0809372131998884
 20
166.6750211837886013
 10
212.6005372763999048
 20
167.6794270917885683
 10
212.3074826819998862
 20
168.7365498645885395
 10
212.2089894067999012
 20
169.8203596305885981
  0
LINE
  5
164
100
AcDbEntity
100
AcDbLine
  8
FORT
 62
256
370
-1
  6
ByLayer
 10
247.4089894067999182
 20
201.7618912595884808
 30
0.0
 11
247.4089894067999182
 21
171.2144701105884792
 31
0.0
  0
LINE
  5
165
100
AcDbEntity
100
AcDbLine
  8
FORT
 62
256
370
-1
  6
ByLayer
 10
237.6089894067998785
 20
182.0029421317885294
 30
0.0
 11
232.4089894067998898
 21
182.0029421317885294
 31
0.0
  0
LINE
  5
166
100
AcDbEntity
100
AcDbLine
  8
FORT
 62
256
370
-1
  6
ByLayer
 10
232.4089894067998898
 20
182.0029421317885294
 30
0.0
 11
232.4089894067998898
 21
230.6951170398603779
 31
0.0
  0
LINE
  5
167
100
AcDbEntity
100
AcDbLine
  8
FORT
 62
256
370
-1
  6
ByLayer
 10
237.6089894067998785
 20
230.6951170398603495
 30
0.0
 11
237.6089894067998785
 21
182.0029421317885294
 31
0.0
  0
LINE
  5
168
100
AcDbEntity
100
AcDbLine
  8
FORT
 62
256
370
-1
  6
ByLayer
 10
254.2089894067998728
 20
197.7618912595884808
 30
0.0
 11
254.2089894067998728
 21
185.7618912595884808
 31
0.0
  0
LINE
  5
169
100
AcDbEntity
100
AcDbLine
  8
FORT
 62
256
370
-1
  6
ByLayer
 10
254.2089894067998728
 20
213.7618912595884808
 30
0.0
 11
254.2089894067998728
 21
201.7618912595884808
 31
0.0
  0
LINE
  5
16A
100
AcDbEntity
100
AcDbLine
  8
FORT
 62
256
370
-1
  6
ByLayer
 10
254.2089894067998728
 20
213.7618912595884808
 30
0.0
 11
247.4089894067999182
 21
213.7618912595884808
 31
0.0
  0
LINE
  5
16B
100
AcDbEntity
100
AcDbLine
  8
FORT
 62
256
370
-1
  6
ByLayer
 10
254.2089894067998728
 20
197.7618912595884808
 30
0.0
 11
247.4089894067999182
 21
197.7618912595884808
 31
0.0
  0
LINE
  5
16C
100
AcDbEntity
100
AcDbLine
  8
FORT
 62
256
370
-1
  6
ByLayer
 10
247.4089894067999182
 20
185.7618912595884808
 30
0.0
 11
254.2089894067998728
 21
185.7618912595884808
 31
0.0
  0
LINE
  5
16D
100
AcDbEntity
100
AcDbLine
  8
FORT
 62
256
370
-1
  6
ByLayer
 10
243.4089894067998898
 20
201.7618912595884808
 30
0.0
 11
254.2089894067998728
 21
201.7618912595884808
 31
0.0
  0
LINE
  5
16E
100
AcDbEntity
100
AcDbLine
  8
FORT
 62
256
370
-1
  6
ByLayer
 10
251.4089894067999182
 20
213.7618912595884808
 30
0.0
 11
251.4089894067999182
 21
201.7618912595884808
 31
0.0
  0
LINE
  5
16F
100
AcDbEntity
100
AcDbLine
  8
FORT
 62
256
370
-1
  6
ByLayer
 10
251.4089894067999182
 20
197.7618912595884808
 30
0.0
 11
251.4089894067999182
 21
185.7618912595884808
 31
0.0
  0
LINE
  5
170
100
AcDbEntity
100
AcDbLine
  8
FORT
 62
256
370
-1
  6
ByLayer
 10
247.9423227401248084
 20
197.7618912595884808
 30
0.0
 11
250.6089894068748549
 21
201.7618912595884808
 31
0.0
  0
ARC
  5
171
100
AcDbEntity
  8
FORT
 62
256
370
-1
  6
ByLayer
100
AcDbCircle
 10
235.0089894067999126
 20
238.9618912595885263
 30
0.0
 40
20.0
100
AcDbArc
 50
126.86989764584402
 51
199.9484435887999894
  0
ARC
  5
172
100
AcDbEntity
  8
FORT
 62
256
370
-1
  6
ByLayer
100
AcDbCircle
 10
235.0089894067999126
 20
238.9618912595885263
 30
0.0
 40
20.0
100
AcDbArc
 50
308.3161344736657838
 51
51.6838655263342233
  0
LINE
  5
173
100
AcDbEntity
100
AcDbLine
  8
FORT
 62
256
370
-1
  6
ByLayer
 10
252.924316195199907
 20
247.8523955233885658
 30
0.0
 11
217.0936626183998897
 21
247.8523955233885658
 31
0.0
  0
LINE
  5
174
100
AcDbEntity
100
AcDbLine
  8
FORT
 62
256
370
-1
  6
ByLayer
 10
221.4089894067998898
 20
234.7442625335885964
 30
0.0
 11
226.2089894067999012
 21
234.7442625335885964
 31
0.0
  0
CIRCLE
  5
175
100
AcDbEntity
100
AcDbCircle
  8
FORT
 62
256
370
-1
  6
ByLayer
 10
235.0089894067999126
 20
238.9618912595885263
 30
0.0
 40
2.0
  0
LINE
  5
176
100
AcDbEntity
100
AcDbLine
  8
FORT
 62
256
370
-1
  6
ByLayer
 10
216.2089894067999012
 20
230.0654685223884712
 30
0.0
 11
221.4089894067998898
 21
230.0654685223884712
 31
0.0
  0
LINE
  5
177
100
AcDbEntity
100
AcDbLine
  8
FORT
 62
256
370
-1
  6
ByLayer
 10
226.2089894067999012
 20
230.0654685223884712
 30
0.0
 11
232.4089894067998898
 21
230.0654685223884712
 31
0.0
  0
LINE
  5
178
100
AcDbEntity
100
AcDbLine
  8
FORT
 62
256
370
-1
  6
ByLayer
 10
213.9368054525999128
 20
223.1719354835885838
 30
0.0
 11
215.0513809389998983
 21
240.2633766599885234
 31
0.0
  0
LINE
  5
179
100
AcDbEntity
100
AcDbLine
  8
FORT
 62
256
370
-1
  6
ByLayer
 10
216.2089894067999012
 20
222.9618912595885263
 30
0.0
 11
216.2089894067999012
 21
232.1384024158957686
 31
0.0
  0
LINE
  5
17A
100
AcDbEntity
100
AcDbLine
  8
FORT
 62
256
370
-1
  6
ByLayer
 10
213.9599809367999228
 20
223.1819237917886198
 30
0.0
 11
212.2089894067999012
 21
222.4272710425885293
 31
0.0
  0
LINE
  5
17B
100
AcDbEntity
100
AcDbLine
  8
FORT
 62
256
370
-1
  6
ByLayer
 10
213.9599809367999228
 20
223.1819237917886198
 30
0.0
 11
216.2089894067999012
 21
223.1819237917886198
 31
0.0
  0
LINE
  5
17C
100
AcDbEntity
100
AcDbLine
  8
FORT
 62
256
370
-1
  6
ByLayer
 10
247.4089894067999182
 20
223.3266181815885716
 30
0.0
 11
243.4089894067998898
 21
223.3266181815885716
 31
0.0
  0
LINE
  5
17D
100
AcDbEntity
100
AcDbLine
  8
FORT
 62
256
370
-1
  6
ByLayer
 10
232.4089894067998898
 20
222.9618912595885263
 30
0.0
 11
226.2089894067999012
 21
222.9618912595885263
 31
0.0
  0
LINE
  5
17E
100
AcDbEntity
100
AcDbLine
  8
FORT
 62
256
370
-1
  6
ByLayer
 10
253.8089894067998955
 20
226.9618912595885263
 30
0.0
 11
255.8089894067998955
 21
226.9618912595885263
 31
0.0
  0
LINE
  5
17F
100
AcDbEntity
100
AcDbLine
  8
FORT
 62
256
370
-1
  6
ByLayer
 10
243.4089894067998898
 20
222.9618912595885263
 30
0.0
 11
237.6089894067998785
 21
222.9618912595885263
 31
0.0
  0
LINE
  5
180
100
AcDbEntity
100
AcDbLine
  8
FORT
 62
256
370
-1
  6
ByLayer
 10
216.2089894067999012
 20
222.9618912595885263
 30
0.0
 11
221.4089894067998898
 21
222.9618912595885263
 31
0.0
  0
LINE
  5
181
100
AcDbEntity
100
AcDbLine
  8
FORT
 62
256
370
-1
  6
ByLayer
 10
253.8089894067998955
 20
213.7618912595884808
 30
0.0
 11
253.8089894067998955
 21
226.9618912595885263
 31
0.0
  0
LINE
  5
182
100
AcDbEntity
100
AcDbLine
  8
FORT
 62
256
370
-1
  6
ByLayer
 10
221.4089894067998898
 20
212.9618912595885263
 30
0.0
 11
216.2089894067999012
 21
212.9618912595885263
 31
0.0
  0
LINE
  5
183
100
AcDbEntity
100
AcDbLine
  8
FORT
 62
256
370
-1
  6
ByLayer
 10
231.4089894067998898
 20
218.7618912595884808
 30
0.0
 11
227.4089894067998898
 21
218.7618912595884808
 31
0.0
  0
LINE
  5
184
100
AcDbEntity
100
AcDbLine
  8
FORT
 62
256
370
-1
  6
ByLayer
 10
239.4089894067998898
 20
212.1618912595885718
 30
0.0
 11
237.6089894067998785
 21
213.9618912595885263
 31
0.0
  0
LINE
  5
185
100
AcDbEntity
100
AcDbLine
  8
FORT
 62
256
370
-1
  6
ByLayer
 10
216.2089894067999012
 20
216.561891259588549
 30
0.0
 11
220.2089894067999012
 21
216.561891259588549
 31
0.0
  0
LINE
  5
186
100
AcDbEntity
100
AcDbLine
  8
FORT
 62
256
370
-1
  6
ByLayer
 10
232.4089894067998898
 20
215.1596531179883982
 30
0.0
 11
226.2089894067999012
 21
215.1596531179883982
 31
0.0
  0
LINE
  5
187
100
AcDbEntity
100
AcDbLine
  8
FORT
 62
256
370
-1
  6
ByLayer
 10
253.8089894067998955
 20
215.1389819221885205
 30
0.0
 11
243.4089894067998898
 21
215.1389819221885205
 31
0.0
  0
LINE
  5
188
100
AcDbEntity
100
AcDbLine
  8
FORT
 62
256
370
-1
  6
ByLayer
 10
227.4089894067998898
 20
218.7616393711885507
 30
0.0
 11
227.4089894067998898
 21
215.1596531179883982
 31
0.0
  0
LINE
  5
189
100
AcDbEntity
100
AcDbLine
  8
FORT
 62
256
370
-1
  6
ByLayer
 10
231.4089894067998898
 20
218.7616393711885507
 30
0.0
 11
231.4089894067998898
 21
215.1596531179883982
 31
0.0
  0
LINE
  5
18A
100
AcDbEntity
100
AcDbLine
  8
FORT
 62
256
370
-1
  6
ByLayer
 10
220.2089894067999012
 20
212.9618912595885263
 30
0.0
 11
220.2089894067999012
 21
222.9618912595885263
 31
0.0
  0
LINE
  5
18B
100
AcDbEntity
100
AcDbLine
  8
FORT
 62
256
370
-1
  6
ByLayer
 10
247.4089894067999182
 20
223.3266181815885716
 30
0.0
 11
247.4089894067999182
 21
209.0695772825885683
 31
0.0
  0
LINE
  5
18C
100
AcDbEntity
100
AcDbLine
  8
FORT
 62
256
370
-1
  6
ByLayer
 10
247.4089894067999182
 20
211.6748803069885412
 30
0.0
 11
243.4089894067998898
 21
211.6748803069885412
 31
0.0
  0
LINE
  5
18D
100
AcDbEntity
100
AcDbLine
  8
FORT
 62
256
370
-1
  6
ByLayer
 10
243.4089894067998898
 20
209.0695772825885683
 30
0.0
 11
247.4089894067999182
 21
209.0695772825885683
 31
0.0
  0
LINE
  5
18E
100
AcDbEntity
100
AcDbLine
  8
AXE
 62
256
370
-1
  6
ByLayer
 10
238.5590032379751619
 20
183.4550698250299092
 30
0.0
 11
231.0589755756246007
 21
183.4550698250299092
 31
0.0
  0
LINE
  5
18F
100
AcDbEntity
100
AcDbLine
  8
FORT
 62
256
370
-1
  6
ByLayer
 10
237.6089894067998785
 20
186.561891259588549
 30
0.0
 11
239.4089894067998898
 21
186.561891259588549
 31
0.0
  0
LINE
  5
190
100
AcDbEntity
100
AcDbLine
  8
FORT
 62
256
370
-1
  6
ByLayer
 10
226.2089894067999012
 20
180.7619004727885681
 30
0.0
 11
221.4089894067998898
 21
180.7619004727885681
 31
0.0
  0
LINE
  5
191
100
AcDbEntity
100
AcDbLine
  8
FORT
 62
256
370
-1
  6
ByLayer
 10
227.4089894067998898
 20
184.7807466507885579
 30
0.0
 11
226.2089894067999012
 21
184.7807466507885579
 31
0.0
  0
LINE
  5
192
100
AcDbEntity
100
AcDbLine
  8
FORT
 62
256
370
-1
  6
ByLayer
 10
221.4089894067998898
 20
184.7807466507885579
 30
0.0
 11
220.2089894067999012
 21
184.7807466507885579
 31
0.0
  0
LINE
  5
193
100
AcDbEntity
100
AcDbLine
  8
FORT
 62
256
370
-1
  6
ByLayer
 10
220.2089894067999012
 20
179.8203596305885981
 30
0.0
 11
239.4089894067998898
 21
179.8203596305885981
 31
0.0
  0
LINE
  5
194
100
AcDbEntity
100
AcDbLine
  8
FORT
 62
256
370
-1
  6
ByLayer
 10
243.4089894067998898
 20
193.6767660909885649
 30
0.0
 11
239.4089894067998898
 21
193.6767660909885649
 31
0.0
  0
LINE
  5
195
100
AcDbEntity
100
AcDbLine
  8
FORT
 62
256
370
-1
  6
ByLayer
 10
216.2089894067999012
 20
202.561891259588549
 30
0.0
 11
221.4089894067998898
 21
202.561891259588549
 31
0.0
  0
LINE
  5
196
100
AcDbEntity
100
AcDbLine
  8
FORT
 62
256
370
-1
  6
ByLayer
 10
239.4089894067998898
 20
196.9618912595885263
 30
0.0
 11
237.6089894067998785
 21
196.9618912595885263
 31
0.0
  0
LINE
  5
197
100
AcDbEntity
100
AcDbLine
  8
FORT
 62
256
370
-1
  6
ByLayer
 10
237.6089894067998785
 20
201.561891259588549
 30
0.0
 11
239.4089894067998898
 21
203.3618912595886172
 31
0.0
  0
LINE
  5
198
100
AcDbEntity
100
AcDbLine
  8
FORT
 62
256
370
-1
  6
ByLayer
 10
227.4089894067998898
 20
198.9596796823885256
 30
0.0
 11
226.2089894067999012
 21
198.9596796823885256
 31
0.0
  0
LINE
  5
199
100
AcDbEntity
100
AcDbLine
  8
FORT
 62
256
370
-1
  6
ByLayer
 10
232.4089894067998898
 20
200.3641294011885634
 30
0.0
 11
226.2089894067999012
 21
200.3641294011885634
 31
0.0
  0
LINE
  5
19A
100
AcDbEntity
100
AcDbLine
  8
FORT
 62
256
370
-1
  6
ByLayer
 10
216.2089894067999012
 20
198.9618912595885263
 30
0.0
 11
221.4089894067998898
 21
198.9618912595885263
 31
0.0
  0
LINE
  5
19B
100
AcDbEntity
100
AcDbLine
  8
FORT
 62
256
370
-1
  6
ByLayer
 10
239.4089894067998898
 20
179.8203596305885981
 30
0.0
 11
239.4089894067998898
 21
222.9618912595885263
 31
0.0
  0
LINE
  5
19C
100
AcDbEntity
100
AcDbLine
  8
FORT
 62
256
370
-1
  6
ByLayer
 10
243.4089894067998898
 20
193.6767660909885649
 30
0.0
 11
243.4089894067998898
 21
222.9226744661885391
 31
0.0
  0
LINE
  5
19D
100
AcDbEntity
100
AcDbLine
  8
FORT
 62
256
370
-1
  6
ByLayer
 10
216.2089894067999012
 20
216.561891259588549
 30
0.0
 11
216.2089894067999012
 21
198.9618912595885263
 31
0.0
  0
LINE
  5
19E
100
AcDbEntity
100
AcDbLine
  8
FORT
 62
256
370
-1
  6
ByLayer
 10
220.2089894067999012
 20
179.8203596305885981
 30
0.0
 11
220.2089894067999012
 21
202.561891259588549
 31
0.0
  0
LINE
  5
19F
100
AcDbEntity
100
AcDbLine
  8
FORT
 62
256
370
-1
  6
ByLayer
 10
232.4089894067998898
 20
196.9618912595885263
 30
0.0
 11
231.4089894067998898
 21
196.9618912595885263
 31
0.0
  0
LINE
  5
1A0
100
AcDbEntity
100
AcDbLine
  8
FORT
 62
256
370
-1
  6
ByLayer
 10
227.4089894067998898
 20
200.3641294011885634
 30
0.0
 11
227.4089894067998898
 21
179.8203596305885981
 31
0.0
  0
LINE
  5
1A1
100
AcDbEntity
100
AcDbLine
  8
FORT
 62
256
370
-1
  6
ByLayer
 10
231.4089894067998898
 20
200.3641294011885634
 30
0.0
 11
231.4089894067998898
 21
179.8203596305885981
 31
0.0
  0
LINE
  5
1A2
100
AcDbEntity
100
AcDbLine
  8
FORT
 62
256
370
-1
  6
ByLayer
 10
232.4089894067998898
 20
186.5618912595884353
 30
0.0
 11
231.4089894067998898
 21
186.5618912595884353
 31
0.0
  0
LINE
  5
1A3
100
AcDbEntity
100
AcDbLine
  8
FORT
 62
256
370
-1
  6
ByLayer
 10
221.4089894067998898
 20
234.7442625335885964
 30
0.0
 11
221.4089894067998898
 21
180.7619004727885681
 31
0.0
  0
LINE
  5
1A4
100
AcDbEntity
100
AcDbLine
  8
FORT
 62
256
370
-1
  6
ByLayer
 10
226.2089894067999012
 20
234.7442625335885964
 30
0.0
 11
226.2089894067999012
 21
180.7619004727885681
 31
0.0
  0
LINE
  5
1A5
100
AcDbEntity
100
AcDbLine
  8
FORT
 62
256
370
-1
  6
ByLayer
 10
212.2089894067999012
 20
169.8203596305885981
 30
0.0
 11
212.2089894067999012
 21
222.4272710425885293
 31
0.0
  0
LINE
  5
1A6
100
AcDbEntity
100
AcDbLine
  8
AXE
 62
256
370
-1
  6
ByLayer
 10
233.5590032379751619
 20
217.3271311907469681
 30
0.0
 11
226.0589755756246291
 21
217.3271311907469681
 31
0.0
  0
LINE
  5
1A7
100
AcDbEntity
100
AcDbLine
  8
FIN
 62
256
370
-1
  6
ByLayer
 10
37.0
 20
230.0
 30
0.0
 11
71.4766131021302158
 21
236.9870974336789118
 31
0.0
  0
LINE
  5
1A8
100
AcDbEntity
100
AcDbLine
  8
AXE
 62
256
370
-1
  6
ByLayer
 10
224.8589755756246404
 20
213.7251449375468155
 30
0.0
 11
233.7590032379751506
 21
213.7251449375468155
 31
0.0
  0
LINE
  5
1A9
100
AcDbEntity
100
AcDbLine
  8
AXE
 62
256
370
-1
  6
ByLayer
 10
224.8589755756246404
 20
201.7986375816301461
 30
0.0
 11
233.7590032379751506
 21
201.7986375816301461
 31
0.0
  0
LINE
  5
1AA
100
AcDbEntity
100
AcDbLine
  8
AXE
 62
256
370
-1
  6
ByLayer
 10
218.6483574577498814
 20
197.7251449375468155
 30
0.0
 11
228.7590032379751506
 21
197.7251449375468155
 31
0.0
  0
LINE
  5
1AB
100
AcDbEntity
100
AcDbLine
  8
AXE
 62
256
370
-1
  6
ByLayer
 10
218.6483574577498814
 20
185.7986375816301461
 30
0.0
 11
228.7590032379751506
 21
185.7986375816301461
 31
0.0
  0
LINE
  5
1AC
100
AcDbEntity
100
AcDbLine
  8
FIN
 62
256
370
-1
  6
ByLayer
 10
232.6000000000000227
 20
150.0
 30
0.0
 11
223.8506249999999795
 21
183.9626249999999743
 31
0.0
  0
LINE
  5
1AD
100
AcDbEntity
100
AcDbLine
  8
FORT
 62
256
370
-1
  6
ByLayer
 10
325.752317418656844
 20
272.9618912595885263
 30
0.0
 11
285.752317418656844
 21
272.9618912595885263
 31
0.0
  0
LINE
  5
1AE
100
AcDbEntity
100
AcDbLine
  8
FORT
 62
256
370
-1
  6
ByLayer
 10
285.752317418656844
 20
265.7618912595884808
 30
0.0
 11
305.752317418656844
 21
265.7618912595884808
 31
0.0
  0
LINE
  5
1AF
100
AcDbEntity
100
AcDbLine
  8
FORT
 62
256
370
-1
  6
ByLayer
 10
325.752317418656844
 20
278.9618912595885263
 30
0.0
 11
325.752317418656844
 21
254.9618912595885263
 31
0.0
  0
LINE
  5
1B0
100
AcDbEntity
100
AcDbLine
  8
FORT
 62
256
370
-1
  6
ByLayer
 10
325.752317418656844
 20
278.9618912595885263
 30
0.0
 11
329.752317418656844
 21
278.9618912595885263
 31
0.0
  0
LINE
  5
1B1
100
AcDbEntity
100
AcDbLine
  8
FORT
 62
256
370
-1
  6
ByLayer
 10
329.752317418656844
 20
278.9618912595885263
 30
0.0
 11
329.752317418656844
 21
254.9618912595885263
 31
0.0
  0
LINE
  5
1B2
100
AcDbEntity
100
AcDbLine
  8
FORT
 62
256
370
-1
  6
ByLayer
 10
342.9484698414568129
 20
262.1054847989884706
 30
0.0
 11
332.5561649960568502
 21
268.1054847989884706
 31
0.0
  0
ARC
  5
1B3
100
AcDbEntity
  8
FORT
 62
256
370
-1
  6
ByLayer
100
AcDbCircle
 10
337.752317418656844
 20
265.1054847989884706
 30
0.0
 40
6.0
100
AcDbArc
 50
150.0
 51
330.0
  0
LINE
  5
1B4
100
AcDbEntity
100
AcDbLine
  8
FORT
 62
256
370
-1
  6
ByLayer
 10
305.752317418656844
 20
267.3618912595886172
 30
0.0
 11
325.752317418656844
 21
267.3618912595886172
 31
0.0
  0
LINE
  5
1B5
100
AcDbEntity
100
AcDbLine
  8
FORT
 62
256
370
-1
  6
ByLayer
 10
305.752317418656844
 20
267.3618912595886172
 30
0.0
 11
305.752317418656844
 21
271.3618912595886172
 31
0.0
  0
LINE
  5
1B6
100
AcDbEntity
100
AcDbLine
  8
FORT
 62
256
370
-1
  6
ByLayer
 10
305.752317418656844
 20
271.3618912595886172
 30
0.0
 11
325.752317418656844
 21
271.3618912595886172
 31
0.0
  0
LINE
  5
1B7
100
AcDbEntity
100
AcDbLine
  8
FORT
 62
256
370
-1
  6
ByLayer
 10
285.752317418656844
 20
272.9618912595885263
 30
0.0
 11
285.752317418656844
 21
265.7618912595884808
 31
0.0
  0
LINE
  5
1B8
100
AcDbEntity
100
AcDbLine
  8
FORT
 62
256
370
-1
  6
ByLayer
 10
305.752317418656844
 20
266.3685653499885007
 30
0.0
 11
325.752317418656844
 21
266.3685653499885007
 31
0.0
  0
LINE
  5
1B9
100
AcDbEntity
100
AcDbLine
  8
FORT
 62
256
370
-1
  6
ByLayer
 10
305.752317418656844
 20
254.9618912595885263
 30
0.0
 11
339.1572158881384098
 21
254.9618912595885263
 31
0.0
  0
ARC
  5
1BA
100
AcDbEntity
  8
FORT
 62
256
370
-1
  6
ByLayer
100
AcDbCircle
 10
362.6723174188568919
 20
270.1618912595885718
 30
0.0
 40
28.0
100
AcDbArc
 50
212.878349564399997
 51
232.8225400827000158
  0
CIRCLE
  5
1BB
100
AcDbEntity
100
AcDbCircle
  8
FORT
 62
256
370
-1
  6
ByLayer
 10
351.752317418656844
 20
256.9618912595885263
 30
0.0
 40
4.0
  0
LINE
  5
1BC
100
AcDbEntity
100
AcDbLine
  8
FORT
 62
256
370
-1
  6
ByLayer
 10
361.752317418656844
 20
260.4866826453884983
 30
0.0
 11
329.752317418656844
 21
278.9618912595885263
 31
0.0
  0
LINE
  5
1BD
100
AcDbEntity
100
AcDbLine
  8
FORT
 62
256
370
-1
  6
ByLayer
 10
361.752317418656844
 20
248.9618912595885263
 30
0.0
 11
361.752317418656844
 21
260.4866826453884983
 31
0.0
  0
LINE
  5
1BE
100
AcDbEntity
100
AcDbLine
  8
FORT
 62
256
370
-1
  6
ByLayer
 10
344.3813360344569219
 20
248.9618912595885263
 30
0.0
 11
361.752317418656844
 21
248.9618912595885263
 31
0.0
  0
LINE
  5
1BF
100
AcDbEntity
100
AcDbLine
  8
FORT
 62
256
370
-1
  6
ByLayer
 10
271.752317418656844
 20
226.9618912595885263
 30
0.0
 11
271.752317418656844
 21
244.6187455089886384
 31
0.0
  0
LINE
  5
1C0
100
AcDbEntity
100
AcDbLine
  8
FORT
 62
256
370
-1
  6
ByLayer
 10
271.752317418656844
 20
244.6187455089886384
 30
0.0
 11
278.0954631692568455
 21
250.9618912595885263
 31
0.0
  0
LINE
  5
1C1
100
AcDbEntity
100
AcDbLine
  8
FORT
 62
256
370
-1
  6
ByLayer
 10
279.752317418656844
 20
246.9618912595885263
 30
0.0
 11
275.752317418656844
 21
242.9618912595885263
 31
0.0
  0
LINE
  5
1C2
100
AcDbEntity
100
AcDbLine
  8
FORT
 62
256
370
-1
  6
ByLayer
 10
275.752317418656844
 20
242.9618912595885263
 30
0.0
 11
275.752317418656844
 21
230.9618912595885263
 31
0.0
  0
LINE
  5
1C3
100
AcDbEntity
100
AcDbLine
  8
FORT
 62
256
370
-1
  6
ByLayer
 10
275.752317418656844
 20
230.9618912595885263
 30
0.0
 11
283.752317418656844
 21
230.9618912595885263
 31
0.0
  0
LINE
  5
1C4
100
AcDbEntity
100
AcDbLine
  8
FORT
 62
256
370
-1
  6
ByLayer
 10
305.752317418656844
 20
211.5552171689885768
 30
0.0
 11
305.752317418656844
 21
266.3685653499885007
 31
0.0
  0
LINE
  5
1C5
100
AcDbEntity
100
AcDbLine
  8
FORT
 62
256
370
-1
  6
ByLayer
 10
279.752317418656844
 20
232.1618912595885718
 30
0.0
 11
279.752317418656844
 21
245.7618912595884808
 31
0.0
  0
LINE
  5
1C6
100
AcDbEntity
100
AcDbLine
  8
FORT
 62
256
370
-1
  6
ByLayer
 10
271.752317418656844
 20
226.9618912595885263
 30
0.0
 11
305.752317418656844
 21
226.9618912595885263
 31
0.0
  0
LINE
  5
1C7
100
AcDbEntity
100
AcDbLine
  8
FORT
 62
256
370
-1
  6
ByLayer
 10
278.0954631692568455
 20
250.9618912595885263
 30
0.0
 11
305.752317418656844
 21
250.9618912595885263
 31
0.0
  0
LINE
  5
1C8
100
AcDbEntity
100
AcDbLine
  8
FORT
 62
256
370
-1
  6
ByLayer
 10
283.752317418656844
 20
245.7618912595884808
 30
0.0
 11
279.752317418656844
 21
245.7618912595884808
 31
0.0
  0
LINE
  5
1C9
100
AcDbEntity
100
AcDbLine
  8
FORT
 62
256
370
-1
  6
ByLayer
 10
279.752317418656844
 20
232.1618912595885718
 30
0.0
 11
283.752317418656844
 21
232.1618912595885718
 31
0.0
  0
LINE
  5
1CA
100
AcDbEntity
100
AcDbLine
  8
FORT
 62
256
370
-1
  6
ByLayer
 10
283.752317418656844
 20
250.9618912595885263
 30
0.0
 11
283.752317418656844
 21
226.9618912595885263
 31
0.0
  0
LINE
  5
1CB
100
AcDbEntity
100
AcDbLine
  8
FORT
 62
256
370
-1
  6
ByLayer
 10
279.752317418656844
 20
238.9618912595885263
 30
0.0
 11
283.752317418656844
 21
238.9618912595885263
 31
0.0
  0
LINE
  5
1CC
100
AcDbEntity
100
AcDbLine
  8
FORT
 62
256
370
-1
  6
ByLayer
 10
279.752317418656844
 20
232.9618912595885263
 30
0.0
 11
283.752317418656844
 21
232.9618912595885263
 31
0.0
  0
LINE
  5
1CD
100
AcDbEntity
100
AcDbLine
  8
FORT
 62
256
370
-1
  6
ByLayer
 10
283.752317418656844
 20
246.9618912595885263
 30
0.0
 11
279.752317418656844
 21
246.9618912595885263
 31
0.0
  0
CIRCLE
  5
1CE
100
AcDbEntity
100
AcDbCircle
  8
FORT
 62
256
370
-1
  6
ByLayer
 10
317.752317418656844
 20
238.9618912595885263
 30
0.0
 40
4.7999999999999998
  0
LINE
  5
1CF
100
AcDbEntity
100
AcDbLine
  8
FORT
 62
256
370
-1
  6
ByLayer
 10
305.752317418656844
 20
212.1618912595885718
 30
0.0
 11
285.752317418656844
 21
212.1618912595885718
 31
0.0
  0
LINE
  5
1D0
100
AcDbEntity
100
AcDbLine
  8
FORT
 62
256
370
-1
  6
ByLayer
 10
285.752317418656844
 20
204.9618912595885263
 30
0.0
 11
305.752317418656844
 21
204.9618912595885263
 31
0.0
  0
LINE
  5
1D1
100
AcDbEntity
100
AcDbLine
  8
FORT
 62
256
370
-1
  6
ByLayer
 10
305.752317418656844
 20
222.9618912595885263
 30
0.0
 11
325.752317418656844
 21
222.9618912595885263
 31
0.0
  0
LINE
  5
1D2
100
AcDbEntity
100
AcDbLine
  8
FORT
 62
256
370
-1
  6
ByLayer
 10
305.752317418656844
 20
185.5091784809885098
 30
0.0
 11
305.752317418656844
 21
210.561891259588549
 31
0.0
  0
LINE
  5
1D3
100
AcDbEntity
100
AcDbLine
  8
FORT
 62
256
370
-1
  6
ByLayer
 10
285.752317418656844
 20
212.1618912595885718
 30
0.0
 11
285.752317418656844
 21
204.9618912595885263
 31
0.0
  0
ARC
  5
1D4
100
AcDbEntity
  8
FORT
 62
256
370
-1
  6
ByLayer
100
AcDbCircle
 10
334.9523174186568895
 20
191.7618912595884808
 30
0.0
 40
27.0000000000000213
100
AcDbArc
 50
109.9220104155024131
 51
312.8395884070826583
  0
LINE
  5
1D5
100
AcDbEntity
100
AcDbLine
  8
FORT
 62
256
370
-1
  6
ByLayer
 10
305.752317418656844
 20
210.561891259588549
 30
0.0
 11
315.5729469438452952
 21
210.561891259588549
 31
0.0
  0
LINE
  5
1D6
100
AcDbEntity
100
AcDbLine
  8
FORT
 62
256
370
-1
  6
ByLayer
 10
316.5886508609056591
 20
211.5552171689885768
 30
0.0
 11
305.752317418656844
 21
211.5552171689885768
 31
0.0
  0
LINE
  5
1D7
100
AcDbEntity
100
AcDbLine
  8
FORT
 62
256
370
-1
  6
ByLayer
 10
305.752317418656844
 20
185.5091784809885098
 30
0.0
 11
308.8728452661642905
 21
184.7718174225417442
 31
0.0
  0
LINE
  5
1D8
100
AcDbEntity
100
AcDbLine
  8
FORT
 62
256
370
-1
  6
ByLayer
 10
352.6369508806568547
 20
195.9312075901885351
 30
0.0
 11
357.6598982226569206
 21
198.8312075901885123
 31
0.0
  0
LINE
  5
1D9
100
AcDbEntity
100
AcDbLine
  8
FORT
 62
256
370
-1
  6
ByLayer
 10
345.1789314602568766
 20
191.6253180701884844
 30
0.0
 11
350.212079750056887
 21
194.5312075901885578
 31
0.0
  0
LINE
  5
1DA
100
AcDbEntity
100
AcDbLine
  8
FORT
 62
256
370
-1
  6
ByLayer
 10
375.8689779170568954
 20
172.8921564001885258
 30
0.0
 11
373.4441067864569277
 21
171.4921564001885486
 31
0.0
  0
LINE
  5
1DB
100
AcDbEntity
100
AcDbLine
  8
FORT
 62
256
370
-1
  6
ByLayer
 10
368.421159444656837
 20
168.5921564001885713
 30
0.0
 11
365.9962883140568692
 21
167.192156400188594
 31
0.0
  0
LINE
  5
1DC
100
AcDbEntity
100
AcDbLine
  8
FORT
 62
256
370
-1
  6
ByLayer
 10
360.9631400242568589
 20
164.2862668801885206
 30
0.0
 11
358.5484698414568356
 21
162.8921564001885258
 31
0.0
  0
LINE
  5
1DD
100
AcDbEntity
100
AcDbLine
  8
FORT
 62
256
370
-1
  6
ByLayer
 10
371.4441067864569277
 20
174.9562580153885278
 30
0.0
 11
366.421159444656837
 21
172.0562580153885506
 31
0.0
  0
LINE
  5
1DE
100
AcDbEntity
100
AcDbLine
  8
FORT
 62
256
370
-1
  6
ByLayer
 10
363.9962883140568692
 20
170.6562580153885733
 30
0.0
 11
358.9631400242568589
 21
167.7503684953884999
 31
0.0
  0
LINE
  5
1DF
100
AcDbEntity
100
AcDbLine
  8
FORT
 62
256
370
-1
  6
ByLayer
 10
343.0352211874568411
 20
189.7618912595884808
 30
0.0
 11
358.5484698414960576
 21
162.8921564002111495
 31
0.0
  0
LINE
  5
1E0
100
AcDbEntity
100
AcDbLine
  8
FORT
 62
256
370
-1
  6
ByLayer
 10
360.9631400243454777
 20
164.2862668802396797
 30
0.0
 11
345.1789314602568766
 21
191.6253180701884844
 31
0.0
  0
LINE
  5
1E1
100
AcDbEntity
100
AcDbLine
  8
FORT
 62
256
370
-1
  6
ByLayer
 10
350.212079750056887
 20
194.5312075901885578
 30
0.0
 11
365.9962883141905081
 21
167.1921564001617924
 31
0.0
  0
LINE
  5
1E2
100
AcDbEntity
100
AcDbLine
  8
FORT
 62
256
370
-1
  6
ByLayer
 10
368.4211594448086089
 20
168.5921564001303636
 30
0.0
 11
352.6369508806568547
 21
195.9312075901885351
 31
0.0
  0
LINE
  5
1E3
100
AcDbEntity
100
AcDbLine
  8
FORT
 62
256
370
-1
  6
ByLayer
 10
357.6598982226569206
 20
198.8312075901885123
 30
0.0
 11
373.4441067866346202
 21
171.4921563999678824
 31
0.0
  0
LINE
  5
1E4
100
AcDbEntity
100
AcDbLine
  8
FORT
 62
256
370
-1
  6
ByLayer
 10
375.8689779173016632
 20
172.8921563999647049
 30
0.0
 11
363.8689779170568954
 21
193.6767660909885649
 31
0.0
  0
CIRCLE
  5
1E5
100
AcDbEntity
100
AcDbCircle
  8
FORT
 62
256
370
-1
  6
ByLayer
 10
334.9523174186568895
 20
191.7618912595884808
 30
0.0
 40
0.8
  0
CIRCLE
  5
1E6
100
AcDbEntity
100
AcDbCircle
  8
FORT
 62
256
370
-1
  6
ByLayer
 10
362.6651303398568871
 20
207.7618912595884808
 30
0.0
 40
0.8
  0
CIRCLE
  5
1E7
100
AcDbEntity
100
AcDbCircle
  8
FORT
 62
256
370
-1
  6
ByLayer
 10
362.6651303398568871
 20
207.7618912595884808
 30
0.0
 40
6.0
  0
CIRCLE
  5
1E8
100
AcDbEntity
100
AcDbCircle
  8
FORT
 62
256
370
-1
  6
ByLayer
 10
362.6651303398568871
 20
207.7618912595884808
 30
0.0
 40
1.6000000000000001
  0
ARC
  5
1E9
100
AcDbEntity
  8
FORT
 62
256
370
-1
  6
ByLayer
100
AcDbCircle
 10
334.9523174186568895
 20
191.7618912595884808
 30
0.0
 40
6.4000000000000004
100
AcDbArc
 50
18.2099568643000005
 51
341.7900431356999889
  0
CIRCLE
  5
1EA
100
AcDbEntity
100
AcDbCircle
  8
FORT
 62
256
370
-1
  6
ByLayer
 10
334.9523174186568895
 20
191.7618912595884808
 30
0.0
 40
1.6000000000000001
  0
LINE
  5
1EB
100
AcDbEntity
100
AcDbLine
  8
FORT
 62
256
370
-1
  6
ByLayer
 10
326.8090858580568465
 20
220.1708463057885297
 30
0.0
 11
332.9523174186568895
 21
219.559958603788516
 31
0.0
  0
LINE
  5
1EC
100
AcDbEntity
100
AcDbLine
  8
FORT
 62
256
370
-1
  6
ByLayer
 10
326.8090858580568465
 20
220.1708463057885297
 30
0.0
 11
327.2048967868569207
 21
224.1512148451885764
 31
0.0
  0
LINE
  5
1ED
100
AcDbEntity
100
AcDbLine
  8
FORT
 62
256
370
-1
  6
ByLayer
 10
327.2048967868569207
 20
224.1512148451885764
 30
0.0
 11
332.9523174186568895
 21
223.5796868881886326
 31
0.0
  0
LINE
  5
1EE
100
AcDbEntity
100
AcDbLine
  8
FORT
 62
256
370
-1
  6
ByLayer
 10
326.8090858580568465
 20
206.1708463057885297
 30
0.0
 11
332.9523174186568895
 21
205.559958603788516
 31
0.0
  0
LINE
  5
1EF
100
AcDbEntity
100
AcDbLine
  8
FORT
 62
256
370
-1
  6
ByLayer
 10
326.8090858580568465
 20
206.1708463057885297
 30
0.0
 11
327.2048967868569207
 21
210.1512148451885764
 31
0.0
  0
LINE
  5
1F0
100
AcDbEntity
100
AcDbLine
  8
FORT
 62
256
370
-1
  6
ByLayer
 10
327.2048967868569207
 20
210.1512148451885764
 30
0.0
 11
332.9523174186568895
 21
209.5796868881886326
 31
0.0
  0
LINE
  5
1F1
100
AcDbEntity
100
AcDbLine
  8
FORT
 62
256
370
-1
  6
ByLayer
 10
345.752317418656844
 20
232.1384024157885619
 30
0.0
 11
336.9523174186568895
 21
232.1384024157885619
 31
0.0
  0
LINE
  5
1F2
100
AcDbEntity
100
AcDbLine
  8
FORT
 62
256
370
-1
  6
ByLayer
 10
332.9523174186568895
 20
232.1384024157885619
 30
0.0
 11
325.752317418656844
 21
232.1384024157885619
 31
0.0
  0
LINE
  5
1F3
100
AcDbEntity
100
AcDbLine
  8
FORT
 62
256
370
-1
  6
ByLayer
 10
341.3523174186568667
 20
180.6767660909885649
 30
0.0
 11
346.5484698414568356
 21
183.6767660909885649
 31
0.0
  0
ARC
  5
1F4
100
AcDbEntity
  8
FORT
 62
256
370
-1
  6
ByLayer
100
AcDbCircle
 10
334.9523174186568895
 20
191.7618912595884808
 30
0.0
 40
12.8000000000000007
100
AcDbArc
 50
135.9513743258999909
 51
300.0
  0
LINE
  5
1F5
100
AcDbEntity
100
AcDbLine
  8
FORT
 62
256
370
-1
  6
ByLayer
 10
325.752317418656844
 20
232.1384024157885619
 30
0.0
 11
325.752317418656844
 21
200.6613294439885635
 31
0.0
  0
LINE
  5
1F6
100
AcDbEntity
100
AcDbLine
  8
FORT
 62
256
370
-1
  6
ByLayer
 10
344.1454734472569044
 20
218.4469025033885714
 30
0.0
 11
344.5412843760568649
 21
222.4272710425885293
 31
0.0
  0
LINE
  5
1F7
100
AcDbEntity
100
AcDbLine
  8
FORT
 62
256
370
-1
  6
ByLayer
 10
341.0317910802568804
 20
189.7618912595884808
 30
0.0
 11
343.0352211874568411
 21
189.7618912595884808
 31
0.0
  0
LINE
  5
1F8
100
AcDbEntity
100
AcDbLine
  8
FORT
 62
256
370
-1
  6
ByLayer
 10
344.5412843760568649
 20
193.7618912595884808
 30
0.0
 11
341.0317910802568804
 21
193.7618912595884808
 31
0.0
  0
LINE
  5
1F9
100
AcDbEntity
100
AcDbLine
  8
FORT
 62
256
370
-1
  6
ByLayer
 10
344.5412843760568649
 20
204.4075427581885265
 30
0.0
 11
344.5412843760568649
 21
193.7618912595884808
 31
0.0
  0
LINE
  5
1FA
100
AcDbEntity
100
AcDbLine
  8
FORT
 62
256
370
-1
  6
ByLayer
 10
344.1454734472569044
 20
204.4469025033885714
 30
0.0
 11
344.5412843760568649
 21
208.4272710425885293
 31
0.0
  0
LINE
  5
1FB
100
AcDbEntity
100
AcDbLine
  8
FORT
 62
256
370
-1
  6
ByLayer
 10
344.5412843760568649
 20
218.4075427581885265
 30
0.0
 11
344.5412843760568649
 21
208.4272710425885293
 31
0.0
  0
LINE
  5
1FC
100
AcDbEntity
100
AcDbLine
  8
FORT
 62
256
370
-1
  6
ByLayer
 10
336.9523174186568895
 20
209.1819237917886198
 30
0.0
 11
344.5412843760568649
 21
208.4272710425885293
 31
0.0
  0
LINE
  5
1FD
100
AcDbEntity
100
AcDbLine
  8
FORT
 62
256
370
-1
  6
ByLayer
 10
336.9523174186568895
 20
197.8413649209884966
 30
0.0
 11
336.9523174186568895
 21
240.2633766599885234
 31
0.0
  0
LINE
  5
1FE
100
AcDbEntity
100
AcDbLine
  8
FORT
 62
256
370
-1
  6
ByLayer
 10
332.9523174186568895
 20
197.8413649209884966
 30
0.0
 11
332.9523174186568895
 21
240.2633766599885234
 31
0.0
  0
LINE
  5
1FF
100
AcDbEntity
100
AcDbLine
  8
FORT
 62
256
370
-1
  6
ByLayer
 10
336.9523174186568895
 20
219.1621955071885282
 30
0.0
 11
344.5412843760568649
 21
218.4075427582262989
 31
0.0
  0
LINE
  5
200
100
AcDbEntity
100
AcDbLine
  8
FORT
 62
256
370
-1
  6
ByLayer
 10
336.9523174186568895
 20
205.1621955071885282
 30
0.0
 11
344.5412843760568649
 21
204.4075427582262989
 31
0.0
  0
CIRCLE
  5
201
100
AcDbEntity
100
AcDbCircle
  8
FORT
 62
256
370
-1
  6
ByLayer
 10
362.6651303398568871
 20
207.7618912595884808
 30
0.0
 40
10.0
  0
LINE
  5
202
100
AcDbEntity
100
AcDbLine
  8
FORT
 62
256
370
-1
  6
ByLayer
 10
344.1454734472569044
 20
218.4469025033885714
 30
0.0
 11
344.5412843760568649
 21
218.4075427581885265
 31
0.0
  0
ARC
  5
203
100
AcDbEntity
  8
FORT
 62
256
370
-1
  6
ByLayer
100
AcDbCircle
 10
362.6651303398568871
 20
207.7618912595884808
 30
0.0
 40
12.8000000000000007
100
AcDbArc
 50
300.0
 51
84.3211326576000033
  0
LINE
  5
204
100
AcDbEntity
100
AcDbLine
  8
FORT
 62
256
370
-1
  6
ByLayer
 10
363.8689779170568954
 20
193.6767660909885649
 30
0.0
 11
369.0651303398568643
 21
196.6767660909885649
 31
0.0
  0
LINE
  5
205
100
AcDbEntity
100
AcDbLine
  8
FORT
 62
256
370
-1
  6
ByLayer
 10
363.9317253122568445
 20
220.4990705851885764
 30
0.0
 11
336.9523174186568895
 21
223.1819237916724035
 31
0.0
  0
LINE
  5
206
100
AcDbEntity
100
AcDbLine
  8
FORT
 62
256
370
-1
  6
ByLayer
 10
381.752317418656844
 20
247.6278912595885799
 30
0.0
 11
377.752317418656844
 21
247.6278912595885799
 31
0.0
  0
ARC
  5
207
100
AcDbEntity
  8
FORT
 62
256
370
-1
  6
ByLayer
100
AcDbCircle
 10
362.6651303398568871
 20
207.7618912595884808
 30
0.0
 40
21.6000000000000014
100
AcDbArc
 50
283.8723797868000247
 51
137.979929563799999
  0
LINE
  5
208
100
AcDbEntity
100
AcDbLine
  8
FORT
 62
256
370
-1
  6
ByLayer
 10
381.752317418656844
 20
247.6278912595885799
 30
0.0
 11
381.752317418656844
 21
230.2958912595885863
 31
0.0
  0
LINE
  5
209
100
AcDbEntity
100
AcDbLine
  8
FORT
 62
256
370
-1
  6
ByLayer
 10
381.752317418656844
 20
244.3184044239885111
 30
0.0
 11
377.752317418656844
 21
244.3184044239885111
 31
0.0
  0
LINE
  5
20A
100
AcDbEntity
100
AcDbLine
  8
FORT
 62
256
370
-1
  6
ByLayer
 10
381.752317418656844
 20
233.574214465388593
 30
0.0
 11
377.752317418656844
 21
233.574214465388593
 31
0.0
  0
LINE
  5
20B
100
AcDbEntity
100
AcDbLine
  8
FORT
 62
256
370
-1
  6
ByLayer
 10
346.9523174186568895
 20
244.9618912595885263
 30
0.0
 11
345.752317418656844
 21
244.9618912595885263
 31
0.0
  0
LINE
  5
20C
100
AcDbEntity
100
AcDbLine
  8
FORT
 62
256
370
-1
  6
ByLayer
 10
345.752317418656844
 20
232.9618912595885263
 30
0.0
 11
346.9523174186568895
 21
232.9618912595885263
 31
0.0
  0
LINE
  5
20D
100
AcDbEntity
100
AcDbLine
  8
FORT
 62
256
370
-1
  6
ByLayer
 10
348.5523174186569122
 20
240.9618912595885263
 30
0.0
 11
346.9523174186568895
 21
240.9618912595885263
 31
0.0
  0
LINE
  5
20E
100
AcDbEntity
100
AcDbLine
  8
FORT
 62
256
370
-1
  6
ByLayer
 10
346.9523174186568895
 20
236.9618912595885263
 30
0.0
 11
348.5523174186569122
 21
236.9618912595885263
 31
0.0
  0
LINE
  5
20F
100
AcDbEntity
100
AcDbLine
  8
FORT
 62
256
370
-1
  6
ByLayer
 10
345.752317418656844
 20
232.1384024157885619
 30
0.0
 11
345.752317418656844
 21
247.8523955233885658
 31
0.0
  0
LINE
  5
210
100
AcDbEntity
100
AcDbLine
  8
FORT
 62
256
370
-1
  6
ByLayer
 10
346.9523174186568895
 20
244.9618912595885263
 30
0.0
 11
346.9523174186568895
 21
232.9618912595885263
 31
0.0
  0
ARC
  5
211
100
AcDbEntity
  8
FORT
 62
256
370
-1
  6
ByLayer
100
AcDbCircle
 10
362.6801182586568757
 20
207.7618912595884808
 30
0.0
 40
28.0
100
AcDbArc
 50
127.1974968783999884
 51
147.121650435600003
  0
LINE
  5
212
100
AcDbEntity
100
AcDbLine
  8
FORT
 62
256
370
-1
  6
ByLayer
 10
345.752317418656844
 20
230.0654685223884712
 30
0.0
 11
345.752317418656844
 21
232.1384024157885619
 31
0.0
  0
LINE
  5
213
100
AcDbEntity
100
AcDbLine
  8
FIN
 62
256
370
-1
  6
ByLayer
 10
386.7999999999999545
 20
150.0
 30
0.0
 11
386.7999999999999545
 21
179.8343710084423321
 31
0.0
  0
LINE
  5
214
100
AcDbEntity
100
AcDbLine
  8
AXE
 62
256
370
-1
  6
ByLayer
 10
163.5499449550146949
 20
269.3618912595885035
 30
0.0
 11
113.3891813249999672
 21
269.3618912595885035
 31
0.0
  0
LINE
  5
215
100
AcDbEntity
100
AcDbLine
  8
AXE
 62
256
370
-1
  6
ByLayer
 10
107.9226004230432636
 20
207.7618912595884808
 30
0.0
 11
53.0294560057524933
 21
207.7618912595884808
 31
0.0
  0
LINE
  5
216
100
AcDbEntity
100
AcDbLine
  8
AXE
 62
256
370
-1
  6
ByLayer
 10
347.2318839904962147
 20
246.0778455572635153
 30
0.0
 11
380.1713000364217123
 21
246.0778455572636005
 31
0.0
  0
LINE
  5
217
100
AcDbEntity
100
AcDbLine
  8
FORT
 62
256
370
-1
  6
ByLayer
 10
348.5523174186567985
 20
247.6278912595886936
 30
0.0
 11
381.752317418656844
 21
247.6278912595885231
 31
0.0
  0
LINE
  5
218
100
AcDbEntity
100
AcDbLine
  8
AXE
 62
256
370
-1
  6
ByLayer
 10
390.2316141526771389
 20
238.9618912595884694
 30
0.0
 11
268.3579221339704191
 21
238.9618912595885831
 31
0.0
  0
LINE
  5
219
100
AcDbEntity
100
AcDbLine
  8
FORT
 62
256
370
-1
  6
ByLayer
 10
348.5523174186567985
 20
247.6278912595886936
 30
0.0
 11
348.5523174186567985
 21
230.7798953314277526
 31
0.0
  0
LINE
  5
21A
100
AcDbEntity
100
AcDbLine
  8
FORT
 62
256
370
-1
  6
ByLayer
 10
377.5385577861449633
 20
230.2958912595885863
 30
0.0
 11
381.752317418656844
 21
230.2958912595885863
 31
0.0
  0
LINE
  5
21B
100
AcDbEntity
100
AcDbLine
  8
FORT
 62
256
370
-1
  6
ByLayer
 10
377.7523174186567871
 20
230.1533357429016178
 30
0.0
 11
377.752317418656844
 21
247.6278912595888073
 31
0.0
  0
ARC
  5
21C
100
AcDbEntity
  8
FORT
 62
7
370
40
  6
CONTINUOUS
100
AcDbCircle
 10
362.6651303398568871
 20
207.7618912595884808
 30
0.0
 40
27.0000000000000142
100
AcDbArc
 50
287.16041159288568
 51
146.0220524667586233
  0
LINE
  5
21D
100
AcDbEntity
100
AcDbLine
  8
AXE
 62
256
370
-1
  6
ByLayer
 10
332.5568782883480026
 20
269.3618912595885035
 30
0.0
 11
282.3961146583332606
 21
269.3618912595885035
 31
0.0
  0
LINE
  5
21E
100
AcDbEntity
100
AcDbLine
  8
AXE
 62
256
370
-1
  6
ByLayer
 10
320.5202916014633843
 20
208.561891259588549
 30
0.0
 11
282.3961146583332606
 21
208.561891259588549
 31
0.0
  0
ARC
  5
21F
100
AcDbEntity
  8
AXE
 62
3
370
20
  6
CENTERX2
100
AcDbCircle
 10
362.6651303398568871
 20
207.7618912595884808
 30
0.0
 40
25.6031195786853871
100
AcDbArc
 50
283.0256803183342527
 51
149.6919487205259713
  0
ARC
  5
220
100
AcDbEntity
  8
AXE
 62
3
370
20
  6
CENTERX2
100
AcDbCircle
 10
334.9523174186568895
 20
191.7618912595884808
 30
0.0
 40
25.6031195786853871
100
AcDbArc
 50
105.4728420496909536
 51
316.7286841628224465
  0
CIRCLE
  5
221
100
AcDbEntity
100
AcDbCircle
  8
FORT
 62
7
370
-1
  6
CONTINUOUS
 10
71.4766131021302158
 20
236.9870974336789118
 30
0.0
 40
0.25
  0
CIRCLE
  5
222
100
AcDbEntity
100
AcDbCircle
  8
FORT
 62
7
370
-1
  6
CONTINUOUS
 10
66.92910531370039
 20
203.0387537345283988
 30
0.0
 40
0.25
  0
CIRCLE
  5
223
100
AcDbEntity
100
AcDbCircle
  8
FORT
 62
7
370
-1
  6
CONTINUOUS
 10
83.5078745198463537
 20
176.8402048655569843
 30
0.0
 40
0.25
  0
CIRCLE
  5
224
100
AcDbEntity
100
AcDbCircle
  8
FORT
 62
7
370
-1
  6
CONTINUOUS
 10
103.5661384976525881
 20
175.6121478873239425
 30
0.0
 40
0.25
  0
CIRCLE
  5
225
100
AcDbEntity
100
AcDbCircle
  8
FORT
 62
7
370
-1
  6
CONTINUOUS
 10
156.4504677955279419
 20
235.9763587889791836
 30
0.0
 40
0.25
  0
CIRCLE
  5
226
100
AcDbEntity
100
AcDbCircle
  8
FORT
 62
7
370
-1
  6
CONTINUOUS
 10
113.3726374999999962
 20
188.6381541666666521
 30
0.0
 40
0.25
  0
LINE
  5
227
100
AcDbEntity
100
AcDbLine
  8
FIN
 62
256
370
-1
  6
ByLayer
 10
113.3726374999999962
 20
188.6381541666666521
 30
0.0
 11
129.8000000000000114
 21
150.0
 31
0.0
  0
LINE
  5
228
100
AcDbEntity
100
AcDbLine
  8
AXE
 62
256
370
-1
  6
ByLayer
 10
162.2504379943678998
 20
208.561891259588549
 30
0.0
 11
113.3891813249999672
 21
208.561891259588549
 31
0.0
  0
CIRCLE
  5
229
100
AcDbEntity
100
AcDbCircle
  8
FORT
 62
7
370
-1
  6
CONTINUOUS
 10
223.8506249999999795
 20
183.9626249999999743
 30
0.0
 40
0.25
  0
CIRCLE
  5
22A
100
AcDbEntity
100
AcDbCircle
  8
FORT
 62
7
370
-1
  6
CONTINUOUS
 10
248.5256095666665885
 20
236.3535555333332638
 30
0.0
 40
0.25
  0
LINE
  5
22B
100
AcDbEntity
100
AcDbLine
  8
FIN
 62
256
370
-1
  6
ByLayer
 10
248.5256095666665885
 20
236.3535555333332638
 30
0.0
 11
284.0
 21
150.0
 31
0.0
  0
LINE
  5
22C
100
AcDbEntity
100
AcDbLine
  8
AXE
 62
256
370
-1
  6
ByLayer
 10
180.5402763648191922
 20
207.7618912595884808
 30
0.0
 11
257.386819969299836
 21
207.7618912595884808
 31
0.0
  0
LINE
  5
22D
100
AcDbEntity
100
AcDbLine
  8
AXE
 62
256
370
-1
  6
ByLayer
 10
206.1481286563485753
 20
191.7618912595884808
 30
0.0
 11
257.386819969299836
 21
191.7618912595884808
 31
0.0
  0
LINE
  5
22E
100
AcDbEntity
100
AcDbLine
  8
FORT
 62
7
370
-1
  6
CONTINUOUS
 10
365.1896284986066803
 20
204.1280197990323586
 30
0.0
 11
363.7113105854010087
 21
206.5513100380946412
 31
0.0
  0
LINE
  5
22F
100
AcDbEntity
100
AcDbLine
  8
FORT
 62
7
370
-1
  6
CONTINUOUS
 10
365.895627746323612
 20
204.7384348672222245
 30
0.0
 11
363.7113105854010087
 21
206.5513100380946412
 31
0.0
  0
LINE
  5
230
100
AcDbEntity
100
AcDbLine
  8
FIN
 62
256
370
-1
  6
ByLayer
 10
363.7113105854007244
 20
206.5513100380944991
 30
0.0
 11
386.7999999999999545
 21
179.8343710084423321
 31
0.0
  0
LINE
  5
231
100
AcDbEntity
100
AcDbLine
  8
AXE
 62
256
370
-1
  6
ByLayer
 10
250.9330081522095668
 20
256.9618912595885263
 30
0.0
 11
236.3596783875001677
 21
256.9618912595885263
 31
0.0
  0
LINE
  5
232
100
AcDbEntity
100
AcDbLine
  8
AXE
 62
256
370
-1
  6
ByLayer
 10
362.6651303398567165
 20
183.6466819276632236
 30
0.0
 11
362.6651303398567165
 21
235.8328112134344678
 31
0.0
  0
LINE
  5
233
100
AcDbEntity
100
AcDbLine
  8
AXE
 62
256
370
-1
  6
ByLayer
 10
305.1026935155629189
 20
191.7618912595884808
 30
0.0
 11
364.8019413217508031
 21
191.7618912595884808
 31
0.0
  0
LINE
  5
234
100
AcDbEntity
100
AcDbLine
  8
AXE
 62
256
370
-1
  6
ByLayer
 10
334.9523174186568895
 20
167.6466819276632805
 30
0.0
 11
334.9523174186568326
 21
219.832811213434411
 31
0.0
  0
LINE
  5
235
100
AcDbEntity
100
AcDbLine
  8
AXE
 62
256
370
-1
  6
ByLayer
 10
337.6216098256599025
 20
207.7618912595884524
 30
0.0
 11
392.5147542429506302
 21
207.7618912595883387
 31
0.0
  0
LINE
  5
236
100
AcDbEntity
100
AcDbLine
  8
FORT
 62
7
370
-1
  6
CONTINUOUS
 10
337.8445330774067088
 20
188.1280197990323586
 30
0.0
 11
336.3662151642010372
 21
190.5513100380946412
 31
0.0
  0
LINE
  5
237
100
AcDbEntity
100
AcDbLine
  8
FORT
 62
7
370
-1
  6
CONTINUOUS
 10
338.5505323251236405
 20
188.7384348672222245
 30
0.0
 11
336.3662151642010372
 21
190.5513100380946412
 31
0.0
  0
LINE
  5
238
100
AcDbEntity
100
AcDbLine
  8
FIN
 62
256
370
-1
  6
ByLayer
 10
345.3200349186569156
 20
150.0
 30
0.0
 11
335.3200349186569156
 21
150.0
 31
0.0
  0
LINE
  5
239
100
AcDbEntity
100
AcDbLine
  8
FIN
 62
256
370
-1
  6
ByLayer
 10
345.3200349186569156
 20
150.0
 30
0.0
 11
345.3200349186569156
 21
180.1904509972591484
 31
0.0
  0
LINE
  5
23A
100
AcDbEntity
100
AcDbLine
  8
FIN
 62
256
370
-1
  6
ByLayer
 10
336.3662151642010372
 20
190.5513100380946412
 30
0.0
 11
345.3200349186569156
 21
180.1904509972591484
 31
0.0
  0
LINE
  5
23B
100
AcDbEntity
100
AcDbLine
  8
FIN
 62
256
370
-1
  6
ByLayer
 10
232.4089894067998898
 20
217.3424173125886227
 30
0.0
 11
237.6089894067998785
 21
216.7987611261885377
 31
0.0
  0
LINE
  5
23C
100
AcDbEntity
100
AcDbLine
  8
FIN
 62
256
370
-1
  6
ByLayer
 10
237.6089894067998785
 20
218.8129531058002044
 30
0.0
 11
232.4089894067998898
 21
219.3502818082001227
 31
0.0
  0
LINE
  5
23D
100
AcDbEntity
100
AcDbLine
  8
FIN
 62
256
370
-1
  6
ByLayer
 10
237.6089894067998785
 20
220.8271450854118712
 30
0.0
 11
232.4089894067998898
 21
221.3644737878117894
 31
0.0
  0
LINE
  5
23E
100
AcDbEntity
100
AcDbLine
  8
FORT
 62
256
370
-1
  6
ByLayer
 10
171.866678833523622
 20
47.1326224463443708
 30
0.0
 11
172.8043230175235863
 21
47.3456200727443814
 31
0.0
  0
LINE
  5
23F
100
AcDbEntity
100
AcDbLine
  8
FORT
 62
256
370
-1
  6
ByLayer
 10
173.5097829835236212
 20
48.5676449853442449
 30
0.0
 11
173.2253360557236306
 21
49.4861407935443225
 31
0.0
  0
LINE
  5
240
100
AcDbEntity
100
AcDbLine
  8
FORT
 62
256
370
-1
  6
ByLayer
 10
145.8931074561235732
 20
32.5197032249443367
 30
0.0
 11
148.7215345809234464
 21
30.8868870013443342
 31
0.0
  0
LINE
  5
241
100
AcDbEntity
100
AcDbLine
  8
FORT
 62
256
370
-1
  6
ByLayer
 10
191.1597747843234743
 20
102.9977808853443406
 30
0.0
 11
188.8078244607234524
 21
104.355532906544326
 31
0.0
  0
LINE
  5
242
100
AcDbEntity
100
AcDbLine
  8
FORT
 62
256
370
-1
  6
ByLayer
 10
188.1209596293236359
 20
103.9590142795443484
 30
0.0
 11
189.0826248517235513
 21
104.5141717957442182
 31
0.0
  0
LINE
  5
243
100
AcDbEntity
100
AcDbLine
  8
FORT
 62
256
370
-1
  6
ByLayer
 10
184.5436498547235828
 20
101.8938773043444002
 30
0.0
 11
185.5053150771234982
 21
102.44903482054427
 31
0.0
  0
LINE
  5
244
100
AcDbEntity
100
AcDbLine
  8
FORT
 62
256
370
-1
  6
ByLayer
 10
180.9663400803236186
 20
99.8287403293443134
 30
0.0
 11
181.928005302723534
 21
100.3838978453443218
 31
0.0
  0
LINE
  5
245
100
AcDbEntity
100
AcDbLine
  8
FORT
 62
256
370
-1
  6
ByLayer
 10
177.8295759263235709
 20
98.0179249275442857
 30
0.0
 11
178.3506955281234809
 21
98.3187608701443736
 31
0.0
  0
LINE
  5
246
100
AcDbEntity
100
AcDbLine
  8
FORT
 62
256
370
-1
  6
ByLayer
 10
164.3174352917235979
 20
110.2348784855443995
 30
0.0
 11
163.3557700693234551
 21
109.6797209695443911
 31
0.0
  0
LINE
  5
247
100
AcDbEntity
100
AcDbLine
  8
FORT
 62
256
370
-1
  6
ByLayer
 10
167.8947450663236509
 20
112.3000154607443477
 30
0.0
 11
166.9330798439235082
 21
111.7448579447443393
 31
0.0
  0
LINE
  5
248
100
AcDbEntity
100
AcDbLine
  8
FORT
 62
256
370
-1
  6
ByLayer
 10
171.4720548409234766
 20
114.3651524359442959
 30
0.0
 11
170.5103896185235612
 21
113.8099949199442875
 31
0.0
  0
LINE
  5
249
100
AcDbEntity
100
AcDbLine
  8
FORT
 62
256
370
-1
  6
ByLayer
 10
175.0493646155235297
 20
116.4302894111442441
 30
0.0
 11
174.0876993931236143
 21
115.8751318951444631
 31
0.0
  0
LINE
  5
24A
100
AcDbEntity
100
AcDbLine
  8
FORT
 62
256
370
-1
  6
ByLayer
 10
178.6266743899234939
 20
118.4954263863444197
 30
0.0
 11
177.6650091675235785
 21
117.9402688703444113
 31
0.0
  0
LINE
  5
24B
100
AcDbEntity
100
AcDbLine
  8
FORT
 62
256
370
-1
  6
ByLayer
 10
182.203984164523547
 20
120.5605633615443679
 30
0.0
 11
181.2423189421236316
 21
120.0054058453442707
 31
0.0
  0
LINE
  5
24C
100
AcDbEntity
100
AcDbLine
  8
FORT
 62
256
370
-1
  6
ByLayer
 10
185.6063754255235949
 20
122.5224126895443391
 30
0.0
 11
182.7779483007234944
 21
120.8895964659443365
 31
0.0
  0
LINE
  5
24D
100
AcDbEntity
100
AcDbLine
  8
FORT
 62
256
370
-1
  6
ByLayer
 10
191.4432440379235345
 20
105.8792375831442172
 30
0.0
 11
194.2716711625235462
 21
107.5120538067442197
 31
0.0
  0
LINE
  5
24E
100
AcDbEntity
100
AcDbLine
  8
FORT
 62
256
370
-1
  6
ByLayer
 10
128.6419085989235214
 20
61.1564539707444368
 30
0.0
 11
144.1982577849235554
 21
70.1369432009444012
 31
0.0
  0
LINE
  5
24F
100
AcDbEntity
100
AcDbLine
  8
FORT
 62
256
370
-1
  6
ByLayer
 10
117.2428350467235418
 20
80.9023680331442705
 30
0.0
 11
114.4144079221235302
 21
79.2695518095442679
 31
0.0
  0
LINE
  5
250
100
AcDbEntity
100
AcDbLine
  8
FORT
 62
256
370
-1
  6
ByLayer
 10
121.2138553039235944
 20
67.4912872811444089
 30
0.0
 11
124.0422824287234675
 21
69.1241035047444115
 31
0.0
  0
LINE
  5
251
100
AcDbEntity
100
AcDbLine
  8
FORT
 62
256
370
-1
  6
ByLayer
 10
140.6215938795235729
 20
124.6703081293444342
 30
0.0
 11
112.3373226321235165
 21
108.3421458927443695
 31
0.0
  0
LINE
  5
252
100
AcDbEntity
100
AcDbLine
  8
FORT
 62
256
370
-1
  6
ByLayer
 10
115.9370300695234732
 20
102.106594083744298
 30
0.0
 11
130.4651611303234517
 21
110.4935056245442269
 31
0.0
  0
LINE
  5
253
100
AcDbEntity
100
AcDbLine
  8
FORT
 62
256
370
-1
  6
ByLayer
 10
146.1980952503234334
 20
66.6727477513443176
 30
0.0
 11
160.3402308739235309
 21
74.8368288695444193
 31
0.0
  0
LINE
  5
254
100
AcDbEntity
100
AcDbLine
  8
FORT
 62
256
370
-1
  6
ByLayer
 10
140.0359699767234929
 20
132.2168095381443891
 30
0.0
 11
137.2075428519236198
 21
130.5839933143442977
 31
0.0
  0
LINE
  5
255
100
AcDbEntity
100
AcDbLine
  8
FORT
 62
256
370
-1
  6
ByLayer
 10
157.3297021019234876
 20
112.3395322795442866
 30
0.0
 11
158.3721531361234724
 21
111.7377381069443203
 31
0.0
  0
LINE
  5
256
100
AcDbEntity
100
AcDbLine
  8
FORT
 62
256
370
-1
  6
ByLayer
 10
126.8650984123235617
 20
101.6988166829444111
 30
0.0
 11
126.1997205975235943
 21
101.3147022465443428
 31
0.0
  0
LINE
  5
257
100
AcDbEntity
100
AcDbLine
  8
FORT
 62
256
370
-1
  6
ByLayer
 10
122.1355497631234925
 20
64.3528606531442477
 30
0.0
 11
112.3373226321235165
 21
58.6964645301443255
 31
0.0
  0
LINE
  5
258
100
AcDbEntity
100
AcDbLine
  8
FORT
 62
256
370
-1
  6
ByLayer
 10
115.9370300695234732
 20
52.4609127211444815
 30
0.0
 11
130.2592109619236567
 21
60.7289317605443415
 31
0.0
  0
LINE
  5
259
100
AcDbEntity
100
AcDbLine
  8
FORT
 62
256
370
-1
  6
ByLayer
 10
187.5647848247236311
 20
63.7821516373444268
 30
0.0
 11
207.3637746979234748
 21
52.3524380717442313
 31
0.0
  0
LINE
  5
25A
100
AcDbEntity
100
AcDbLine
  8
FORT
 62
256
370
-1
  6
ByLayer
 10
217.3629620243235081
 20
69.6734153193444712
 30
0.0
 11
197.563972151123437
 21
81.103128884944212
 31
0.0
  0
LINE
  5
25B
100
AcDbEntity
100
AcDbLine
  8
FORT
 62
256
370
-1
  6
ByLayer
 10
160.9121264073235693
 20
40.2457116445443575
 30
0.0
 11
163.740553531923581
 21
38.6128954209443549
 31
0.0
  0
LINE
  5
25C
100
AcDbEntity
100
AcDbLine
  8
FORT
 62
256
370
-1
  6
ByLayer
 10
166.9402934763234612
 20
44.155608140144281
 30
0.0
 11
169.7687206011235617
 21
42.5227919165442785
 31
0.0
  0
LINE
  5
25D
100
AcDbEntity
100
AcDbLine
  8
FORT
 62
256
370
-1
  6
ByLayer
 10
176.1682004899235494
 20
53.6082173549443581
 30
0.0
 11
174.2841931409234917
 21
54.6958316471443453
 31
0.0
  0
LINE
  5
25E
100
AcDbEntity
100
AcDbLine
  8
FORT
 62
256
370
-1
  6
ByLayer
 10
198.9638583767235218
 20
83.5280656995443991
 30
0.0
 11
193.307004127323637
 21
86.7936981467444042
 31
0.0
  0
LINE
  5
25F
100
AcDbEntity
100
AcDbLine
  8
FORT
 62
256
370
-1
  6
ByLayer
 10
142.0501347787235886
 20
58.5243909083444436
 30
0.0
 11
142.2708083303235185
 21
58.3969987785442157
 31
0.0
  0
LINE
  5
260
100
AcDbEntity
100
AcDbLine
  8
FORT
 62
256
370
-1
  6
ByLayer
 10
187.4033571839234469
 20
36.4019701611443764
 30
0.0
 11
189.1107868443235134
 21
38.5259964265444381
 31
0.0
  0
LINE
  5
261
100
AcDbEntity
100
AcDbLine
  8
FORT
 62
256
370
-1
  6
ByLayer
 10
192.6697601309236347
 20
42.9533253603442375
 30
0.0
 11
194.3844029507236542
 21
45.086324727544465
 31
0.0
  0
LINE
  5
262
100
AcDbEntity
100
AcDbLine
  8
FORT
 62
256
370
-1
  6
ByLayer
 10
187.0631668123235727
 20
42.3631479243442612
 30
0.0
 11
189.5521708185236207
 21
45.459445245744277
 31
0.0
  0
LINE
  5
263
100
AcDbEntity
100
AcDbLine
  8
FORT
 62
256
370
-1
  6
ByLayer
 10
197.9361630777235064
 20
49.5046805597444148
 30
0.0
 11
199.6508058977236146
 21
51.6376799269444149
 31
0.0
  0
LINE
  5
264
100
AcDbEntity
100
AcDbLine
  8
FORT
 62
256
370
-1
  6
ByLayer
 10
192.3367829187234861
 20
48.9234762255443769
 30
0.0
 11
194.8185737655235812
 21
52.010800445144227
 31
0.0
  0
LWPOLYLINE
  5
265
  8
FORT
 62
256
370
-1
  6
ByLayer
100
AcDbEntity
100
AcDbPolyline
 90
17
 70
0
 10
173.2673424985235329
 20
48.7926559729444165
 10
173.0607959869235515
 20
48.7632805385444357
 10
172.8401922413234502
 20
48.6276750483443578
 10
172.639116182323562
 20
48.406484208944434
 10
172.4881798171234664
 20
48.1333823205443281
 10
172.4103618389236203
 20
47.8499466699442877
 10
172.4175093299234618
 20
47.5993277655443165
 10
172.508534148923502
 20
47.4196800637443943
 10
172.6695785927234397
 20
47.338353298744309
 10
172.8761251043236484
 20
47.3677287329444283
 10
173.0967288499235224
 20
47.5033342231442788
 10
173.2978049089236379
 20
47.7245250625444299
 10
173.4487412741235062
 20
47.9976269511443974
 10
173.5265592521234908
 20
48.2810626017442104
 10
173.5194117613235107
 20
48.5316815061444089
 10
173.4283869423234705
 20
48.7113292079443312
 10
173.2673424985235329
 20
48.7926559729444165
  0
LWPOLYLINE
  5
266
  8
FORT
 62
256
370
-1
  6
ByLayer
100
AcDbEntity
100
AcDbPolyline
 90
27
 70
0
 10
177.7767866577235623
 20
86.235934879344299
 10
178.0077983323236026
 20
86.5380980523443526
 10
179.2780009833234658
 20
88.0872618623443344
 10
180.6096133763235798
 20
89.5287557407443586
 10
181.9905762229234938
 20
90.8495252957443284
 10
183.408383310123611
 20
92.037609433544489
 10
184.8501947571235746
 20
93.0822486801443887
 10
186.3029532963235511
 20
93.9739826209442839
 10
187.7535025213235826
 20
94.7047355753443156
 10
189.1887060339234381
 20
95.2678897311443365
 10
190.5955664085234389
 20
95.6583450773443786
 10
191.9613429001236113
 20
95.8725655899443012
 10
193.2736668249236232
 20
95.9086112545444252
 10
194.5206535745235783
 20
95.7661556361442621
 10
195.6910102437234968
 20
95.4464888347442724
 10
196.7741379013235132
 20
94.9525058027443123
 10
197.760227575323654
 20
94.2886801265442358
 10
198.6403490853236349
 20
93.4610235147442694
 10
199.4065319143235797
 20
92.4770313533442589
 10
200.0518373921234456
 20
91.3456148279444591
 10
200.5704215323235644
 20
90.0770202219443803
 10
200.9575879565234686
 20
88.6827361241443981
 10
201.2098304259234851
 20
87.1753893877444028
 10
201.3248645935235004
 20
85.5686307777443602
 10
201.3016486921235924
 20
83.8770113491443539
 10
201.1403929683236242
 20
82.11585066934434
 10
200.992491836923648
 20
81.1182632451443482
  0
LINE
  5
267
100
AcDbEntity
100
AcDbLine
  8
FORT
 62
256
370
-1
  6
ByLayer
 10
181.9096245859234955
 20
95.3223504727443327
 30
0.0
 11
181.7594312599235877
 21
92.9145763603444124
 31
0.0
  0
LWPOLYLINE
  5
268
  8
FORT
 62
256
370
-1
  6
ByLayer
100
AcDbEntity
100
AcDbPolyline
 90
9
 70
0
 10
181.9096245859234955
 20
95.3223504727443327
 10
181.9955386105235107
 20
95.3937978997443992
 10
182.0815389125235129
 20
95.4648377539444795
 10
182.1676236661235748
 20
95.5354685267443386
 10
182.2537910435235631
 20
95.6056887187444175
 10
182.3400392149235927
 20
95.6754968389443405
 10
182.4263663491236116
 20
95.7448914049443687
 10
182.5127706133235392
 20
95.8138709433444404
 10
182.5992501729236324
 20
95.8824339897443991
  0
LINE
  5
269
100
AcDbEntity
100
AcDbLine
  8
FORT
 62
256
370
-1
  6
ByLayer
 10
183.5226604295235688
 20
94.3465934049443007
 30
0.0
 11
182.5992501729236324
 21
95.8824339897443991
 31
0.0
  0
LINE
  5
26A
100
AcDbEntity
100
AcDbLine
  8
FORT
 62
256
370
-1
  6
ByLayer
 10
184.2521450451236547
 20
94.8751287143443136
 30
0.0
 11
183.5226604295235688
 21
94.3465934049443007
 31
0.0
  0
LINE
  5
26B
100
AcDbEntity
100
AcDbLine
  8
FORT
 62
256
370
-1
  6
ByLayer
 10
184.6964125339234783
 20
97.4018962701443201
 30
0.0
 11
184.2521450451236547
 21
94.8751287143443136
 31
0.0
  0
LWPOLYLINE
  5
26C
  8
FORT
 62
256
370
-1
  6
ByLayer
100
AcDbEntity
100
AcDbPolyline
 90
9
 70
0
 10
184.6964125339234783
 20
97.4018962701443201
 10
184.7804351901234554
 20
97.4571288849444812
 10
184.8644827293235835
 20
97.5119477657442388
 10
184.9485535157235176
 20
97.5663518457442791
 10
185.0326459129235559
 20
97.6203400661442942
 10
185.1167582847236304
 20
97.6739113763444351
 10
185.2008889937235949
 20
97.7270647335442249
 10
185.2850364029234811
 20
97.7797991033444163
 10
185.3691988747235087
 20
97.8321134597442637
  0
LINE
  5
26D
100
AcDbEntity
100
AcDbLine
  8
FORT
 62
256
370
-1
  6
ByLayer
 10
186.0219742009235802
 20
96.0068563957442933
 30
0.0
 11
185.3691988747235087
 21
97.8321134597442637
 31
0.0
  0
LINE
  5
26E
100
AcDbEntity
100
AcDbLine
  8
FORT
 62
256
370
-1
  6
ByLayer
 10
186.7572288951235464
 20
96.4149572679443594
 30
0.0
 11
186.0219742009235802
 21
96.0068563957442933
 31
0.0
  0
LINE
  5
26F
100
AcDbEntity
100
AcDbLine
  8
FORT
 62
256
370
-1
  6
ByLayer
 10
187.4829493739235318
 20
99.0053442181444865
 30
0.0
 11
186.7572288951235464
 21
96.4149572679443594
 31
0.0
  0
LWPOLYLINE
  5
270
  8
FORT
 62
256
370
-1
  6
ByLayer
100
AcDbEntity
100
AcDbPolyline
 90
9
 70
0
 10
187.4829493739235318
 20
99.0053442181444865
 10
187.5669251049235413
 20
99.0463544577444139
 10
187.6508714891236309
 20
99.0869200345443772
 10
187.7347868931236121
 20
99.1270401589442685
 10
187.818669683323435
 20
99.166714050544428
 10
187.9025182277235331
 20
99.2059409367443408
 10
187.9863308943236575
 20
99.2447200543444836
 10
188.0701060517235987
 20
99.2830506487443785
 10
188.1538420699235417
 20
99.3209319737443224
  0
LINE
  5
271
100
AcDbEntity
100
AcDbLine
  8
FORT
 62
256
370
-1
  6
ByLayer
 10
188.522076636123586
 20
97.2451412019442927
 30
0.0
 11
188.1538420699235417
 21
99.3209319737443224
 31
0.0
  0
LINE
  5
272
100
AcDbEntity
100
AcDbLine
  8
FORT
 62
256
370
-1
  6
ByLayer
 10
189.2474385521234694
 20
97.5241140161444804
 30
0.0
 11
188.522076636123586
 21
97.2451412019442927
 31
0.0
  0
LINE
  5
273
100
AcDbEntity
100
AcDbLine
  8
FORT
 62
256
370
-1
  6
ByLayer
 10
190.2391522677235685
 20
100.1229383123443171
 30
0.0
 11
189.2474385521234694
 21
97.5241140161444804
 31
0.0
  0
LWPOLYLINE
  5
274
  8
FORT
 62
256
370
-1
  6
ByLayer
100
AcDbEntity
100
AcDbPolyline
 90
9
 70
0
 10
190.2391522677235685
 20
100.1229383123443171
 10
190.3212921697234492
 20
100.1488525509443974
 10
190.4033491205235009
 20
100.1743006703443228
 10
190.4853215233236483
 20
100.1992821753444645
 10
190.5672077829236173
 20
100.2237965795443273
 10
190.6490063057236171
 20
100.2478434063443586
 10
190.7307154995235692
 20
100.2714221873443279
 10
190.8123337743234629
 20
100.2945324637444031
 10
190.8938595417235433
 20
100.3171737857444299
  0
LINE
  5
275
100
AcDbEntity
100
AcDbLine
  8
FORT
 62
256
370
-1
  6
ByLayer
 10
190.9697089841236561
 20
98.0350691039443376
 30
0.0
 11
190.8938595417235433
 21
100.3171737857444299
 31
0.0
  0
LINE
  5
276
100
AcDbEntity
100
AcDbLine
  8
FORT
 62
256
370
-1
  6
ByLayer
 10
191.6697260071235291
 20
98.1789710061443515
 30
0.0
 11
190.9697089841236561
 21
98.0350691039443376
 31
0.0
  0
LINE
  5
277
100
AcDbEntity
100
AcDbLine
  8
FORT
 62
256
370
-1
  6
ByLayer
 10
192.9063068519236026
 20
100.7308708625443927
 30
0.0
 11
191.6697260071235291
 21
98.1789710061443515
 31
0.0
  0
LWPOLYLINE
  5
278
  8
FORT
 62
256
370
-1
  6
ByLayer
100
AcDbEntity
100
AcDbPolyline
 90
9
 70
0
 10
192.9063068519236026
 20
100.7308708625443927
 10
192.9848611289235691
 20
100.7411370585443677
 10
193.0632806177234784
 20
100.7509256087443958
 10
193.1415637921234634
 20
100.760236322344312
 10
193.2197091285234478
 20
100.7690690183442115
 10
193.2977151059236007
 20
100.7774235249444104
 10
193.375580206723555
 20
100.7852996791443587
 10
193.4533029151235155
 20
100.7926973281443992
 10
193.5308817185235171
 20
100.7996163275442854
  0
LINE
  5
279
100
AcDbEntity
100
AcDbLine
  8
FORT
 62
256
370
-1
  6
ByLayer
 10
193.3127302449234435
 20
98.3598125615442171
 30
0.0
 11
193.5308817185235171
 21
100.7996163275442854
 31
0.0
  0
LINE
  5
27A
100
AcDbEntity
100
AcDbLine
  8
FORT
 62
256
370
-1
  6
ByLayer
 10
193.9724901729235285
 20
98.365578063144298
 30
0.0
 11
193.3127302449234435
 21
98.3598125615442171
 31
0.0
  0
LINE
  5
27B
100
AcDbEntity
100
AcDbLine
  8
FORT
 62
256
370
-1
  6
ByLayer
 10
195.4275957257235063
 20
100.8161913075443721
 30
0.0
 11
193.9724901729235285
 21
98.365578063144298
 31
0.0
  0
LWPOLYLINE
  5
27C
  8
FORT
 62
256
370
-1
  6
ByLayer
100
AcDbEntity
100
AcDbPolyline
 90
9
 70
0
 10
195.4275957257235063
 20
100.8161913075443721
 10
195.5008909653234355
 20
100.8105907643443828
 10
195.5740024509235013
 20
100.80451122334442
 10
195.6469287593236572
 20
100.7979528031444119
 10
195.7196684715234483
 20
100.7909156311443297
 10
195.7922201717236135
 20
100.7833998445444053
 10
195.8645824479236239
 20
100.7754055893444587
 10
195.9367538921235905
 20
100.766933021344343
 10
196.0087330993235923
 20
100.7579823053442709
  0
LINE
  5
27D
100
AcDbEntity
100
AcDbLine
  8
FORT
 62
256
370
-1
  6
ByLayer
 10
195.5012279091236564
 20
98.2124536859443964
 30
0.0
 11
196.0087330993235923
 21
100.7579823053442709
 31
0.0
  0
LINE
  5
27E
100
AcDbEntity
100
AcDbLine
  8
FORT
 62
256
370
-1
  6
ByLayer
 10
196.106676122323563
 20
98.0799599665444788
 30
0.0
 11
195.5012279091236564
 21
98.2124536859443964
 31
0.0
  0
LINE
  5
27F
100
AcDbEntity
100
AcDbLine
  8
FORT
 62
256
370
-1
  6
ByLayer
 10
197.7493088113236013
 20
100.3770820981442142
 30
0.0
 11
196.106676122323563
 21
98.0799599665444788
 31
0.0
  0
LWPOLYLINE
  5
280
  8
FORT
 62
256
370
-1
  6
ByLayer
100
AcDbEntity
100
AcDbPolyline
 90
9
 70
0
 10
197.7493088113236013
 20
100.3770820981442142
 10
197.815783632523619
 20
100.3557341217444758
 10
197.8820296481235914
 20
100.333915999944324
 10
197.9480455687235576
 20
100.3116281571444546
 10
198.0138301097236422
 20
100.2888710275444595
 10
198.0793819907235616
 20
100.2656450537444783
 10
198.1446999359234837
 20
100.2419506877442785
 10
198.209782674323435
 20
100.2177883909443921
 10
198.2746289391234882
 20
100.1931586331443071
  0
LINE
  5
281
100
AcDbEntity
100
AcDbLine
  8
FORT
 62
256
370
-1
  6
ByLayer
 10
197.4885812263235607
 20
97.5961316083444075
 30
0.0
 11
198.2746289391234882
 21
100.1931586331443071
 31
0.0
  0
LINE
  5
282
100
AcDbEntity
100
AcDbLine
  8
FORT
 62
256
370
-1
  6
ByLayer
 10
198.0268200867236033
 20
97.3282011325443221
 30
0.0
 11
197.4885812263235607
 21
97.5961316083444075
 31
0.0
  0
LINE
  5
283
100
AcDbEntity
100
AcDbLine
  8
FORT
 62
256
370
-1
  6
ByLayer
 10
199.8219875199236526
 20
99.4228974139443693
 30
0.0
 11
198.0268200867236033
 21
97.3282011325443221
 31
0.0
  0
LWPOLYLINE
  5
284
  8
FORT
 62
256
370
-1
  6
ByLayer
100
AcDbEntity
100
AcDbPolyline
 90
9
 70
0
 10
199.8219875199236526
 20
99.4228974139443693
 10
199.8802258343235394
 20
99.3862567723442538
 10
199.9381951657235845
 20
99.3491648529443268
 10
199.9958943859235774
 20
99.3116223775443672
 10
200.0533223721236595
 20
99.2736300769442863
 10
200.110478006523465
 20
99.2351886901444544
 10
200.1673601769235233
 20
99.1962989657442762
 10
200.2239677761236294
 20
99.1569616603444359
 10
200.2802997027236529
 20
99.1171775393442971
  0
LINE
  5
285
100
AcDbEntity
100
AcDbLine
  8
FORT
 62
256
370
-1
  6
ByLayer
 10
199.232454348923568
 20
96.523975608544319
 30
0.0
 11
200.2802997027236529
 21
99.1171775393442971
 31
0.0
  0
LINE
  5
286
100
AcDbEntity
100
AcDbLine
  8
FORT
 62
256
370
-1
  6
ByLayer
 10
199.6920179549236423
 20
96.1263159991442393
 30
0.0
 11
199.232454348923568
 21
96.523975608544319
 31
0.0
  0
LINE
  5
287
100
AcDbEntity
100
AcDbLine
  8
FORT
 62
256
370
-1
  6
ByLayer
 10
201.6014783491235107
 20
97.9739638959442658
 30
0.0
 11
199.6920179549236423
 21
96.1263159991442393
 31
0.0
  0
LWPOLYLINE
  5
288
  8
FORT
 62
256
370
-1
  6
ByLayer
100
AcDbEntity
100
AcDbPolyline
 90
9
 70
0
 10
201.6014783491235107
 20
97.9739638959442658
 10
201.6502395273235493
 20
97.9228111311442575
 10
201.698697275523557
 20
97.8712355695442824
 10
201.7468506503235517
 20
97.8192382147442316
 10
201.7946987147234381
 20
97.7668200789444057
 10
201.842240537323562
 20
97.7139821819443881
 10
201.8894751931234737
 20
97.6607255521443989
 10
201.9364017629234809
 20
97.607051226144435
 10
201.9830193331236501
 20
97.5529602483443199
  0
LINE
  5
289
100
AcDbEntity
100
AcDbLine
  8
FORT
 62
256
370
-1
  6
ByLayer
 10
200.6956981975236545
 20
95.0188254263443781
 30
0.0
 11
201.9830193331236501
 21
97.5529602483443199
 31
0.0
  0
LINE
  5
28A
100
AcDbEntity
100
AcDbLine
  8
FORT
 62
256
370
-1
  6
ByLayer
 10
201.0667966367234953
 20
94.4999078779444375
 30
0.0
 11
200.6956981975236545
 21
95.0188254263443781
 31
0.0
  0
LINE
  5
28B
100
AcDbEntity
100
AcDbLine
  8
FORT
 62
256
370
-1
  6
ByLayer
 10
203.0498734683235966
 20
96.0611476351443656
 30
0.0
 11
201.0667966367234953
 21
94.4999078779444375
 31
0.0
  0
LWPOLYLINE
  5
28C
  8
FORT
 62
256
370
-1
  6
ByLayer
100
AcDbEntity
100
AcDbPolyline
 90
9
 70
0
 10
203.0498734683235966
 20
96.0611476351443656
 10
203.0881187693235574
 20
95.9965724355442802
 10
203.1260326569236554
 20
95.9316119265442779
 10
203.1636143929236482
 20
95.8662673727442183
 10
203.2008632459235855
 20
95.8005400455442526
 10
203.2377784913235814
 20
95.7344312243442204
 10
203.274359410123509
 20
95.6679421955443416
 10
203.3106052909234336
 20
95.6010742531443469
 10
203.3465154283235847
 20
95.5338286985442977
  0
LINE
  5
28D
100
AcDbEntity
100
AcDbLine
  8
FORT
 62
256
370
-1
  6
ByLayer
 10
201.8471418335234944
 20
93.1127447153444194
 30
0.0
 11
203.3465154283235847
 21
95.5338286985442977
 31
0.0
  0
LINE
  5
28E
100
AcDbEntity
100
AcDbLine
  8
FORT
 62
256
370
-1
  6
ByLayer
 10
202.1218697339234609
 20
92.4836235353443357
 30
0.0
 11
201.8471418335234944
 21
93.1127447153444194
 31
0.0
  0
LINE
  5
28F
100
AcDbEntity
100
AcDbLine
  8
FORT
 62
256
370
-1
  6
ByLayer
 10
204.136318255923527
 20
93.7251966437442974
 30
0.0
 11
202.1218697339234609
 21
92.4836235353443357
 31
0.0
  0
LWPOLYLINE
  5
290
  8
FORT
 62
256
370
-1
  6
ByLayer
100
AcDbEntity
100
AcDbPolyline
 90
9
 70
0
 10
204.136318255923527
 20
93.7251966437442974
 10
204.1632329545234938
 20
93.6485746307443918
 10
204.1897953159235044
 20
93.5716130041443961
 10
204.216004823323658
 20
93.4943132619443844
 10
204.2418609667234364
 20
93.416676908344229
 10
204.2673632427234338
 20
93.3387054543443213
 10
204.2925111553234387
 20
93.2604004173442576
 10
204.3173042147234924
 20
93.1817633215443806
 10
204.3417419385235121
 20
93.1027956971442876
  0
LINE
  5
291
100
AcDbEntity
100
AcDbLine
  8
FORT
 62
256
370
-1
  6
ByLayer
 10
202.662256482123496
 20
90.8463380029443073
 30
0.0
 11
204.3417419385235121
 21
93.1027956971442876
 31
0.0
  0
LINE
  5
292
100
AcDbEntity
100
AcDbLine
  8
FORT
 62
256
370
-1
  6
ByLayer
 10
202.8347614175234526
 20
90.1204151253443655
 30
0.0
 11
202.662256482123496
 21
90.8463380029443073
 31
0.0
  0
LINE
  5
293
100
AcDbEntity
100
AcDbLine
  8
FORT
 62
256
370
-1
  6
ByLayer
 10
204.8376685833234774
 20
91.0158728157443733
 30
0.0
 11
202.8347614175234526
 21
90.1204151253443655
 31
0.0
  0
LWPOLYLINE
  5
294
  8
FORT
 62
256
370
-1
  6
ByLayer
100
AcDbEntity
100
AcDbPolyline
 90
9
 70
0
 10
204.8376685833234774
 20
91.0158728157443733
 10
204.8526793255235248
 20
90.9288362395443386
 10
204.8673243129235857
 20
90.8415129799443406
 10
204.8816032603236295
 20
90.7539047369443637
 10
204.8955158903234519
 20
90.6660132153444778
 10
204.9090619317235564
 20
90.5778401255442844
 10
204.922241120923502
 20
90.4893871835442809
 10
204.9350532017236333
 20
90.4006561109442686
 10
204.9474979245235886
 20
90.3116486343444507
  0
LINE
  5
295
100
AcDbEntity
100
AcDbLine
  8
FORT
 62
256
370
-1
  6
ByLayer
 10
203.1236780593235949
 20
88.2678857073444618
 30
0.0
 11
204.9474979245235886
 21
90.3116486343444507
 31
0.0
  0
LINE
  5
296
100
AcDbEntity
100
AcDbLine
  8
FORT
 62
256
370
-1
  6
ByLayer
 10
203.1902852215235384
 20
87.4606251967443171
 30
0.0
 11
203.1236780593235949
 21
88.2678857073444618
 31
0.0
  0
LINE
  5
297
100
AcDbEntity
100
AcDbLine
  8
FORT
 62
256
370
-1
  6
ByLayer
 10
205.138983845923633
 20
87.9908918675443914
 30
0.0
 11
203.1902852215235384
 21
87.4606251967443171
 31
0.0
  0
LWPOLYLINE
  5
298
  8
FORT
 62
256
370
-1
  6
ByLayer
100
AcDbEntity
100
AcDbPolyline
 90
9
 70
0
 10
205.138983845923633
 20
87.9908918675443914
 10
205.1417708633235293
 20
87.8952948355442771
 10
205.1441864999235918
 20
87.7994701581444446
 10
205.1462307085235466
 20
87.7034197001444085
 10
205.1479034491235893
 20
87.6071453307442738
 10
205.1492046897236037
 20
87.5106489235442808
 10
205.1501344045234987
 20
87.4139323565443505
 10
205.1506925755234647
 20
87.3169975121443116
 10
205.1508791921235684
 20
87.2198462769442671
  0
LINE
  5
299
100
AcDbEntity
100
AcDbLine
  8
FORT
 62
256
370
-1
  6
ByLayer
 10
203.2215770731234556
 20
85.4323156369443808
 30
0.0
 11
205.1508791921235684
 21
87.2198462769442671
 31
0.0
  0
LINE
  5
29A
100
AcDbEntity
100
AcDbLine
  8
FORT
 62
256
370
-1
  6
ByLayer
 10
203.1808675547236476
 20
84.5609142635444044
 30
0.0
 11
203.2215770731234556
 21
85.4323156369443808
 31
0.0
  0
LINE
  5
29B
100
AcDbEntity
100
AcDbLine
  8
FORT
 62
256
370
-1
  6
ByLayer
 10
205.0338452367234936
 20
84.7146938411444665
 30
0.0
 11
203.1808675547236476
 21
84.5609142635444044
 31
0.0
  0
LWPOLYLINE
  5
29C
  8
FORT
 62
256
370
-1
  6
ByLayer
100
AcDbEntity
100
AcDbPolyline
 90
9
 70
0
 10
205.0338452367234936
 20
84.7146938411444665
 10
205.0243491587235098
 20
84.6125728217443651
 10
205.0144839849236291
 20
84.5102880437443531
 10
205.0042499075235014
 20
84.407841497744343
 10
204.9936471253234345
 20
84.3052351775443043
 10
204.9826758451236515
 20
84.2024710801444911
 10
204.9713362799234915
 20
84.099551205144266
 10
204.9596286509234346
 20
83.9964775559444519
 10
204.9475531857236206
 20
83.8932521383442094
  0
LINE
  5
29D
100
AcDbEntity
100
AcDbLine
  8
FORT
 62
256
370
-1
  6
ByLayer
 10
202.9538680175235754
 20
82.4000328849444799
 30
0.0
 11
204.9475531857236206
 21
83.8932521383442094
 31
0.0
  0
LINE
  5
29E
100
AcDbEntity
100
AcDbLine
  8
FORT
 62
256
370
-1
  6
ByLayer
 10
202.8067090379234401
 20
81.4830537875443355
 30
0.0
 11
202.9538680175235754
 21
82.4000328849444799
 31
0.0
  0
LINE
  5
29F
100
AcDbEntity
100
AcDbLine
  8
FORT
 62
256
370
-1
  6
ByLayer
 10
204.5244924843235026
 20
81.2570703629444182
 30
0.0
 11
202.8067090379234401
 21
81.4830537875443355
 31
0.0
  0
LWPOLYLINE
  5
2A0
  8
FORT
 62
256
370
-1
  6
ByLayer
100
AcDbEntity
100
AcDbPolyline
 90
9
 70
0
 10
204.5244924843235026
 20
81.2570703629444182
 10
204.5029156023236396
 20
81.1506008021444671
 10
204.4809797725236535
 20
81.0440348581443999
 10
204.4586854217234873
 20
80.9373746047442495
 10
204.4360329839235533
 20
80.8306221181444329
 10
204.4130228999236465
 20
80.7237794755444469
 10
204.3896556175234878
 20
80.6168487565443996
 10
204.3659315915236334
 20
80.5098320419444775
 10
204.3418512835235674
 20
80.402731414544391
  0
LINE
  5
2A1
100
AcDbEntity
100
AcDbLine
  8
FORT
 62
256
370
-1
  6
ByLayer
 10
202.326253798723485
 20
79.2356330413442578
 30
0.0
 11
204.3418512835235674
 21
80.402731414544391
 31
0.0
  0
LINE
  5
2A2
100
AcDbEntity
100
AcDbLine
  8
FORT
 62
256
370
-1
  6
ByLayer
 10
202.1231997449236246
 20
78.4711428183443189
 30
0.0
 11
202.326253798723485
 21
79.2356330413442578
 31
0.0
  0
LINE
  5
2A3
100
AcDbEntity
100
AcDbLine
  8
FORT
 62
256
370
-1
  6
ByLayer
 10
203.6217761409234868
 20
77.6916778981442206
 30
0.0
 11
203.1676324061234595
 21
77.8682046769442735
 31
0.0
  0
LINE
  5
2A4
100
AcDbEntity
100
AcDbLine
  8
FORT
 62
256
370
-1
  6
ByLayer
 10
178.7138242081235262
 20
89.8824583691443735
 30
0.0
 11
178.494499162523482
 21
90.0172283681442735
 31
0.0
  0
LINE
  5
2A5
100
AcDbEntity
100
AcDbLine
  8
FORT
 62
256
370
-1
  6
ByLayer
 10
179.3851320167235031
 20
90.6167055893442779
 30
0.0
 11
178.7138242081235262
 21
89.8824583691443735
 31
0.0
  0
LINE
  5
2A6
100
AcDbEntity
100
AcDbLine
  8
FORT
 62
256
370
-1
  6
ByLayer
 10
179.2411404449235874
 20
92.8551744019443817
 30
0.0
 11
179.3851320167235031
 21
90.6167055893442779
 31
0.0
  0
LWPOLYLINE
  5
2A7
  8
FORT
 62
256
370
-1
  6
ByLayer
100
AcDbEntity
100
AcDbPolyline
 90
9
 70
0
 10
179.2411404449235874
 20
92.8551744019443817
 10
179.3198774967234499
 20
92.9351598615444203
 10
179.398745702523513
 20
93.0148195917442848
 10
179.4777435273236392
 20
93.094152042344362
 10
179.5568694335234454
 20
93.1731556693443821
 10
179.6361218815234793
 20
93.2518289353442782
 10
179.715499328723638
 20
93.3301703091444637
 10
179.7950002305236126
 20
93.408178266144418
 10
179.874623039523442
 20
93.485851288144417
  0
LINE
  5
2A8
100
AcDbEntity
100
AcDbLine
  8
FORT
 62
256
370
-1
  6
ByLayer
 10
181.05156888912353
 20
92.2757617761442219
 30
0.0
 11
179.874623039523442
 21
93.485851288144417
 31
0.0
  0
LINE
  5
2A9
100
AcDbEntity
100
AcDbLine
  8
FORT
 62
256
370
-1
  6
ByLayer
 10
181.7594312599235877
 20
92.9145763603444124
 30
0.0
 11
181.05156888912353
 21
92.2757617761442219
 31
0.0
  0
LWPOLYLINE
  5
2AA
  8
FORT
 62
256
370
-1
  6
ByLayer
100
AcDbEntity
100
AcDbPolyline
 90
12
 70
0
 10
196.5715722649236454
 20
95.0616393909442507
 10
197.1945421505236595
 20
94.6152433713443628
 10
198.0746636603235515
 20
93.7875867595443964
 10
198.8408464893234964
 20
92.8035945981443859
 10
199.4861519671235897
 20
91.6721780727443587
 10
200.0047361073234811
 20
90.4035834665444185
 10
200.3919025317234741
 20
89.0092993689442977
 10
200.6441450011234906
 20
87.5019526323442136
 10
200.7591791687235059
 20
85.8951940223443984
 10
200.735963267123509
 20
84.203574593744392
 10
200.5747075435236297
 20
82.442413914144467
 10
200.5173794175235003
 20
82.0233722791442545
  0
LINE
  5
2AB
100
AcDbEntity
100
AcDbLine
  8
FORT
 62
256
370
-1
  6
ByLayer
 10
178.595892510723445
 20
93.227668105544339
 30
0.0
 11
179.2411404449235874
 21
92.8551744019443817
 31
0.0
  0
LINE
  5
2AC
100
AcDbEntity
100
AcDbLine
  8
FORT
 62
256
370
-1
  6
ByLayer
 10
179.874623039523442
 20
93.485851288144417
 30
0.0
 11
178.5135303867235166
 21
94.2715933517442721
 31
0.0
  0
LINE
  5
2AD
100
AcDbEntity
100
AcDbLine
  8
FORT
 62
256
370
-1
  6
ByLayer
 10
179.3851320167235031
 20
90.6167055893442779
 30
0.0
 11
178.5930524169235127
 21
91.0739634093442731
 31
0.0
  0
LINE
  5
2AE
100
AcDbEntity
100
AcDbLine
  8
FORT
 62
256
370
-1
  6
ByLayer
 10
181.7594312599235877
 20
92.9145763603444124
 30
0.0
 11
178.4496407121235393
 21
94.8252777731442933
 31
0.0
  0
LINE
  5
2AF
100
AcDbEntity
100
AcDbLine
  8
FORT
 62
256
370
-1
  6
ByLayer
 10
178.5155120363236279
 20
97.2817299409443734
 30
0.0
 11
181.9096245859234955
 21
95.3223504727443327
 31
0.0
  0
LINE
  5
2B0
100
AcDbEntity
100
AcDbLine
  8
FORT
 62
256
370
-1
  6
ByLayer
 10
178.3895948657234953
 20
95.2631309019443364
 30
0.0
 11
178.5155120363236279
 21
97.2817299409443734
 31
0.0
  0
LINE
  5
2B1
100
AcDbEntity
100
AcDbLine
  8
FORT
 62
256
370
-1
  6
ByLayer
 10
182.5992501729236324
 20
95.8824339897443991
 30
0.0
 11
179.2051376231234485
 21
97.8418134581443013
 31
0.0
  0
LWPOLYLINE
  5
2B2
  8
FORT
 62
256
370
-1
  6
ByLayer
100
AcDbEntity
100
AcDbPolyline
 90
9
 70
0
 10
178.5155120363236279
 20
97.2817299409443734
 10
178.601426060923643
 20
97.3531773681443013
 10
178.6874263629236452
 20
97.4242172223443816
 10
178.7735111165234798
 20
97.4948479951442408
 10
178.8596784937236066
 20
97.5650681871443197
 10
178.9459266651236362
 20
97.6348763073444701
 10
179.0322537993236551
 20
97.7042708733442709
 10
179.1186580635235828
 20
97.7732504117443426
 10
179.2051376231234485
 20
97.8418134581443013
  0
LINE
  5
2B3
100
AcDbEntity
100
AcDbLine
  8
FORT
 62
256
370
-1
  6
ByLayer
 10
184.2521450451236547
 20
94.8751287143443136
 30
0.0
 11
182.6481565823235655
 21
95.8010915443444304
 31
0.0
  0
LINE
  5
2B4
100
AcDbEntity
100
AcDbLine
  8
FORT
 62
256
370
-1
  6
ByLayer
 10
181.3022999841235219
 20
99.3612757383443608
 30
0.0
 11
184.6964125339234783
 21
97.4018962701443201
 31
0.0
  0
LINE
  5
2B5
100
AcDbEntity
100
AcDbLine
  8
FORT
 62
256
370
-1
  6
ByLayer
 10
180.8665099493235289
 20
96.8827236291442517
 30
0.0
 11
181.3022999841235219
 21
99.3612757383443608
 31
0.0
  0
LINE
  5
2B6
100
AcDbEntity
100
AcDbLine
  8
FORT
 62
256
370
-1
  6
ByLayer
 10
185.3691988747235087
 20
97.8321134597442637
 30
0.0
 11
181.9750863249235522
 21
99.7914929279443044
 31
0.0
  0
LWPOLYLINE
  5
2B7
  8
FORT
 62
256
370
-1
  6
ByLayer
100
AcDbEntity
100
AcDbPolyline
 90
9
 70
0
 10
181.3022999841235219
 20
99.3612757383443608
 10
181.3863226405235878
 20
99.4165083533443834
 10
181.4703701797234885
 20
99.4713272341443684
 10
181.5544409659235612
 20
99.5257313141444087
 10
181.6385333633234609
 20
99.5797195345444237
 10
181.7226457349234465
 20
99.6332908447443373
 10
181.8067764441234999
 20
99.6864442019443544
 10
181.8909238533236135
 20
99.7391785717443184
 10
181.9750863249235522
 20
99.7914929279443044
  0
LINE
  5
2B8
100
AcDbEntity
100
AcDbLine
  8
FORT
 62
256
370
-1
  6
ByLayer
 10
186.7572288951235464
 20
96.4149572679443594
 30
0.0
 11
185.6467572445235987
 21
97.0560189065442813
 31
0.0
  0
LINE
  5
2B9
100
AcDbEntity
100
AcDbLine
  8
FORT
 62
256
370
-1
  6
ByLayer
 10
184.0888368241235753
 20
100.9647236863442998
 30
0.0
 11
187.4829493739235318
 21
99.0053442181444865
 31
0.0
  0
LINE
  5
2BA
100
AcDbEntity
100
AcDbLine
  8
FORT
 62
256
370
-1
  6
ByLayer
 10
183.5116357189236282
 20
98.9044618439443042
 30
0.0
 11
184.0888368241235753
 21
100.9647236863442998
 31
0.0
  0
LINE
  5
2BB
100
AcDbEntity
100
AcDbLine
  8
FORT
 62
256
370
-1
  6
ByLayer
 10
188.1538420699235417
 20
99.3209319737443224
 30
0.0
 11
184.7597295201235852
 21
101.2803114421442245
 31
0.0
  0
LWPOLYLINE
  5
2BC
  8
FORT
 62
256
370
-1
  6
ByLayer
100
AcDbEntity
100
AcDbPolyline
 90
9
 70
0
 10
184.0888368241235753
 20
100.9647236863442998
 10
184.1728125551235848
 20
101.0057339259444547
 10
184.2567589395235359
 20
101.0462995029442794
 10
184.3406743433236556
 20
101.086419627344398
 10
184.4245571337235674
 20
101.1260935187444687
 10
184.5084056781234381
 20
101.165320405144243
 10
184.5922183445234737
 20
101.2040995227443858
 10
184.6759935019236423
 20
101.2424301169444192
 10
184.7597295201235852
 20
101.2803114421442245
  0
LINE
  5
2BD
100
AcDbEntity
100
AcDbLine
  8
FORT
 62
256
370
-1
  6
ByLayer
 10
189.2474385521234694
 20
97.5241140161444804
 30
0.0
 11
188.3841842763236514
 21
98.0224601019442474
 31
0.0
  0
LINE
  5
2BE
100
AcDbEntity
100
AcDbLine
  8
FORT
 62
256
370
-1
  6
ByLayer
 10
186.8450397181234734
 20
102.0823177807444466
 30
0.0
 11
190.2391522677235685
 21
100.1229383123443171
 31
0.0
  0
LINE
  5
2BF
100
AcDbEntity
100
AcDbLine
  8
FORT
 62
256
370
-1
  6
ByLayer
 10
186.2177917207234827
 20
100.4385900501442705
 30
0.0
 11
186.8450397181234734
 21
102.0823177807444466
 31
0.0
  0
LINE
  5
2C0
100
AcDbEntity
100
AcDbLine
  8
FORT
 62
256
370
-1
  6
ByLayer
 10
190.8938595417235433
 20
100.3171737857444299
 30
0.0
 11
187.4997469919235868
 21
102.2765532541443321
 31
0.0
  0
LWPOLYLINE
  5
2C1
  8
FORT
 62
256
370
-1
  6
ByLayer
100
AcDbEntity
100
AcDbPolyline
 90
9
 70
0
 10
186.8450397181234734
 20
102.0823177807444466
 10
186.9271796199234927
 20
102.1082320193442996
 10
187.0092365707235444
 20
102.1336801387444524
 10
187.0912089737235533
 20
102.1586616437443666
 10
187.1730952333235223
 20
102.1831760479442295
 10
187.2548937559234332
 20
102.2072228747444882
 10
187.3366029499234742
 20
102.2308016555443686
 10
187.4182212247235952
 20
102.2539119319442165
 10
187.4997469919235868
 20
102.2765532541443321
  0
LINE
  5
2C2
100
AcDbEntity
100
AcDbLine
  8
FORT
 62
256
370
-1
  6
ByLayer
 10
191.6697260071235291
 20
98.1789710061443515
 30
0.0
 11
190.9511385687235929
 21
98.5938027043443839
 31
0.0
  0
LINE
  5
2C3
100
AcDbEntity
100
AcDbLine
  8
FORT
 62
256
370
-1
  6
ByLayer
 10
189.5121943021236461
 20
102.6902503309442949
 30
0.0
 11
192.9063068519236026
 21
100.7308708625443927
 31
0.0
  0
LINE
  5
2C4
100
AcDbEntity
100
AcDbLine
  8
FORT
 62
256
370
-1
  6
ByLayer
 10
188.9156471747235742
 20
101.4591714771442952
 30
0.0
 11
189.5121943021236461
 21
102.6902503309442949
 31
0.0
  0
LINE
  5
2C5
100
AcDbEntity
100
AcDbLine
  8
FORT
 62
256
370
-1
  6
ByLayer
 10
193.5308817185235171
 20
100.7996163275442854
 30
0.0
 11
190.1367691689236494
 21
102.7589957959444149
 31
0.0
  0
LWPOLYLINE
  5
2C6
  8
FORT
 62
256
370
-1
  6
ByLayer
100
AcDbEntity
100
AcDbPolyline
 90
9
 70
0
 10
189.5121943021236461
 20
102.6902503309442949
 10
189.5907485793234741
 20
102.7005165269442699
 10
189.6691680679235219
 20
102.710305077144298
 10
189.7474512423235069
 20
102.7196157907444416
 10
189.8255965787234913
 20
102.728448486744341
 10
189.9036025563235057
 20
102.7368029933443125
 10
189.9814676569235985
 20
102.7446791475442609
 10
190.059190365323559
 20
102.7520767963444399
 10
190.1367691689236494
 20
102.7589957959444149
  0
LINE
  5
2C7
100
AcDbEntity
100
AcDbLine
  8
FORT
 62
256
370
-1
  6
ByLayer
 10
193.9724901729235285
 20
98.365578063144298
 30
0.0
 11
193.3456039539235576
 21
98.7274717743443802
 31
0.0
  0
LINE
  5
2C8
100
AcDbEntity
100
AcDbLine
  8
FORT
 62
256
370
-1
  6
ByLayer
 10
192.0334831759235499
 20
102.7755707759442743
 30
0.0
 11
195.4275957257235063
 21
100.8161913075443721
 31
0.0
  0
LINE
  5
2C9
100
AcDbEntity
100
AcDbLine
  8
FORT
 62
256
370
-1
  6
ByLayer
 10
191.541970365323607
 20
101.947790412144272
 30
0.0
 11
192.0334831759235499
 21
102.7755707759442743
 31
0.0
  0
LINE
  5
2CA
100
AcDbEntity
100
AcDbLine
  8
FORT
 62
256
370
-1
  6
ByLayer
 10
196.0087330993235923
 20
100.7579823053442709
 30
0.0
 11
192.6146205497234973
 21
102.7173617737444005
 31
0.0
  0
LWPOLYLINE
  5
2CB
  8
FORT
 62
256
370
-1
  6
ByLayer
100
AcDbEntity
100
AcDbPolyline
 90
9
 70
0
 10
192.0334831759235499
 20
102.7755707759442743
 10
192.1067784157235678
 20
102.769970232744285
 10
192.1798899013236337
 20
102.7638906917443222
 10
192.2528162097235622
 20
102.757332271544314
 10
192.3255559219235806
 20
102.7502950995442319
 10
192.3981076221235185
 20
102.7427793129443074
 10
192.4704698983235289
 20
102.7347850577443609
 10
192.542641342323634
 20
102.7263124897442452
 10
192.6146205497234973
 20
102.7173617737444005
  0
LINE
  5
2CC
100
AcDbEntity
100
AcDbLine
  8
FORT
 62
256
370
-1
  6
ByLayer
 10
196.106676122323563
 20
98.0799599665444788
 30
0.0
 11
195.5400303241236202
 21
98.4070776229443567
 31
0.0
  0
LINE
  5
2CD
100
AcDbEntity
100
AcDbLine
  8
FORT
 62
256
370
-1
  6
ByLayer
 10
194.3551962617235063
 20
102.3364615665443438
 30
0.0
 11
197.7493088113236013
 21
100.3770820981442142
 31
0.0
  0
LINE
  5
2CE
100
AcDbEntity
100
AcDbLine
  8
FORT
 62
256
370
-1
  6
ByLayer
 10
194.0394073115235756
 20
101.8948498837444134
 30
0.0
 11
194.3551962617235063
 21
102.3364615665443438
 31
0.0
  0
LINE
  5
2CF
100
AcDbEntity
100
AcDbLine
  8
FORT
 62
256
370
-1
  6
ByLayer
 10
198.2746289391234882
 20
100.1931586331443071
 30
0.0
 11
194.8805163893235317
 21
102.1525381015442093
 31
0.0
  0
LWPOLYLINE
  5
2D0
  8
FORT
 62
256
370
-1
  6
ByLayer
100
AcDbEntity
100
AcDbPolyline
 90
9
 70
0
 10
194.3551962617235063
 20
102.3364615665443438
 10
194.421671082923524
 20
102.315113590144378
 10
194.4879170985234964
 20
102.2932954681443647
 10
194.5539330191234626
 20
102.2710076255443568
 10
194.6197175599234583
 20
102.2482504959443617
 10
194.6852694409236051
 20
102.2250245221443805
 10
194.7505873863236161
 20
102.2013301561444081
 10
194.8156701245234785
 20
102.1771678593442942
 10
194.8805163893235317
 20
102.1525381015442093
  0
LINE
  5
2D1
100
AcDbEntity
100
AcDbLine
  8
FORT
 62
256
370
-1
  6
ByLayer
 10
198.0268200867236033
 20
97.3282011325443221
 30
0.0
 11
197.4996057249234696
 21
97.6325555053442571
 31
0.0
  0
LINE
  5
2D2
100
AcDbEntity
100
AcDbLine
  8
FORT
 62
256
370
-1
  6
ByLayer
 10
196.4278749703235576
 20
101.3822768823442715
 30
0.0
 11
199.8219875199236526
 21
99.4228974139443693
 31
0.0
  0
LINE
  5
2D3
100
AcDbEntity
100
AcDbLine
  8
FORT
 62
256
370
-1
  6
ByLayer
 10
196.3573474701234431
 20
101.2999816659444008
 30
0.0
 11
196.4278749703235576
 21
101.3822768823442715
 31
0.0
  0
LINE
  5
2D4
100
AcDbEntity
100
AcDbLine
  8
FORT
 62
256
370
-1
  6
ByLayer
 10
200.1556263101236368
 20
98.8086365115443499
 30
0.0
 11
201.6014783491235107
 21
97.9739638959442658
 31
0.0
  0
LINE
  5
2D5
100
AcDbEntity
100
AcDbLine
  8
FORT
 62
256
370
-1
  6
ByLayer
 10
201.63895321592355
 20
96.8756545595444862
 30
0.0
 11
203.0498734683235966
 21
96.0611476351443656
 31
0.0
  0
LINE
  5
2D6
100
AcDbEntity
100
AcDbLine
  8
FORT
 62
256
370
-1
  6
ByLayer
 10
202.7294180429235553
 20
94.5373828489443753
 30
0.0
 11
204.136318255923527
 21
93.7251966437442974
 31
0.0
  0
LINE
  5
2D7
100
AcDbEntity
100
AcDbLine
  8
FORT
 62
256
370
-1
  6
ByLayer
 10
203.4043181889235825
 20
91.843328385744357
 30
0.0
 11
204.8376685833234774
 21
91.0158728157443733
 31
0.0
  0
LINE
  5
2D8
100
AcDbEntity
100
AcDbLine
  8
FORT
 62
256
370
-1
  6
ByLayer
 10
203.6457503805234523
 20
88.8529171983443433
 30
0.0
 11
205.138983845923633
 21
87.9908918675443914
 31
0.0
  0
LINE
  5
2D9
100
AcDbEntity
100
AcDbLine
  8
FORT
 62
256
370
-1
  6
ByLayer
 10
203.4400751321234679
 20
85.634757738344419
 30
0.0
 11
205.0338452367234936
 21
84.7146938411444665
 31
0.0
  0
LINE
  5
2DA
100
AcDbEntity
100
AcDbLine
  8
FORT
 62
256
370
-1
  6
ByLayer
 10
202.9191672381235207
 20
82.1838049015443488
 30
0.0
 11
204.5244924843235026
 21
81.2570703629444182
 31
0.0
  0
LINE
  5
2DB
100
AcDbEntity
100
AcDbLine
  8
FORT
 62
256
370
-1
  6
ByLayer
 10
202.1429233629235682
 20
78.5454014347444485
 30
0.0
 11
203.6217761409234868
 21
77.6916778981442206
 31
0.0
  0
LINE
  5
2DC
100
AcDbEntity
100
AcDbLine
  8
FORT
 62
256
370
-1
  6
ByLayer
 10
147.6010965085236535
 20
60.0100247523443926
 30
0.0
 11
149.4536855083236446
 21
60.1625320995442365
 31
0.0
  0
LINE
  5
2DD
100
AcDbEntity
100
AcDbLine
  8
FORT
 62
256
370
-1
  6
ByLayer
 10
149.4536855083236446
 20
60.1625320995442365
 30
0.0
 11
149.9571088239236474
 21
61.0721794953444572
 31
0.0
  0
LINE
  5
2DE
100
AcDbEntity
100
AcDbLine
  8
FORT
 62
256
370
-1
  6
ByLayer
 10
149.9571088239236474
 20
61.0721794953444572
 30
0.0
 11
149.0483654523234804
 21
62.6251289495444183
 31
0.0
  0
LWPOLYLINE
  5
2DF
  8
FORT
 62
256
370
-1
  6
ByLayer
100
AcDbEntity
100
AcDbPolyline
 90
9
 70
0
 10
149.5442107579236222
 20
63.43814229734447
 10
149.4813538785236346
 20
63.3371194105443323
 10
149.4187449219235191
 20
63.2359200673442814
 10
149.3563851065235326
 20
63.1345462371443631
 10
149.2942756457235305
 20
63.0329998927443143
 10
149.2324177487235488
 20
62.9312830107444228
 10
149.1708126189235486
 20
62.8293975703443124
 10
149.1094614555234443
 20
62.7273455545443852
 10
149.0483654523234804
 20
62.6251289495444183
  0
LINE
  5
2E0
100
AcDbEntity
100
AcDbLine
  8
FORT
 62
256
370
-1
  6
ByLayer
 10
149.5442107579236222
 20
63.43814229734447
 30
0.0
 11
151.2614775741236031
 21
63.2108892757444067
 31
0.0
  0
LINE
  5
2E1
100
AcDbEntity
100
AcDbLine
  8
FORT
 62
256
370
-1
  6
ByLayer
 10
151.2614775741236031
 20
63.2108892757444067
 30
0.0
 11
151.8375709885236233
 21
64.0712727765444328
 31
0.0
  0
LINE
  5
2E2
100
AcDbEntity
100
AcDbLine
  8
FORT
 62
256
370
-1
  6
ByLayer
 10
151.8375709885236233
 20
64.0712727765444328
 30
0.0
 11
151.2003956853234854
 21
65.9116199491443098
 31
0.0
  0
LWPOLYLINE
  5
2E3
  8
FORT
 62
256
370
-1
  6
ByLayer
100
AcDbEntity
100
AcDbPolyline
 90
9
 70
0
 10
151.7573619433235876
 20
66.6709587165444049
 10
151.6870141509235168
 20
66.5768667543443229
 10
151.6168713557236174
 20
66.4825352849443192
 10
151.5469349227235512
 20
66.3879661443443041
 10
151.4772062129234769
 20
66.2931611731444121
 10
151.4076865833235956
 20
66.1981222159442808
 10
151.3383773869234687
 20
66.1028511229444433
 10
151.2692799727236093
 20
66.007349747744442
 10
151.2003956853234854
 20
65.9116199491443098
  0
LINE
  5
2E4
100
AcDbEntity
100
AcDbLine
  8
FORT
 62
256
370
-1
  6
ByLayer
 10
151.7573619433235876
 20
66.6709587165444049
 30
0.0
 11
153.3027242805235915
 21
66.0687864123444655
 31
0.0
  0
LINE
  5
2E5
100
AcDbEntity
100
AcDbLine
  8
FORT
 62
256
370
-1
  6
ByLayer
 10
153.3027242805235915
 20
66.0687864123444655
 30
0.0
 11
153.9392154903235337
 21
66.8615775891444031
 31
0.0
  0
LINE
  5
2E6
100
AcDbEntity
100
AcDbLine
  8
FORT
 62
256
370
-1
  6
ByLayer
 10
153.9392154903235337
 20
66.8615775891444031
 30
0.0
 11
153.5871817635234606
 21
68.9501182499443388
 31
0.0
  0
LWPOLYLINE
  5
2E7
  8
FORT
 62
256
370
-1
  6
ByLayer
100
AcDbEntity
100
AcDbPolyline
 90
9
 70
0
 10
154.1934041291236213
 20
69.6396065261444477
 10
154.1170640167236456
 20
69.5544498943443017
 10
154.0408816087236232
 20
69.468995806944335
 10
153.9648583879234707
 20
69.3832459271443298
 10
153.8889958337236408
 20
69.2972019237442822
 10
153.8132954225234812
 20
69.2108654713444906
 10
153.7377586275236467
 20
69.1242382499442414
 10
153.6623869189234597
 20
69.0373219457444378
 10
153.5871817635234606
 20
68.9501182499443388
  0
LINE
  5
2E8
100
AcDbEntity
100
AcDbLine
  8
FORT
 62
256
370
-1
  6
ByLayer
 10
154.1934041291236213
 20
69.6396065261444477
 30
0.0
 11
155.5339417093235284
 21
68.6753427915443666
 31
0.0
  0
LINE
  5
2E9
100
AcDbEntity
100
AcDbLine
  8
FORT
 62
256
370
-1
  6
ByLayer
 10
155.5339417093235284
 20
68.6753427915443666
 30
0.0
 11
156.2172717793235392
 21
69.3836531091444471
 31
0.0
  0
LINE
  5
2EA
100
AcDbEntity
100
AcDbLine
  8
FORT
 62
256
370
-1
  6
ByLayer
 10
156.2172717793235392
 20
69.3836531091444471
 30
0.0
 11
156.1578788721236037
 21
71.6758958543443754
 31
0.0
  0
LWPOLYLINE
  5
2EB
  8
FORT
 62
256
370
-1
  6
ByLayer
100
AcDbEntity
100
AcDbPolyline
 90
9
 70
0
 10
156.8004432161235968
 20
72.2808457271444098
 10
156.7197370285235252
 20
72.2064384859443038
 10
156.6391378933236069
 20
72.1316821773443593
 10
156.5586473791234425
 20
72.0565782561443342
 10
156.4782670521236128
 20
71.9811281839442785
 10
156.3979984771236218
 20
71.9053334293443953
 10
156.3178432157235989
 20
71.82919546734432
 10
156.2378028281235061
 20
71.7527157795443458
 10
156.1578788721236037
 20
71.6758958543443754
  0
LINE
  5
2EC
100
AcDbEntity
100
AcDbLine
  8
FORT
 62
256
370
-1
  6
ByLayer
 10
156.8004432161235968
 20
72.2808457271444098
 30
0.0
 11
157.907599066723435
 21
70.9750319135443846
 31
0.0
  0
LINE
  5
2ED
100
AcDbEntity
100
AcDbLine
  8
FORT
 62
256
370
-1
  6
ByLayer
 10
157.907599066723435
 20
70.9750319135443846
 30
0.0
 11
158.6232112709236048
 21
71.5837725011444803
 31
0.0
  0
LINE
  5
2EE
100
AcDbEntity
100
AcDbLine
  8
FORT
 62
256
370
-1
  6
ByLayer
 10
158.6232112709236048
 20
71.5837725011444803
 30
0.0
 11
158.8526632857236223
 21
73.9780743799444593
 31
0.0
  0
LINE
  5
2EF
100
AcDbEntity
100
AcDbLine
  8
FORT
 62
256
370
-1
  6
ByLayer
 10
160.0847334833236459
 20
73.4682406567442143
 30
0.0
 11
160.373131214123589
 21
72.9188643575443933
 31
0.0
  0
LINE
  5
2F0
100
AcDbEntity
100
AcDbLine
  8
FORT
 62
256
370
-1
  6
ByLayer
 10
160.373131214123589
 20
72.9188643575443933
 30
0.0
 11
160.6783282559236454
 21
73.1255656885443699
 31
0.0
  0
LINE
  5
2F1
100
AcDbEntity
100
AcDbLine
  8
FORT
 62
256
370
-1
  6
ByLayer
 10
169.5335747705235576
 20
38.9199860199444032
 30
0.0
 11
169.6018203175236181
 21
38.1991876181443644
 31
0.0
  0
LWPOLYLINE
  5
2F2
  8
FORT
 62
256
370
-1
  6
ByLayer
100
AcDbEntity
100
AcDbPolyline
 90
9
 70
0
 10
168.9759533937236142
 20
37.5497834841444131
 10
169.0546629575235897
 20
37.629836537744481
 10
169.1332395165234743
 20
37.7102134393444288
 10
169.2116815415236601
 20
37.7909126243443865
 10
169.2899875059236479
 20
37.8719325225442702
 10
169.3681558855235494
 20
37.953271557144248
 10
169.4461851593235338
 20
38.0349281451442351
 10
169.5240738085236103
 20
38.1169006971442599
 10
169.6018203175236181
 20
38.1991876181443644
  0
LINE
  5
2F3
100
AcDbEntity
100
AcDbLine
  8
FORT
 62
256
370
-1
  6
ByLayer
 10
168.9759533937236142
 20
37.5497834841444131
 30
0.0
 11
168.1179343623235241
 21
38.3434433615443453
 31
0.0
  0
LINE
  5
2F4
100
AcDbEntity
100
AcDbLine
  8
FORT
 62
256
370
-1
  6
ByLayer
 10
167.1298393607235653
 20
38.1038238141443202
 30
0.0
 11
167.0464119803235121
 21
38.025196900544401
 31
0.0
  0
LINE
  5
2F5
100
AcDbEntity
100
AcDbLine
  8
FORT
 62
256
370
-1
  6
ByLayer
 10
167.0464119803235121
 20
38.025196900544401
 30
0.0
 11
166.9601993451236126
 21
35.6500172613443596
 31
0.0
  0
LWPOLYLINE
  5
2F6
  8
FORT
 62
256
370
-1
  6
ByLayer
100
AcDbEntity
100
AcDbPolyline
 90
9
 70
0
 10
166.3046820851234884
 20
35.0917689079444557
 10
166.3869167221235443
 20
35.1602577117443929
 10
166.4690702729236023
 20
35.2291184253442538
 10
166.5511411385235192
 20
35.2983497085444782
 10
166.633127721723497
 20
35.3679502139443542
 10
166.7150284271236274
 20
35.4379185873442424
 10
166.7968416607234872
 20
35.5082534667442218
 10
166.8785658301235912
 20
35.5789534833443071
 10
166.9601993451236126
 20
35.6500172613443596
  0
LINE
  5
2F7
100
AcDbEntity
100
AcDbLine
  8
FORT
 62
256
370
-1
  6
ByLayer
 10
166.3046820851234884
 20
35.0917689079444557
 30
0.0
 11
165.3220108019234544
 21
36.5566709329443569
 31
0.0
  0
LINE
  5
2F8
100
AcDbEntity
100
AcDbLine
  8
FORT
 62
256
370
-1
  6
ByLayer
 10
165.3220108019234544
 20
36.5566709329443569
 30
0.0
 11
164.5960356737235202
 21
36.0021166497442522
 31
0.0
  0
LINE
  5
2F9
100
AcDbEntity
100
AcDbLine
  8
FORT
 62
256
370
-1
  6
ByLayer
 10
164.5960356737235202
 20
36.0021166497442522
 30
0.0
 11
164.2176089909235657
 21
33.4975058555444178
 31
0.0
  0
LWPOLYLINE
  5
2FA
  8
FORT
 62
256
370
-1
  6
ByLayer
100
AcDbEntity
100
AcDbPolyline
 90
9
 70
0
 10
163.5464056347234987
 20
33.0423054393443039
 10
163.6304135311234518
 20
33.0977710017443627
 10
163.7143939871235148
 20
33.1536486133443162
 10
163.7983453683235098
 20
33.2099371863443906
 10
163.8822660409235255
 20
33.2666356255442537
 10
163.966154371923551
 20
33.3237428273443896
 10
164.0500087283235757
 20
33.3812576805444081
 10
164.1338274783234397
 20
33.4391790657443693
 10
164.2176089909235657
 20
33.4975058555444178
  0
LINE
  5
2FB
100
AcDbEntity
100
AcDbLine
  8
FORT
 62
256
370
-1
  6
ByLayer
 10
163.5464056347234987
 20
33.0423054393443039
 30
0.0
 11
162.8303707111236349
 21
34.8046681889443192
 31
0.0
  0
LINE
  5
2FC
100
AcDbEntity
100
AcDbLine
  8
FORT
 62
256
370
-1
  6
ByLayer
 10
162.8303707111236349
 20
34.8046681889443192
 30
0.0
 11
162.0950528833234898
 21
34.3681947075444754
 31
0.0
  0
LINE
  5
2FD
100
AcDbEntity
100
AcDbLine
  8
FORT
 62
256
370
-1
  6
ByLayer
 10
162.0950528833234898
 20
34.3681947075444754
 30
0.0
 11
161.4324736357235111
 21
31.787507549144479
 31
0.0
  0
LWPOLYLINE
  5
2FE
  8
FORT
 62
256
370
-1
  6
ByLayer
100
AcDbEntity
100
AcDbPolyline
 90
9
 70
0
 10
160.759882578523559
 20
31.4450520353443466
 10
160.8438741453235821
 20
31.4863127941443821
 10
160.9278925021235978
 20
31.5280169635443457
 10
161.0119360141234779
 20
31.570163731944362
 10
161.0960030453234708
 20
31.6127522791443738
 10
161.1800919597235975
 20
31.6557817761442806
 10
161.2642011209234738
 20
31.6992513855443434
 10
161.3483288921234475
 20
31.7431602613444142
 10
161.4324736357235111
 20
31.787507549144479
  0
LINE
  5
2FF
100
AcDbEntity
100
AcDbLine
  8
FORT
 62
256
370
-1
  6
ByLayer
 10
160.759882578523559
 20
31.4450520353443466
 30
0.0
 11
160.3257374399234436
 21
33.4673325521443843
 31
0.0
  0
LINE
  5
300
100
AcDbEntity
100
AcDbLine
  8
FORT
 62
256
370
-1
  6
ByLayer
 10
160.3257374399234436
 20
33.4673325521443843
 30
0.0
 11
159.5967411143236063
 21
33.1582379047442686
 31
0.0
  0
LINE
  5
301
100
AcDbEntity
100
AcDbLine
  8
FORT
 62
256
370
-1
  6
ByLayer
 10
159.5967411143236063
 20
33.1582379047442686
 30
0.0
 11
158.6641239807234456
 21
30.5564497993443496
 31
0.0
  0
LWPOLYLINE
  5
302
  8
FORT
 62
256
370
-1
  6
ByLayer
100
AcDbEntity
100
AcDbPolyline
 90
9
 70
0
 10
158.0044731791236359
 20
30.3340343899442217
 10
158.0866591753236321
 20
30.3602113827443958
 10
158.1689256213235808
 20
30.3868537017444709
 10
158.2512709161235875
 20
30.4139608285442904
 10
158.3336934573235908
 20
30.4415322355443863
 10
158.4161916405235502
 20
30.4695673863443375
 10
158.4987638603234359
 20
30.4980657351443227
 10
158.5814085099235058
 20
30.5270267273442499
 10
158.6641239807234456
 20
30.5564497993443496
  0
LINE
  5
303
100
AcDbEntity
100
AcDbLine
  8
FORT
 62
256
370
-1
  6
ByLayer
 10
158.0044731791236359
 20
30.3340343899442217
 30
0.0
 11
157.8614662575235457
 21
32.5731527855443659
 31
0.0
  0
LINE
  5
304
100
AcDbEntity
100
AcDbLine
  8
FORT
 62
256
370
-1
  6
ByLayer
 10
157.8614662575235457
 20
32.5731527855443659
 30
0.0
 11
157.1543209713234432
 21
32.3980215001442815
 31
0.0
  0
LINE
  5
305
100
AcDbEntity
100
AcDbLine
  8
FORT
 62
256
370
-1
  6
ByLayer
 10
157.1543209713234432
 20
32.3980215001442815
 30
0.0
 11
155.9715331473235551
 21
29.8305573707443585
 31
0.0
  0
LWPOLYLINE
  5
306
  8
FORT
 62
256
370
-1
  6
ByLayer
100
AcDbEntity
100
AcDbPolyline
 90
9
 70
0
 10
155.3388748967234392
 20
29.7329200983442519
 10
155.4175045445236378
 20
29.7434556863442907
 10
155.4962665883236355
 20
29.7544686035443959
 10
155.5751594949236392
 20
29.7659586357442407
 10
155.6541817291236498
 20
29.7779255593443253
 10
155.7333317531236503
 20
29.7903691415442466
 10
155.8126080265236055
 20
29.80328913994434
 10
155.8920090063234625
 20
29.8166853033442152
 10
155.9715331473235551
 20
29.8305573707443585
  0
LINE
  5
307
100
AcDbEntity
100
AcDbLine
  8
FORT
 62
256
370
-1
  6
ByLayer
 10
155.3388748967234392
 20
29.7329200983442519
 30
0.0
 11
155.4900526153235774
 21
32.1411772677442826
 31
0.0
  0
LINE
  5
308
100
AcDbEntity
100
AcDbLine
  8
FORT
 62
256
370
-1
  6
ByLayer
 10
155.4900526153235774
 20
32.1411772677442826
 30
0.0
 11
154.819822421123547
 21
32.1037401009443641
 31
0.0
  0
LINE
  5
309
100
AcDbEntity
100
AcDbLine
  8
FORT
 62
256
370
-1
  6
ByLayer
 10
154.819822421123547
 20
32.1037401009443641
 30
0.0
 11
153.4120603949234578
 21
29.6252936793443808
 31
0.0
  0
LWPOLYLINE
  5
30A
  8
FORT
 62
256
370
-1
  6
ByLayer
100
AcDbEntity
100
AcDbPolyline
 90
9
 70
0
 10
152.8198719785235085
 20
29.6545144745443707
 10
152.8932702599234403
 20
29.6491842217444486
 10
152.9668500627236085
 20
29.6443331331442863
 10
153.040609955123557
 20
29.6399613029443429
 10
153.1145485013235543
 20
29.6360688161444017
 10
153.1886642625234458
 20
29.6326557487443409
 10
153.2629557963235243
 20
29.629722166944461
 10
153.3374216569234818
 20
29.6272681279444754
 10
153.4120603949234578
 20
29.6252936793443808
  0
LINE
  5
30B
100
AcDbEntity
100
AcDbLine
  8
FORT
 62
256
370
-1
  6
ByLayer
 10
152.8198719785235085
 20
29.6545144745443707
 30
0.0
 11
153.2620138545235591
 21
32.1806082119444312
 31
0.0
  0
LINE
  5
30C
100
AcDbEntity
100
AcDbLine
  8
FORT
 62
256
370
-1
  6
ByLayer
 10
153.2620138545235591
 20
32.1806082119444312
 30
0.0
 11
152.6429764167235703
 21
32.2816626739442967
 31
0.0
  0
LINE
  5
30D
100
AcDbEntity
100
AcDbLine
  8
FORT
 62
256
370
-1
  6
ByLayer
 10
152.6429764167235703
 20
32.2816626739442967
 30
0.0
 11
151.0402292185236206
 21
29.9450313811444033
 31
0.0
  0
LWPOLYLINE
  5
30E
  8
FORT
 62
256
370
-1
  6
ByLayer
100
AcDbEntity
100
AcDbPolyline
 90
9
 70
0
 10
150.501125805323511
 20
30.100487764144404
 10
150.5677291441234615
 20
30.0794052191442773
 10
150.6345592629234602
 20
30.0587934655443263
 10
150.701614861323435
 20
30.0386529043444028
 10
150.7688946343235443
 20
30.0189839275442267
 10
150.8363972723234951
 20
29.9997869177443448
 10
150.9041214617234914
 20
29.9810622485444895
 10
150.9720658845236017
 20
29.96281028474435
 10
151.0402292185236206
 20
29.9450313811444033
  0
LINE
  5
30F
100
AcDbEntity
100
AcDbLine
  8
FORT
 62
256
370
-1
  6
ByLayer
 10
150.501125805323511
 20
30.100487764144404
 30
0.0
 11
151.2248130553235228
 21
32.6906056359443795
 31
0.0
  0
LINE
  5
310
100
AcDbEntity
100
AcDbLine
  8
FORT
 62
256
370
-1
  6
ByLayer
 10
151.2248130553235228
 20
32.6906056359443795
 30
0.0
 11
150.6701554975234671
 21
32.9279990009442685
 31
0.0
  0
LINE
  5
311
100
AcDbEntity
100
AcDbLine
  8
FORT
 62
256
370
-1
  6
ByLayer
 10
150.6701554975234671
 20
32.9279990009442685
 30
0.0
 11
148.9065658537236345
 21
30.7829592229443136
 31
0.0
  0
LWPOLYLINE
  5
312
  8
FORT
 62
256
370
-1
  6
ByLayer
100
AcDbEntity
100
AcDbPolyline
 90
9
 70
0
 10
148.4320317631234616
 20
31.0613395641444043
 10
148.4904213331236065
 20
31.0249538407444874
 10
148.5490781109236309
 20
30.9890205067442679
 10
148.6080009549235115
 20
30.9535402613444006
 10
148.667188718523505
 20
30.9185137951442215
 10
148.7266402499236051
 20
30.8839417899443873
 10
148.7863543917235916
 20
30.8498249181443356
 10
148.8463299821235637
 20
30.8161638441442705
 10
148.9065658537236345
 20
30.7829592229443136
  0
LINE
  5
313
100
AcDbEntity
100
AcDbLine
  8
FORT
 62
256
370
-1
  6
ByLayer
 10
148.4320317631234616
 20
31.0613395641444043
 30
0.0
 11
149.421847947123581
 21
33.6603052541442906
 31
0.0
  0
LINE
  5
314
100
AcDbEntity
100
AcDbLine
  8
FORT
 62
256
370
-1
  6
ByLayer
 10
149.421847947123581
 20
33.6603052541442906
 30
0.0
 11
148.9433859329236043
 21
34.0289804197443431
 31
0.0
  0
LINE
  5
315
100
AcDbEntity
100
AcDbLine
  8
FORT
 62
256
370
-1
  6
ByLayer
 10
148.9433859329236043
 20
34.0289804197443431
 30
0.0
 11
147.0565229369236135
 21
32.1212271399442528
 31
0.0
  0
LWPOLYLINE
  5
316
  8
FORT
 62
256
370
-1
  6
ByLayer
100
AcDbEntity
100
AcDbPolyline
 90
9
 70
0
 10
146.6566669917236254
 20
32.5166012069444008
 10
146.7055989417236219
 20
32.4656874165443554
 10
146.7548328349235476
 20
32.4151979763444018
 10
146.8043677133235292
 20
32.3651338693443762
 10
146.8542026127234408
 20
32.3154960697442988
 10
146.9043365633236249
 20
32.2662855433443241
 10
146.9547685895234395
 20
32.2175032481443253
 10
147.0054977097234428
 20
32.1691501333443597
 10
147.0565229369236135
 20
32.1212271399442528
  0
LINE
  5
317
100
AcDbEntity
100
AcDbLine
  8
FORT
 62
256
370
-1
  6
ByLayer
 10
146.6566669917236254
 20
32.5166012069444008
 30
0.0
 11
147.8915264241234695
 21
35.0690499169443086
 31
0.0
  0
LINE
  5
318
100
AcDbEntity
100
AcDbLine
  8
FORT
 62
256
370
-1
  6
ByLayer
 10
147.8915264241234695
 20
35.0690499169443086
 30
0.0
 11
147.4994524515234957
 21
35.56115313354438
 31
0.0
  0
LINE
  5
319
100
AcDbEntity
100
AcDbLine
  8
FORT
 62
256
370
-1
  6
ByLayer
 10
147.4994524515234957
 20
35.56115313354438
 30
0.0
 11
145.5295112427234585
 21
33.9313265093444301
 31
0.0
  0
LWPOLYLINE
  5
31A
  8
FORT
 62
256
370
-1
  6
ByLayer
100
AcDbEntity
100
AcDbPolyline
 90
9
 70
0
 10
145.2128514253234357
 20
34.4352717955443808
 10
145.2512833761234674
 20
34.3709145355444292
 10
145.2900455735235141
 20
34.3069445473442869
 10
145.3291372631236413
 20
34.2433630755442522
 10
145.3685576841235729
 20
34.1801713579443316
 10
145.4083060693236007
 20
34.1173706241443
 10
145.4483816451234475
 20
34.0549620963442834
 10
145.4887836317234928
 20
33.9929469891442153
 10
145.5295112427234585
 20
33.9313265093444301
  0
LINE
  5
31B
100
AcDbEntity
100
AcDbLine
  8
FORT
 62
256
370
-1
  6
ByLayer
 10
145.2128514253234357
 20
34.4352717955443808
 30
0.0
 11
146.6664483557236167
 21
36.8868296615444109
 31
0.0
  0
LINE
  5
31C
100
AcDbEntity
100
AcDbLine
  8
FORT
 62
256
370
-1
  6
ByLayer
 10
146.6664483557236167
 20
36.8868296615444109
 30
0.0
 11
146.3691146305234838
 21
37.4918778375442656
 31
0.0
  0
LINE
  5
31D
100
AcDbEntity
100
AcDbLine
  8
FORT
 62
256
370
-1
  6
ByLayer
 10
146.3691146305234838
 20
37.4918778375442656
 30
0.0
 11
144.3580601329236401
 21
36.1746974585444008
 31
0.0
  0
LWPOLYLINE
  5
31E
  8
FORT
 62
256
370
-1
  6
ByLayer
100
AcDbEntity
100
AcDbPolyline
 90
9
 70
0
 10
144.1313421293235137
 20
36.7764786053444226
 10
144.1584553795235593
 20
36.7000488545443062
 10
144.1859201443235747
 20
36.6239610467443839
 10
144.2137358895234343
 20
36.5482166627443661
 10
144.2419020735235904
 20
36.4728171767444422
 10
144.2704181481236105
 20
36.3977640561442826
 10
144.2992835585235412
 20
36.3230587613443134
 10
144.3284977429235028
 20
36.2487027465442537
 10
144.3580601329236401
 20
36.1746974585444008
  0
LINE
  5
31F
100
AcDbEntity
100
AcDbLine
  8
FORT
 62
256
370
-1
  6
ByLayer
 10
144.1313421293235137
 20
36.7764786053444226
 30
0.0
 11
145.7727111237234681
 21
39.0749210031442402
 31
0.0
  0
LINE
  5
320
100
AcDbEntity
100
AcDbLine
  8
FORT
 62
256
370
-1
  6
ByLayer
 10
145.7727111237234681
 20
39.0749210031442402
 30
0.0
 11
145.5764516355234832
 21
39.7800250227444252
 31
0.0
  0
LINE
  5
321
100
AcDbEntity
100
AcDbLine
  8
FORT
 62
256
370
-1
  6
ByLayer
 10
145.5764516355234832
 20
39.7800250227444252
 30
0.0
 11
143.5671245937235767
 21
38.803550291944461
 31
0.0
  0
LWPOLYLINE
  5
322
  8
FORT
 62
256
370
-1
  6
ByLayer
100
AcDbEntity
100
AcDbPolyline
 90
9
 70
0
 10
143.4351780933234863
 20
39.4903477793443329
 10
143.4503950593235118
 20
39.4034736923442637
 10
143.4659773201236135
 20
39.3168889353444087
 10
143.4819245721235461
 20
39.2305951935443176
 10
143.4982365055234936
 20
39.1445941463443745
 10
143.5149128023236358
 20
39.0588874675442952
 10
143.5319531383234448
 20
38.9734768249443135
 10
143.5493571817235647
 20
38.8883638809443113
 10
143.5671245937235767
 20
38.803550291944461
  0
LINE
  5
323
100
AcDbEntity
100
AcDbLine
  8
FORT
 62
256
370
-1
  6
ByLayer
 10
143.4351780933234863
 20
39.4903477793443329
 30
0.0
 11
145.2293536795235127
 21
41.5867118471444286
 31
0.0
  0
LINE
  5
324
100
AcDbEntity
100
AcDbLine
  8
FORT
 62
256
370
-1
  6
ByLayer
 10
145.2293536795235127
 20
41.5867118471444286
 30
0.0
 11
145.1383492709235838
 21
42.3768511417442681
 31
0.0
  0
LINE
  5
325
100
AcDbEntity
100
AcDbLine
  8
FORT
 62
256
370
-1
  6
ByLayer
 10
145.1383492709235838
 20
42.3768511417442681
 30
0.0
 11
143.1735536307235748
 21
41.7618835365444596
 31
0.0
  0
LWPOLYLINE
  5
326
  8
FORT
 62
256
370
-1
  6
ByLayer
100
AcDbEntity
100
AcDbPolyline
 90
9
 70
0
 10
143.1391894403234915
 20
42.5190667739443455
 10
143.1421859609236549
 20
42.4235989969442784
 10
143.1455537743234459
 20
42.3283617735444153
 10
143.1492928153234629
 20
42.2333569573442986
 10
143.1534030107234798
 20
42.1385863971442944
 10
143.1578842809236107
 20
42.0440519375442676
 10
143.1627365383235997
 20
41.9497554183442247
 10
143.1679596889235313
 20
41.855698674544314
 10
143.1735536307235748
 20
41.7618835365444596
  0
LINE
  5
327
100
AcDbEntity
100
AcDbLine
  8
FORT
 62
256
370
-1
  6
ByLayer
 10
143.1391894403234915
 20
42.5190667739443455
 30
0.0
 11
145.0479509641234586
 21
44.3686944483442716
 31
0.0
  0
LINE
  5
328
100
AcDbEntity
100
AcDbLine
  8
FORT
 62
256
370
-1
  6
ByLayer
 10
145.0479509641234586
 20
44.3686944483442716
 30
0.0
 11
145.064140268323456
 21
45.2270369751442871
 31
0.0
  0
LINE
  5
329
100
AcDbEntity
100
AcDbLine
  8
FORT
 62
256
370
-1
  6
ByLayer
 10
145.064140268323456
 20
45.2270369751442871
 30
0.0
 11
143.1857313393234676
 21
44.9866769215443441
 31
0.0
  0
LWPOLYLINE
  5
32A
  8
FORT
 62
256
370
-1
  6
ByLayer
100
AcDbEntity
100
AcDbPolyline
 90
9
 70
0
 10
143.2496815067234479
 20
45.7981159161442832
 10
143.2403937479235196
 20
45.6960881637444203
 10
143.231475370923647
 20
45.594227276944352
 10
143.2229265489234535
 20
45.4925352385443915
 10
143.2147474487235854
 20
45.3910140275443013
 10
143.206938229323498
 20
45.2896656195443796
 10
143.1994990425235414
 20
45.1884919871442747
 10
143.1924300333235465
 20
45.0874950993443093
 10
143.1857313393234676
 20
44.9866769215443441
  0
LINE
  5
32B
100
AcDbEntity
100
AcDbLine
  8
FORT
 62
256
370
-1
  6
ByLayer
 10
143.2496815067234479
 20
45.7981159161442832
 30
0.0
 11
145.2323673323235766
 21
47.3616052681443165
 31
0.0
  0
LINE
  5
32C
100
AcDbEntity
100
AcDbLine
  8
FORT
 62
256
370
-1
  6
ByLayer
 10
145.2323673323235766
 20
47.3616052681443165
 30
0.0
 11
145.3554054743236179
 21
48.2698660759444778
 31
0.0
  0
LINE
  5
32D
100
AcDbEntity
100
AcDbLine
  8
FORT
 62
256
370
-1
  6
ByLayer
 10
145.3554054743236179
 20
48.2698660759444778
 30
0.0
 11
143.6033983021234803
 21
48.4092338743443946
 31
0.0
  0
LWPOLYLINE
  5
32E
  8
FORT
 62
256
370
-1
  6
ByLayer
100
AcDbEntity
100
AcDbPolyline
 90
9
 70
0
 10
143.764300520723566
 20
49.2576428437443923
 10
143.7429263365234533
 20
49.1512285749442839
 10
143.7219117537236457
 20
49.0449139295444496
 10
143.7012571815235447
 20
48.9387009765443821
 10
143.6809630219234464
 20
48.8325917831443661
 10
143.6610296697236322
 20
48.7265884141443024
 10
143.6414575129236368
 20
48.6206929329443795
 10
143.6222469325235238
 20
48.514907399944363
 10
143.6033983021234803
 20
48.4092338743443946
  0
LINE
  5
32F
100
AcDbEntity
100
AcDbLine
  8
FORT
 62
256
370
-1
  6
ByLayer
 10
143.764300520723566
 20
49.2576428437443923
 30
0.0
 11
145.7786742305234498
 21
50.5016874421444157
 31
0.0
  0
LINE
  5
330
100
AcDbEntity
100
AcDbLine
  8
FORT
 62
256
370
-1
  6
ByLayer
 10
145.7786742305234498
 20
50.5016874421444157
 30
0.0
 11
146.0059401751234986
 21
51.4405181891442993
 31
0.0
  0
LINE
  5
331
100
AcDbEntity
100
AcDbLine
  8
FORT
 62
256
370
-1
  6
ByLayer
 10
146.0059401751234986
 20
51.4405181891442993
 30
0.0
 11
144.4176571157234434
 21
51.9566449393444003
 31
0.0
  0
LWPOLYLINE
  5
332
  8
FORT
 62
256
370
-1
  6
ByLayer
100
AcDbEntity
100
AcDbPolyline
 90
9
 70
0
 10
144.67208374552348
 20
52.8239505433443668
 10
144.6390784619234751
 20
52.7154166617444702
 10
144.6064153393236325
 20
52.6069130387443096
 10
144.5740950135235039
 20
52.4984417861444257
 10
144.5421181133236246
 20
52.3900050149443217
 10
144.510485261123506
 20
52.2816048353442824
 10
144.4791970727235935
 20
52.1732433571444147
 10
144.4482541569234968
 20
52.0649226891443817
 10
144.4176571157234434
 20
51.9566449393444003
  0
LINE
  5
333
100
AcDbEntity
100
AcDbLine
  8
FORT
 62
256
370
-1
  6
ByLayer
 10
144.67208374552348
 20
52.8239505433443668
 30
0.0
 11
146.6752338867234471
 21
53.7220489691442111
 31
0.0
  0
LINE
  5
334
100
AcDbEntity
100
AcDbLine
  8
FORT
 62
256
370
-1
  6
ByLayer
 10
146.6752338867234471
 20
53.7220489691442111
 30
0.0
 11
147.0018862717234356
 21
54.6714500939444719
 31
0.0
  0
LINE
  5
335
100
AcDbEntity
100
AcDbLine
  8
FORT
 62
256
370
-1
  6
ByLayer
 10
147.0018862717234356
 20
54.6714500939444719
 30
0.0
 11
145.6111619279234333
 21
55.5533409399442775
 31
0.0
  0
LWPOLYLINE
  5
336
  8
FORT
 62
256
370
-1
  6
ByLayer
100
AcDbEntity
100
AcDbPolyline
 90
9
 70
0
 10
145.9694126341235574
 20
56.4596339925444539
 10
145.9234134803235179
 20
56.3464848261444189
 10
145.8777603535234562
 20
56.2332915751444347
 10
145.832454223323623
 20
56.1200566429442773
 10
145.7874960513234441
 20
56.0067824337443056
 10
145.7428867925235068
 20
55.8934713525443243
 10
145.6986273937234841
 20
55.7801258053443547
 10
145.6547187947235784
 20
55.6667481987444575
 10
145.6111619279234333
 20
55.5533409399442775
  0
LINE
  5
337
100
AcDbEntity
100
AcDbLine
  8
FORT
 62
256
370
-1
  6
ByLayer
 10
145.9694126341235574
 20
56.4596339925444539
 30
0.0
 11
147.9178588039235933
 21
56.9886529015443415
 31
0.0
  0
LINE
  5
338
100
AcDbEntity
100
AcDbLine
  8
FORT
 62
256
370
-1
  6
ByLayer
 10
147.9178588039235933
 20
56.9886529015443415
 30
0.0
 11
148.3378877813234453
 21
57.9281863125442982
 31
0.0
  0
LINE
  5
339
100
AcDbEntity
100
AcDbLine
  8
FORT
 62
256
370
-1
  6
ByLayer
 10
148.3378877813234453
 20
57.9281863125442982
 30
0.0
 11
147.1769349631236423
 21
59.1606561445444044
 31
0.0
  0
LWPOLYLINE
  5
33A
  8
FORT
 62
256
370
-1
  6
ByLayer
100
AcDbEntity
100
AcDbPolyline
 90
9
 70
0
 10
147.6010965085236535
 20
60.0100247523443926
 10
147.5470695587235355
 20
59.9042229939443445
 10
147.4933281759236365
 20
59.7983115885442515
 10
147.4398734059234926
 20
59.6922925977444123
 10
147.3867062891236515
 20
59.586168084344294
 10
147.3338278601234492
 20
59.4799401141442416
 10
147.2812391481234613
 20
59.3736107541442237
 10
147.2289411765235059
 20
59.2671820737443653
 10
147.1769349631236423
 20
59.1606561445444044
  0
LINE
  5
33B
100
AcDbEntity
100
AcDbLine
  8
FORT
 62
256
370
-1
  6
ByLayer
 10
149.5442107579236222
 20
63.43814229734447
 30
0.0
 11
146.7157836331235217
 21
65.0709585209444725
 31
0.0
  0
LINE
  5
33C
100
AcDbEntity
100
AcDbLine
  8
FORT
 62
256
370
-1
  6
ByLayer
 10
146.2199383277234688
 20
64.2579451731444209
 30
0.0
 11
149.0483654523234804
 21
62.6251289495444183
 31
0.0
  0
LWPOLYLINE
  5
33D
  8
FORT
 62
256
370
-1
  6
ByLayer
100
AcDbEntity
100
AcDbPolyline
 90
9
 70
0
 10
146.7157836331235217
 20
65.0709585209444725
 10
146.652926753923623
 20
64.9699356341443348
 10
146.590317797123646
 20
64.868736290944284
 10
146.5279579817236595
 20
64.7673624607443656
 10
146.4658485211235188
 20
64.6658161163443168
 10
146.4039906239234483
 20
64.5640992343444253
 10
146.3423854941234481
 20
64.4622137939443149
 10
146.2810343307235712
 20
64.3601617781443878
 10
146.2199383277234688
 20
64.2579451731444209
  0
LINE
  5
33E
100
AcDbEntity
100
AcDbLine
  8
FORT
 62
256
370
-1
  6
ByLayer
 10
147.6010965085236535
 20
60.0100247523443926
 30
0.0
 11
144.772669383723553
 21
61.6428409759443952
 31
0.0
  0
LINE
  5
33F
100
AcDbEntity
100
AcDbLine
  8
FORT
 62
256
370
-1
  6
ByLayer
 10
144.3485078385236307
 20
60.7934723681444069
 30
0.0
 11
147.1769349631236423
 21
59.1606561445444044
 31
0.0
  0
LWPOLYLINE
  5
340
  8
FORT
 62
256
370
-1
  6
ByLayer
100
AcDbEntity
100
AcDbPolyline
 90
9
 70
0
 10
144.772669383723553
 20
61.6428409759443952
 10
144.7186424341235238
 20
61.537039217544347
 10
144.6649010513236249
 20
61.4311278123443429
 10
144.6114462813234809
 20
61.3251088213444149
 10
144.5582791645236398
 20
61.2189843081443854
 10
144.5054007355234376
 20
61.1127563377442442
 10
144.4528120235234496
 20
61.0064269777442263
 10
144.4005140519234942
 20
60.8999982975444567
 10
144.3485078385236307
 20
60.7934723681444069
  0
LINE
  5
341
100
AcDbEntity
100
AcDbLine
  8
FORT
 62
256
370
-1
  6
ByLayer
 10
147.1286816991235469
 20
62.7049957191443212
 30
0.0
 11
149.9571088239236474
 21
61.0721794953444572
 31
0.0
  0
LINE
  5
342
100
AcDbEntity
100
AcDbLine
  8
FORT
 62
256
370
-1
  6
ByLayer
 10
147.1286816991235469
 20
62.7049957191443212
 30
0.0
 11
146.2199383277234688
 21
64.2579451731444209
 31
0.0
  0
LINE
  5
343
100
AcDbEntity
100
AcDbLine
  8
FORT
 62
256
370
-1
  6
ByLayer
 10
148.4330504493235026
 20
64.8437054993444093
 30
0.0
 11
151.2614775741236031
 21
63.2108892757444067
 31
0.0
  0
LINE
  5
344
100
AcDbEntity
100
AcDbLine
  8
FORT
 62
256
370
-1
  6
ByLayer
 10
146.7157836331235217
 20
65.0709585209444725
 30
0.0
 11
148.4330504493235026
 21
64.8437054993444093
 31
0.0
  0
LINE
  5
345
100
AcDbEntity
100
AcDbLine
  8
FORT
 62
256
370
-1
  6
ByLayer
 10
146.6252583835235441
 20
61.7953483233443279
 30
0.0
 11
149.4536855083236446
 21
60.1625320995442365
 31
0.0
  0
LINE
  5
346
100
AcDbEntity
100
AcDbLine
  8
FORT
 62
256
370
-1
  6
ByLayer
 10
144.772669383723553
 20
61.6428409759443952
 30
0.0
 11
146.6252583835235441
 21
61.7953483233443279
 31
0.0
  0
LINE
  5
347
100
AcDbEntity
100
AcDbLine
  8
FORT
 62
256
370
-1
  6
ByLayer
 10
151.7573619433235876
 20
66.6709587165444049
 30
0.0
 11
148.9761790793234582
 21
68.276501408944327
 31
0.0
  0
LINE
  5
348
100
AcDbEntity
100
AcDbLine
  8
FORT
 62
256
370
-1
  6
ByLayer
 10
148.3719685605236123
 20
67.5444361729444012
 30
0.0
 11
151.2003956853234854
 21
65.9116199491443098
 31
0.0
  0
LWPOLYLINE
  5
349
  8
FORT
 62
256
370
-1
  6
ByLayer
100
AcDbEntity
100
AcDbPolyline
 90
8
 70
0
 10
148.8571916565236393
 20
68.2078114319444779
 10
148.7884442309235169
 20
68.1153515085443217
 10
148.7185077979234507
 20
68.0207823681443955
 10
148.6487790881236037
 20
67.9259773967444147
 10
148.5792594585234951
 20
67.8309384397443722
 10
148.5099502621235956
 20
67.7356673465444459
 10
148.4408528479235088
 20
67.6401659713444445
 10
148.3719685605236123
 20
67.5444361729444012
  0
LINE
  5
34A
100
AcDbEntity
100
AcDbLine
  8
FORT
 62
256
370
-1
  6
ByLayer
 10
145.5094606565235722
 20
59.5610025361443007
 30
0.0
 11
148.3378877813234453
 21
57.9281863125442982
 31
0.0
  0
LINE
  5
34B
100
AcDbEntity
100
AcDbLine
  8
FORT
 62
256
370
-1
  6
ByLayer
 10
145.5094606565235722
 20
59.5610025361443007
 30
0.0
 11
144.3485078385236307
 21
60.7934723681444069
 31
0.0
  0
LINE
  5
34C
100
AcDbEntity
100
AcDbLine
  8
FORT
 62
256
370
-1
  6
ByLayer
 10
149.0091438639236117
 20
65.7040890003442968
 30
0.0
 11
151.8375709885236233
 21
64.0712727765444328
 31
0.0
  0
LINE
  5
34D
100
AcDbEntity
100
AcDbLine
  8
FORT
 62
256
370
-1
  6
ByLayer
 10
149.0091438639236117
 20
65.7040890003442968
 30
0.0
 11
148.3719685605236123
 21
67.5444361729444012
 31
0.0
  0
LINE
  5
34E
100
AcDbEntity
100
AcDbLine
  8
FORT
 62
256
370
-1
  6
ByLayer
 10
145.9694126341235574
 20
56.4596339925444539
 30
0.0
 11
143.1409855093234569
 21
58.0924502161444565
 31
0.0
  0
LINE
  5
34F
100
AcDbEntity
100
AcDbLine
  8
FORT
 62
256
370
-1
  6
ByLayer
 10
145.0894316791234928
 20
58.6214691253444329
 30
0.0
 11
147.9178588039235933
 21
56.9886529015443415
 31
0.0
  0
LINE
  5
350
100
AcDbEntity
100
AcDbLine
  8
FORT
 62
256
370
-1
  6
ByLayer
 10
143.1409855093234569
 20
58.0924502161444565
 30
0.0
 11
145.0894316791234928
 21
58.6214691253444329
 31
0.0
  0
LINE
  5
351
100
AcDbEntity
100
AcDbLine
  8
FORT
 62
256
370
-1
  6
ByLayer
 10
150.4742971559235798
 20
67.701602635944468
 30
0.0
 11
153.3027242805235915
 21
66.0687864123444655
 31
0.0
  0
LINE
  5
352
100
AcDbEntity
100
AcDbLine
  8
FORT
 62
256
370
-1
  6
ByLayer
 10
148.9853461711234672
 20
68.2817934583442678
 30
0.0
 11
150.4742971559235798
 21
67.701602635944468
 31
0.0
  0
LINE
  5
353
100
AcDbEntity
100
AcDbLine
  8
FORT
 62
256
370
-1
  6
ByLayer
 10
142.7827348031235601
 20
57.18615716354428
 30
0.0
 11
145.6111619279234333
 21
55.5533409399442775
 31
0.0
  0
LWPOLYLINE
  5
354
  8
FORT
 62
256
370
-1
  6
ByLayer
100
AcDbEntity
100
AcDbPolyline
 90
9
 70
0
 10
143.1409855093234569
 20
58.0924502161444565
 10
143.0949863555236448
 20
57.9793010497444214
 10
143.049333228723583
 20
57.8661077987442098
 10
143.0040270985235225
 20
57.7528728665442799
 10
142.9590689267236598
 20
57.6395986573443082
 10
142.9144596677236336
 20
57.5262875761443269
 10
142.870200268923611
 20
57.4129420289443573
 10
142.8262916699234779
 20
57.29956442234446
 10
142.7827348031235601
 20
57.18615716354428
  0
LINE
  5
355
100
AcDbEntity
100
AcDbLine
  8
FORT
 62
256
370
-1
  6
ByLayer
 10
144.1734591469235625
 20
56.3042663175444744
 30
0.0
 11
147.0018862717234356
 21
54.6714500939444719
 31
0.0
  0
LINE
  5
356
100
AcDbEntity
100
AcDbLine
  8
FORT
 62
256
370
-1
  6
ByLayer
 10
144.1734591469235625
 20
56.3042663175444744
 30
0.0
 11
142.7827348031235601
 21
57.18615716354428
 31
0.0
  0
LINE
  5
357
100
AcDbEntity
100
AcDbLine
  8
FORT
 62
256
370
-1
  6
ByLayer
 10
154.1934041291236213
 20
69.6396065261444477
 30
0.0
 11
152.7654031853235779
 21
70.4639739237443194
 31
0.0
  0
LINE
  5
358
100
AcDbEntity
100
AcDbLine
  8
FORT
 62
256
370
-1
  6
ByLayer
 10
151.8651129343234629
 20
69.9442474245442867
 30
0.0
 11
153.5871817635234606
 21
68.9501182499443388
 31
0.0
  0
LINE
  5
359
100
AcDbEntity
100
AcDbLine
  8
FORT
 62
256
370
-1
  6
ByLayer
 10
151.110788365723522
 20
68.4943938129442671
 30
0.0
 11
153.9392154903235337
 21
66.8615775891444031
 31
0.0
  0
LINE
  5
35A
100
AcDbEntity
100
AcDbLine
  8
FORT
 62
256
370
-1
  6
ByLayer
 10
151.110788365723522
 20
68.4943938129442671
 30
0.0
 11
150.9549696455235903
 21
69.418832887744415
 31
0.0
  0
LINE
  5
35B
100
AcDbEntity
100
AcDbLine
  8
FORT
 62
256
370
-1
  6
ByLayer
 10
144.67208374552348
 20
52.8239505433443668
 30
0.0
 11
141.8436566207236069
 21
54.4567667669443694
 31
0.0
  0
LINE
  5
35C
100
AcDbEntity
100
AcDbLine
  8
FORT
 62
256
370
-1
  6
ByLayer
 10
143.846806761923574
 20
55.3548651927442137
 30
0.0
 11
146.6752338867234471
 21
53.7220489691442111
 31
0.0
  0
LINE
  5
35D
100
AcDbEntity
100
AcDbLine
  8
FORT
 62
256
370
-1
  6
ByLayer
 10
141.8436566207236069
 20
54.4567667669443694
 30
0.0
 11
143.846806761923574
 21
55.3548651927442137
 31
0.0
  0
LINE
  5
35E
100
AcDbEntity
100
AcDbLine
  8
FORT
 62
256
370
-1
  6
ByLayer
 10
141.5892299911236591
 20
53.5894611629444029
 30
0.0
 11
144.4176571157234434
 21
51.9566449393444003
 31
0.0
  0
LWPOLYLINE
  5
35F
  8
FORT
 62
256
370
-1
  6
ByLayer
100
AcDbEntity
100
AcDbPolyline
 90
9
 70
0
 10
141.8436566207236069
 20
54.4567667669443694
 10
141.8106513371236019
 20
54.3482328853444727
 10
141.777988214523532
 20
54.239729262544401
 10
141.7456678887236308
 20
54.1312580099442897
 10
141.7136909885235241
 20
54.0228212385443243
 10
141.6820581365234943
 20
53.9144210589442849
 10
141.650769947923493
 20
53.8060595807444173
 10
141.6198270321236237
 20
53.6977389127443843
 10
141.5892299911236591
 20
53.5894611629444029
  0
LINE
  5
360
100
AcDbEntity
100
AcDbLine
  8
FORT
 62
256
370
-1
  6
ByLayer
 10
146.6252583835235441
 20
61.7953483233443279
 30
0.0
 11
147.1286816991235469
 21
62.7049957191443212
 31
0.0
  0
LINE
  5
361
100
AcDbEntity
100
AcDbLine
  8
FORT
 62
256
370
-1
  6
ByLayer
 10
148.4330504493235026
 20
64.8437054993444093
 30
0.0
 11
149.0091438639236117
 21
65.7040890003442968
 31
0.0
  0
LINE
  5
362
100
AcDbEntity
100
AcDbLine
  8
FORT
 62
256
370
-1
  6
ByLayer
 10
156.8004432161235968
 20
72.2808457271444098
 30
0.0
 11
156.3565508437234826
 21
72.5370993391443193
 31
0.0
  0
LINE
  5
363
100
AcDbEntity
100
AcDbLine
  8
FORT
 62
256
370
-1
  6
ByLayer
 10
155.5113099419234572
 20
72.049152152944302
 30
0.0
 11
156.1578788721236037
 21
71.6758958543443754
 31
0.0
  0
LINE
  5
364
100
AcDbEntity
100
AcDbLine
  8
FORT
 62
256
370
-1
  6
ByLayer
 10
153.5556508291236355
 20
70.920174177944304
 30
0.0
 11
156.2172717793235392
 21
69.3836531091444471
 31
0.0
  0
LINE
  5
365
100
AcDbEntity
100
AcDbLine
  8
FORT
 62
256
370
-1
  6
ByLayer
 10
145.0894316791234928
 20
58.6214691253444329
 30
0.0
 11
145.5094606565235722
 21
59.5610025361443007
 31
0.0
  0
LINE
  5
366
100
AcDbEntity
100
AcDbLine
  8
FORT
 62
256
370
-1
  6
ByLayer
 10
150.4742971559235798
 20
67.701602635944468
 30
0.0
 11
151.110788365723522
 21
68.4943938129442671
 31
0.0
  0
LINE
  5
367
100
AcDbEntity
100
AcDbLine
  8
FORT
 62
256
370
-1
  6
ByLayer
 10
143.764300520723566
 20
49.2576428437443923
 30
0.0
 11
140.9358733959234655
 21
50.8904590675444837
 31
0.0
  0
LINE
  5
368
100
AcDbEntity
100
AcDbLine
  8
FORT
 62
256
370
-1
  6
ByLayer
 10
142.9502471059234381
 20
52.1345036657444183
 30
0.0
 11
145.7786742305234498
 21
50.5016874421444157
 31
0.0
  0
LINE
  5
369
100
AcDbEntity
100
AcDbLine
  8
FORT
 62
256
370
-1
  6
ByLayer
 10
140.9358733959234655
 20
50.8904590675444837
 30
0.0
 11
142.9502471059234381
 21
52.1345036657444183
 31
0.0
  0
LINE
  5
36A
100
AcDbEntity
100
AcDbLine
  8
FORT
 62
256
370
-1
  6
ByLayer
 10
140.7749711775234687
 20
50.0420500979443972
 30
0.0
 11
143.6033983021234803
 21
48.4092338743443946
 31
0.0
  0
LWPOLYLINE
  5
36B
  8
FORT
 62
256
370
-1
  6
ByLayer
100
AcDbEntity
100
AcDbPolyline
 90
9
 70
0
 10
140.9358733959234655
 20
50.8904590675444837
 10
140.9144992117235802
 20
50.7840447987443753
 10
140.8934846289235452
 20
50.6777301531444522
 10
140.8728300567234442
 20
50.5715172001443847
 10
140.8525358971235732
 20
50.4654080067443687
 10
140.8326025449235317
 20
50.3594046379443938
 10
140.8130303881235363
 20
50.2535091565443821
 10
140.7938198077236507
 20
50.1477236237444544
 10
140.7749711775234687
 20
50.0420500979443972
  0
LINE
  5
36C
100
AcDbEntity
100
AcDbLine
  8
FORT
 62
256
370
-1
  6
ByLayer
 10
143.846806761923574
 20
55.3548651927442137
 30
0.0
 11
144.1734591469235625
 21
56.3042663175444744
 31
0.0
  0
LINE
  5
36D
100
AcDbEntity
100
AcDbLine
  8
FORT
 62
256
370
-1
  6
ByLayer
 10
152.8234862231234388
 20
70.4304432997443968
 30
0.0
 11
152.9695036103235566
 21
70.5817985911444197
 31
0.0
  0
LINE
  5
36E
100
AcDbEntity
100
AcDbLine
  8
FORT
 62
256
370
-1
  6
ByLayer
 10
156.6641863317234424
 20
72.7146935261443872
 30
0.0
 11
158.6232112709236048
 21
71.5837725011444803
 31
0.0
  0
LINE
  5
36F
100
AcDbEntity
100
AcDbLine
  8
FORT
 62
256
370
-1
  6
ByLayer
 10
142.9502471059234381
 20
52.1345036657444183
 30
0.0
 11
143.09239264312356
 21
52.7217038347443889
 31
0.0
  0
LINE
  5
370
100
AcDbEntity
100
AcDbLine
  8
FORT
 62
256
370
-1
  6
ByLayer
 10
143.2496815067234479
 20
45.7981159161442832
 30
0.0
 11
140.4212543819235748
 21
47.4309321399443746
 31
0.0
  0
LINE
  5
371
100
AcDbEntity
100
AcDbLine
  8
FORT
 62
256
370
-1
  6
ByLayer
 10
142.4039402075234761
 20
48.9944214919444079
 30
0.0
 11
145.2323673323235766
 21
47.3616052681443165
 31
0.0
  0
LINE
  5
372
100
AcDbEntity
100
AcDbLine
  8
FORT
 62
256
370
-1
  6
ByLayer
 10
140.4212543819235748
 20
47.4309321399443746
 30
0.0
 11
142.4039402075234761
 21
48.9944214919444079
 31
0.0
  0
LINE
  5
373
100
AcDbEntity
100
AcDbLine
  8
FORT
 62
256
370
-1
  6
ByLayer
 10
140.3573042145235945
 20
46.6194931451443466
 30
0.0
 11
143.1857313393234676
 21
44.9866769215443441
 31
0.0
  0
LWPOLYLINE
  5
374
  8
FORT
 62
256
370
-1
  6
ByLayer
100
AcDbEntity
100
AcDbPolyline
 90
9
 70
0
 10
140.4212543819235748
 20
47.4309321399443746
 10
140.4119666231236465
 20
47.3289043873444228
 10
140.4030482461235465
 20
47.2270435005443545
 10
140.3944994243234419
 20
47.1253514621443941
 10
140.3863203239234849
 20
47.0238302511443038
 10
140.3785111045236249
 20
46.9224818433442437
 10
140.3710719177234409
 20
46.8213082109443661
 10
140.364002908523446
 20
46.7203113229443119
 10
140.3573042145235945
 20
46.6194931451443466
  0
LINE
  5
375
100
AcDbEntity
100
AcDbLine
  8
FORT
 62
256
370
-1
  6
ByLayer
 10
142.4039402075234761
 20
48.9944214919444079
 30
0.0
 11
142.4174144713236387
 21
49.0938877667442597
 31
0.0
  0
LINE
  5
376
100
AcDbEntity
100
AcDbLine
  8
FORT
 62
256
370
-1
  6
ByLayer
 10
143.1391894403234915
 20
42.5190667739443455
 30
0.0
 11
140.3107623157234798
 21
44.1518829975443481
 31
0.0
  0
LINE
  5
377
100
AcDbEntity
100
AcDbLine
  8
FORT
 62
256
370
-1
  6
ByLayer
 10
143.8338077861236002
 20
45.0696043859443165
 30
0.0
 11
145.0479509641234586
 21
44.3686944483442716
 31
0.0
  0
LINE
  5
378
100
AcDbEntity
100
AcDbLine
  8
FORT
 62
256
370
-1
  6
ByLayer
 10
140.3107623157234798
 20
44.1518829975443481
 30
0.0
 11
141.9239461257234893
 21
45.7150900205444799
 31
0.0
  0
LINE
  5
379
100
AcDbEntity
100
AcDbLine
  8
FORT
 62
256
370
-1
  6
ByLayer
 10
140.3451265059234743
 20
43.3946997601444622
 30
0.0
 11
143.1735536307235748
 21
41.7618835365444596
 31
0.0
  0
LWPOLYLINE
  5
37A
  8
FORT
 62
256
370
-1
  6
ByLayer
100
AcDbEntity
100
AcDbPolyline
 90
9
 70
0
 10
140.3107623157234798
 20
44.1518829975443481
 10
140.3137588361235544
 20
44.0564152205442809
 10
140.3171266497234342
 20
43.9611779971444179
 10
140.3208656905235898
 20
43.8661731809443012
 10
140.3249758859236067
 20
43.771402620744297
 10
140.3294571561235102
 20
43.676868161344359
 10
140.3343094135234992
 20
43.5825716419442273
 10
140.3395325641236582
 20
43.4885148981443166
 10
140.3451265059234743
 20
43.3946997601444622
  0
LINE
  5
37B
100
AcDbEntity
100
AcDbLine
  8
FORT
 62
256
370
-1
  6
ByLayer
 10
143.4351780933234863
 20
39.4903477793443329
 30
0.0
 11
140.6067509685236132
 21
41.1231640031444243
 31
0.0
  0
LINE
  5
37C
100
AcDbEntity
100
AcDbLine
  8
FORT
 62
256
370
-1
  6
ByLayer
 10
144.3098426869235595
 20
42.1175342441442666
 30
0.0
 11
145.2293536795235127
 21
41.5867118471444286
 31
0.0
  0
LINE
  5
37D
100
AcDbEntity
100
AcDbLine
  8
FORT
 62
256
370
-1
  6
ByLayer
 10
140.6067509685236132
 20
41.1231640031444243
 30
0.0
 11
141.8214411845236214
 21
42.5424414371443476
 31
0.0
  0
LINE
  5
37E
100
AcDbEntity
100
AcDbLine
  8
FORT
 62
256
370
-1
  6
ByLayer
 10
140.738697469123565
 20
40.4363665155444636
 30
0.0
 11
143.5671245937235767
 21
38.803550291944461
 31
0.0
  0
LWPOLYLINE
  5
37F
  8
FORT
 62
256
370
-1
  6
ByLayer
100
AcDbEntity
100
AcDbPolyline
 90
9
 70
0
 10
140.6067509685236132
 20
41.1231640031444243
 10
140.6219679345236386
 20
41.0362899159442662
 10
140.637550195323513
 20
40.9497051589444112
 10
140.6534974475235344
 20
40.8634114171443201
 10
140.6698093807236205
 20
40.7774103699443771
 10
140.6864856775235353
 20
40.6917036911442977
 10
140.7035260135235717
 20
40.6062930485443161
 10
140.7209300569234642
 20
40.5211801045443138
 10
140.738697469123565
 20
40.4363665155444636
  0
LINE
  5
380
100
AcDbEntity
100
AcDbLine
  8
FORT
 62
256
370
-1
  6
ByLayer
 10
144.1313421293235137
 20
36.7764786053444226
 30
0.0
 11
141.3029150045236406
 21
38.4092948289444251
 31
0.0
  0
LINE
  5
381
100
AcDbEntity
100
AcDbLine
  8
FORT
 62
256
370
-1
  6
ByLayer
 10
145.0198553853236376
 20
39.5095353699443734
 30
0.0
 11
145.7727111237234681
 21
39.0749210031442402
 31
0.0
  0
LINE
  5
382
100
AcDbEntity
100
AcDbLine
  8
FORT
 62
256
370
-1
  6
ByLayer
 10
141.3029150045236406
 20
38.4092948289444251
 30
0.0
 11
142.1632249277234337
 21
39.614004318144211
 31
0.0
  0
LINE
  5
383
100
AcDbEntity
100
AcDbLine
  8
FORT
 62
256
370
-1
  6
ByLayer
 10
141.5296330081235396
 20
37.8075136823442648
 30
0.0
 11
144.3580601329236401
 21
36.1746974585444008
 31
0.0
  0
LWPOLYLINE
  5
384
  8
FORT
 62
256
370
-1
  6
ByLayer
100
AcDbEntity
100
AcDbPolyline
 90
9
 70
0
 10
141.3029150045236406
 20
38.4092948289444251
 10
141.3300282547234588
 20
38.3328650781443088
 10
141.3574930195234742
 20
38.2567772703443865
 10
141.3853087647235611
 20
38.1810328863443686
 10
141.4134749487234899
 20
38.1056334003444448
 10
141.44199102332351
 20
38.0305802797442851
 10
141.4708564339235295
 20
37.955874984944316
 10
141.5000706183234911
 20
37.8815189701442563
 10
141.5296330081235396
 20
37.8075136823442648
  0
LINE
  5
385
100
AcDbEntity
100
AcDbLine
  8
FORT
 62
256
370
-1
  6
ByLayer
 10
146.0174016217236499
 20
37.2615163657444413
 30
0.0
 11
146.6664483557236167
 21
36.8868296615444109
 31
0.0
  0
LINE
  5
386
100
AcDbEntity
100
AcDbLine
  8
FORT
 62
256
370
-1
  6
ByLayer
 10
145.2128514253234357
 20
34.4352717955443808
 30
0.0
 11
142.3844243005235626
 21
36.0680880191443833
 31
0.0
  0
LINE
  5
387
100
AcDbEntity
100
AcDbLine
  8
FORT
 62
256
370
-1
  6
ByLayer
 10
142.3844243005235626
 20
36.0680880191443833
 30
0.0
 11
142.9348027277235929
 21
36.9963264697444032
 31
0.0
  0
LINE
  5
388
100
AcDbEntity
100
AcDbLine
  8
FORT
 62
256
370
-1
  6
ByLayer
 10
142.7010841181234468
 20
35.5641427331442941
 30
0.0
 11
145.5295112427234585
 21
33.9313265093444301
 31
0.0
  0
LWPOLYLINE
  5
389
  8
FORT
 62
256
370
-1
  6
ByLayer
100
AcDbEntity
100
AcDbPolyline
 90
9
 70
0
 10
142.3844243005235626
 20
36.0680880191443833
 10
142.4228562513235943
 20
36.0037307591444318
 10
142.461618448723641
 20
35.9397607709442894
 10
142.5007101383235408
 20
35.8761792991442547
 10
142.5401305593234724
 20
35.8129875815443341
 10
142.5798789445235002
 20
35.7501868477443026
 10
142.6199545205234358
 20
35.687778319944286
 10
142.6603565069236197
 20
35.6257632127442179
 10
142.7010841181234468
 20
35.5641427331442941
  0
LINE
  5
38A
100
AcDbEntity
100
AcDbLine
  8
FORT
 62
256
370
-1
  6
ByLayer
 10
147.3102476947236141
 20
35.4046149847442706
 30
0.0
 11
147.8915264241234695
 21
35.0690499169443086
 31
0.0
  0
LINE
  5
38B
100
AcDbEntity
100
AcDbLine
  8
FORT
 62
256
370
-1
  6
ByLayer
 10
146.6566669917236254
 20
32.5166012069444008
 30
0.0
 11
143.8282398669235249
 21
34.1494174305444034
 31
0.0
  0
LINE
  5
38C
100
AcDbEntity
100
AcDbLine
  8
FORT
 62
256
370
-1
  6
ByLayer
 10
143.8282398669235249
 20
34.1494174305444034
 30
0.0
 11
144.1171772159235047
 21
34.7466495885444004
 31
0.0
  0
LINE
  5
38D
100
AcDbEntity
100
AcDbLine
  8
FORT
 62
256
370
-1
  6
ByLayer
 10
144.228095812123513
 20
33.7540433635442554
 30
0.0
 11
147.0565229369236135
 21
32.1212271399442528
 31
0.0
  0
LWPOLYLINE
  5
38E
  8
FORT
 62
256
370
-1
  6
ByLayer
100
AcDbEntity
100
AcDbPolyline
 90
9
 70
0
 10
143.8282398669235249
 20
34.1494174305444034
 10
143.8771718169235214
 20
34.098503640144358
 10
143.9264057101234471
 20
34.0480142001442658
 10
143.9759405885236561
 20
33.9979500929443788
 10
144.0257754879235677
 20
33.9483122933443013
 10
144.0759094385235244
 20
33.8991017669443266
 10
144.1263414647235663
 20
33.8503194717443279
 10
144.1770705851236585
 20
33.8019663569443622
 10
144.228095812123513
 20
33.7540433635442554
  0
LINE
  5
38F
100
AcDbEntity
100
AcDbLine
  8
FORT
 62
256
370
-1
  6
ByLayer
 10
148.8851718165236093
 20
33.9701217895442227
 30
0.0
 11
149.421847947123581
 21
33.6603052541442906
 31
0.0
  0
LINE
  5
390
100
AcDbEntity
100
AcDbLine
  8
FORT
 62
256
370
-1
  6
ByLayer
 10
148.4320317631234616
 20
31.0613395641444043
 30
0.0
 11
145.6036046383235885
 21
32.6941557879442684
 31
0.0
  0
LINE
  5
391
100
AcDbEntity
100
AcDbLine
  8
FORT
 62
256
370
-1
  6
ByLayer
 10
145.6036046383235885
 20
32.6941557879442684
 30
0.0
 11
145.6865967723236395
 21
32.9120686811443051
 31
0.0
  0
LWPOLYLINE
  5
392
  8
FORT
 62
256
370
-1
  6
ByLayer
100
AcDbEntity
100
AcDbPolyline
 90
6
 70
0
 10
145.6036046383235885
 20
32.6941557879442684
 10
145.661994208323506
 20
32.6577700645443514
 10
145.7206509861235304
 20
32.6218367303442704
 10
145.7795738303234998
 20
32.5863564849444032
 10
145.8387615939234934
 20
32.551330018744224
 10
145.8931074561235732
 20
32.5197032249443367
  0
LINE
  5
393
100
AcDbEntity
100
AcDbLine
  8
FORT
 62
256
370
-1
  6
ByLayer
 10
150.501125805323511
 20
30.100487764144404
 30
0.0
 11
149.0392883755235403
 21
30.9443885493444526
 31
0.0
  0
LINE
  5
394
100
AcDbEntity
100
AcDbLine
  8
FORT
 62
256
370
-1
  6
ByLayer
 10
152.8198719785235085
 20
29.6545144745443707
 30
0.0
 11
151.4022853149236312
 21
30.4728698361443406
 31
0.0
  0
LINE
  5
395
100
AcDbEntity
100
AcDbLine
  8
FORT
 62
256
370
-1
  6
ByLayer
 10
155.3388748967234392
 20
29.7329200983442519
 30
0.0
 11
153.9338881829235675
 21
30.544001663944286
 31
0.0
  0
LINE
  5
396
100
AcDbEntity
100
AcDbLine
  8
FORT
 62
256
370
-1
  6
ByLayer
 10
158.0044731791236359
 20
30.3340343899442217
 30
0.0
 11
156.5818252625236369
 21
31.1553115509443472
 31
0.0
  0
LINE
  5
397
100
AcDbEntity
100
AcDbLine
  8
FORT
 62
256
370
-1
  6
ByLayer
 10
160.759882578523559
 20
31.4450520353443466
 30
0.0
 11
159.287355764523511
 21
32.2951236707442462
 31
0.0
  0
LINE
  5
398
100
AcDbEntity
100
AcDbLine
  8
FORT
 62
256
370
-1
  6
ByLayer
 10
163.5464056347234987
 20
33.0423054393443039
 30
0.0
 11
161.985925092523587
 21
33.9431516813444745
 31
0.0
  0
LINE
  5
399
100
AcDbEntity
100
AcDbLine
  8
FORT
 62
256
370
-1
  6
ByLayer
 10
166.3046820851234884
 20
35.0917689079444557
 30
0.0
 11
164.652727402923631
 21
36.0454220469443811
 31
0.0
  0
LINE
  5
39A
100
AcDbEntity
100
AcDbLine
  8
FORT
 62
256
370
-1
  6
ByLayer
 10
168.9759533937236142
 20
37.5497834841444131
 30
0.0
 11
167.7734117771236129
 21
38.2439959827442948
 31
0.0
  0
LINE
  5
39B
100
AcDbEntity
100
AcDbLine
  8
FORT
 62
256
370
-1
  6
ByLayer
 10
179.5567731845235926
 20
99.4896198779444916
 30
0.0
 11
179.23162540552363
 21
99.3385975655444184
 31
0.0
  0
LINE
  5
39C
100
AcDbEntity
100
AcDbLine
  8
FORT
 62
256
370
-1
  6
ByLayer
 10
179.5778177021234683
 20
99.5557587849443593
 30
0.0
 11
179.5567731845235926
 21
99.4896198779444916
 31
0.0
  0
ARC
  5
39D
100
AcDbEntity
  8
FORT
 62
256
370
-1
  6
ByLayer
100
AcDbCircle
 10
185.3677305687236299
 20
87.6670203693442858
 30
0.0
 40
13.2381349295999993
100
AcDbArc
 50
101.266407685499999
 51
104.8484742026000021
  0
LINE
  5
39E
100
AcDbEntity
100
AcDbLine
  8
FORT
 62
256
370
-1
  6
ByLayer
 10
183.226033893923443
 20
101.6074628979442735
 30
0.0
 11
182.7813805311234887
 21
100.6500481325444838
 31
0.0
  0
LINE
  5
39F
100
AcDbEntity
100
AcDbLine
  8
FORT
 62
256
370
-1
  6
ByLayer
 10
184.8344215471234406
 20
101.2371926527443833
 30
0.0
 11
184.9347070905235455
 21
102.1196298413444623
 31
0.0
  0
LWPOLYLINE
  5
3A0
  8
FORT
 62
256
370
-1
  6
ByLayer
100
AcDbEntity
100
AcDbPolyline
 90
3
 70
0
 10
185.8092918521236356
 20
100.9380549245442893
 10
185.4788226701235203
 20
100.9630473919444142
 10
185.2940698177235959
 20
100.9718433541442977
  0
LINE
  5
3A1
100
AcDbEntity
100
AcDbLine
  8
FORT
 62
256
370
-1
  6
ByLayer
 10
187.5946293763234394
 20
103.8098988737444728
 30
0.0
 11
185.8092918521236356
 21
100.9380549245442893
 31
0.0
  0
LWPOLYLINE
  5
3A2
  8
FORT
 62
256
370
-1
  6
ByLayer
100
AcDbEntity
100
AcDbPolyline
 90
4
 70
0
 10
188.5198241201235874
 20
103.9956189109443443
 10
188.4294168777235541
 20
104.0139274841442187
 10
188.338645622123579
 20
104.0313994083444271
 10
188.2686264885235801
 20
104.0442605429443432
  0
LINE
  5
3A3
100
AcDbEntity
100
AcDbLine
  8
FORT
 62
256
370
-1
  6
ByLayer
 10
187.9865843241234984
 20
101.9955080445442803
 30
0.0
 11
188.5198241201235874
 21
103.9956189109443443
 31
0.0
  0
LINE
  5
3A4
100
AcDbEntity
100
AcDbLine
  8
FORT
 62
256
370
-1
  6
ByLayer
 10
190.8093680909235559
 20
103.1893483631442763
 30
0.0
 11
190.3583375629235093
 21
102.6310870845443191
 31
0.0
  0
LWPOLYLINE
  5
3A5
  8
FORT
 62
256
370
-1
  6
ByLayer
100
AcDbEntity
100
AcDbPolyline
 90
9
 70
0
 10
191.4282490313235598
 20
102.8361943529443892
 10
191.3525106425234412
 20
102.8831362521443538
 10
191.2763033943236337
 20
102.9292820619443631
 10
191.1996300199235179
 20
102.9746301273444118
 10
191.1224932695236589
 20
103.0191788217443758
 10
191.0448959099235822
 20
103.0629265473444178
 10
190.9668407245235926
 20
103.1058717349444436
 10
190.88833051292346
 20
103.1480128439443291
 10
190.8093680909235559
 20
103.1893483631442763
  0
LINE
  5
3A6
100
AcDbEntity
100
AcDbLine
  8
FORT
 62
256
370
-1
  6
ByLayer
 10
191.1542675119235923
 20
102.1716065053444567
 30
0.0
 11
191.4282490313235598
 21
102.8361943529443892
 31
0.0
  0
LWPOLYLINE
  5
3A7
  8
FORT
 62
256
370
-1
  6
ByLayer
100
AcDbEntity
100
AcDbPolyline
 90
3
 70
0
 10
181.120236846123646
 20
98.3257931923442214
 10
180.2157468095236368
 20
97.9826110861442743
 10
179.508912368523454
 20
97.6664480305444016
  0
LINE
  5
3A8
100
AcDbEntity
100
AcDbLine
  8
FORT
 62
256
370
-1
  6
ByLayer
 10
178.5071543207234868
 20
97.1477460177443248
 30
0.0
 11
178.0918906603235996
 21
96.9086535907442652
 31
0.0
  0
LINE
  5
3A9
100
AcDbEntity
100
AcDbLine
  8
FORT
 62
256
370
-1
  6
ByLayer
 10
179.5567731845235926
 20
99.4896198779444916
 30
0.0
 11
179.4232576441234528
 21
99.5850394063443076
 31
0.0
  0
LINE
  5
3AA
100
AcDbEntity
100
AcDbLine
  8
FORT
 62
256
370
-1
  6
ByLayer
 10
182.7813805311234887
 20
100.6500481325444838
 30
0.0
 11
182.4359752935236543
 21
100.884300421344264
 31
0.0
  0
LINE
  5
3AB
100
AcDbEntity
100
AcDbLine
  8
FORT
 62
256
370
-1
  6
ByLayer
 10
185.8092918521236356
 20
100.9380549245442893
 30
0.0
 11
184.8685649327235865
 21
101.5376287093442755
 31
0.0
  0
LINE
  5
3AC
100
AcDbEntity
100
AcDbLine
  8
FORT
 62
256
370
-1
  6
ByLayer
 10
188.5198241201235874
 20
103.9956189109443443
 30
0.0
 11
188.3573087573234375
 21
104.0954557269444507
 31
0.0
  0
LINE
  5
3AD
100
AcDbEntity
100
AcDbLine
  8
FORT
 62
256
370
-1
  6
ByLayer
 10
188.805475288723585
 20
104.3541767583444511
 30
0.0
 11
190.8093680909235559
 21
103.1893483631442763
 31
0.0
  0
LINE
  5
3AE
100
AcDbEntity
100
AcDbLine
  8
FORT
 62
256
370
-1
  6
ByLayer
 10
191.2409130081235276
 20
102.3817796001442133
 30
0.0
 11
191.6640389125234947
 21
102.1533719237443023
 31
0.0
  0
ARC
  5
3AF
100
AcDbEntity
  8
FORT
 62
256
370
-1
  6
ByLayer
100
AcDbCircle
 10
190.8733291299234338
 20
109.2527529631442889
 30
0.0
 40
2.5296652242
100
AcDbArc
 50
258.3611598341000217
 51
294.2338129510000044
  0
LWPOLYLINE
  5
3B0
  8
FORT
 62
256
370
-1
  6
ByLayer
100
AcDbEntity
100
AcDbPolyline
 90
14
 70
0
 10
192.8563832931236561
 20
107.6034275051442677
 10
193.0387129145236145
 20
108.5636391665443483
 10
193.0492181953234763
 20
109.6348181299442643
 10
192.7288719741234786
 20
111.4605719893443023
 10
191.9742027129234998
 20
113.4634078737442309
 10
190.8420766875236154
 20
115.4408006631444863
 10
189.4652145997236516
 20
117.1953383305444589
 10
187.8816699477236511
 20
118.6692284721443542
 10
186.1146570891235683
 20
119.7845290993443399
 10
184.3414141471235439
 20
120.4042769417444418
 10
182.7404312545234575
 20
120.4910959557443988
 10
181.3360629533236192
 20
120.0577366065442533
 10
180.1667800781236224
 20
119.07960223274425
 10
180.1099940345234813
 20
118.9765517817443055
  0
LWPOLYLINE
  5
3B1
  8
FORT
 62
256
370
-1
  6
ByLayer
100
AcDbEntity
100
AcDbPolyline
 90
17
 70
0
 10
186.4899590177236064
 20
103.7319690103442866
 10
186.927346966723519
 20
103.6491080753444152
 10
188.0493755271234591
 20
103.9194761615442388
 10
188.9047798471236206
 20
104.716412302544299
 10
189.3889574861235019
 20
105.9834581329443921
 10
189.4719084207236506
 20
107.5696811547443161
 10
189.1515621995236529
 20
109.3954350141443541
 10
188.3968929383234467
 20
111.3982708985442827
 10
187.2647669131236512
 20
113.3756636879443107
 10
185.88790482532346
 20
115.1302013553442833
 10
184.3043601731235981
 20
116.6040914971442675
 10
182.5373473145235153
 20
117.7193921241443917
 10
180.7641043725234908
 20
118.3391399665442663
 10
179.1631214799236318
 20
118.425958980744312
 10
177.758753178923655
 20
117.9925996315443939
 10
176.5894703037236582
 20
117.0144652575443018
 10
176.5326842599236556
 20
116.9114148065443572
  0
LWPOLYLINE
  5
3B2
  8
FORT
 62
256
370
-1
  6
ByLayer
100
AcDbEntity
100
AcDbPolyline
 90
17
 70
0
 10
182.9126492433236422
 20
101.6668320351443384
 10
183.350037192123466
 20
101.5839711001442396
 10
184.4720657525236334
 20
101.8543391863442906
 10
185.3274700727236564
 20
102.6512753273443508
 10
185.8116477117235377
 20
103.9183211577444439
 10
185.8945986461235975
 20
105.5045441795443679
 10
185.5742524249235998
 20
107.3302980389444059
 10
184.8195831639234825
 20
109.3331339233443344
 10
183.6874571385235981
 20
111.310526712944224
 10
182.3105950507236344
 20
113.0650643801443351
 10
180.7270503987236339
 20
114.5389545219443193
 10
178.9600375399234622
 20
115.6542551489444435
 10
177.1867945979234378
 20
116.274002991344318
 10
175.5858117053235787
 20
116.3608220055443638
 10
174.181443404323602
 20
115.9274626563444457
 10
173.0121605291236051
 20
114.9493282825444425
 10
172.9553744853236026
 20
114.846277831344409
  0
LWPOLYLINE
  5
3B3
  8
FORT
 62
256
370
-1
  6
ByLayer
100
AcDbEntity
100
AcDbPolyline
 90
17
 70
0
 10
179.3353394687235891
 20
99.601695060144479
 10
179.7727274175236403
 20
99.5188341249442914
 10
180.8947559781234418
 20
99.7892022111443424
 10
181.7501602981236033
 20
100.5861383521444026
 10
182.2343379371234846
 20
101.8531841827443571
 10
182.3172888715235445
 20
103.4394072043444197
 10
181.9969426503235468
 20
105.2651610637442303
 10
181.2422733893236568
 20
107.2679969481443862
 10
180.1101473639235451
 20
109.2453897377442757
 10
178.7332852761235813
 20
110.9999274049443869
 10
177.1497406241235808
 20
112.473817546744371
 10
175.3827277653236365
 20
113.5891181737442679
 10
173.6094848233236121
 20
114.2088660161443698
 10
172.0085019309236145
 20
114.2956850303444156
 10
170.6041336297235489
 20
113.8623256811442701
 10
169.434850754523552
 20
112.8841913073442669
 10
169.3780647107235495
 20
112.7811408561444608
  0
LWPOLYLINE
  5
3B4
  8
FORT
 62
256
370
-1
  6
ByLayer
100
AcDbEntity
100
AcDbPolyline
 90
15
 70
0
 10
177.7428365871235769
 20
98.1203795435442174
 10
178.1728505235235502
 20
98.5210013769444544
 10
178.6570281625236589
 20
99.7880472075444089
 10
178.7399790969234914
 20
101.3742702291444715
 10
178.4196328757234937
 20
103.2000240887443709
 10
177.6649636147236038
 20
105.202859972944438
 10
176.532837589323492
 20
107.1802527625443275
 10
175.1559755015235282
 20
108.9347904297444387
 10
173.5724308495235277
 20
110.4086805715444228
 10
171.8054179909234449
 20
111.5239811985443197
 10
170.0321750489236479
 20
112.1437290409444216
 10
168.4311921563235614
 20
112.23054805514424
 10
167.0268238551234958
 20
111.7971887059443219
 10
165.857540979923499
 20
110.8190543321443187
 10
165.8007549361234965
 20
110.7160038811443741
  0
LWPOLYLINE
  5
3B5
  8
FORT
 62
256
370
-1
  6
ByLayer
100
AcDbEntity
100
AcDbPolyline
 90
10
 70
0
 10
174.6177999663235028
 20
101.7307547535444741
 10
174.0876538401235507
 20
103.1377229979443513
 10
172.955527814723439
 20
105.1151157873443793
 10
171.5786657269234752
 20
106.8696534545444905
 10
169.9951210749234747
 20
108.3435435963444746
 10
168.2281082163236192
 20
109.4588442233443715
 10
166.4548652743235948
 20
110.078592065744246
 10
164.8538823817235084
 20
110.1654110799442918
 10
163.4495140805234428
 20
109.7320517307443737
 10
162.6480757311235834
 20
109.0616285041444229
  0
LINE
  5
3B6
100
AcDbEntity
100
AcDbLine
  8
FORT
 62
256
370
-1
  6
ByLayer
 10
192.8563832931236561
 20
107.6034275051442677
 30
0.0
 11
191.9116586741236574
 21
106.946006790744363
 31
0.0
  0
LWPOLYLINE
  5
3B7
  8
FORT
 62
256
370
-1
  6
ByLayer
100
AcDbEntity
100
AcDbPolyline
 90
12
 70
0
 10
188.4573067041235959
 20
119.5117929529444467
 10
189.3641870395236424
 20
118.6654383195443501
 10
190.217042731923641
 20
117.6924833813443314
 10
190.9954285329236541
 20
116.6162524891444576
 10
191.680684438723631
 20
115.4625457961444539
 10
192.2563830193235503
 20
114.259020758944402
 10
192.7087232291235637
 20
113.0345291147443589
 10
193.026861255123606
 20
111.8184252259443241
 10
193.2031704717235812
 20
110.6398623785444073
 10
193.2334242723234752
 20
109.5270938983444324
 10
193.1168973917236258
 20
108.5067958431443316
 10
192.8563832931236561
 20
107.6034275051442677
  0
LWPOLYLINE
  5
3B8
  8
FORT
 62
256
370
-1
  6
ByLayer
100
AcDbEntity
100
AcDbPolyline
 90
6
 70
0
 10
188.4573067041235959
 20
119.5117929529444467
 10
187.0763223115234837
 20
120.3396866153443483
 10
185.3030793695234593
 20
120.9594344577444502
 10
183.7020964769236002
 20
121.0462534719442687
 10
182.2977281757235346
 20
120.6128941227443505
 10
182.2151764955236217
 20
120.5438375771443447
  0
LWPOLYLINE
  5
3B9
  8
FORT
 62
256
370
-1
  6
ByLayer
100
AcDbEntity
100
AcDbPolyline
 90
14
 70
0
 10
189.0714325209235653
 20
104.53089757994438
 10
189.8664450695235359
 20
105.2715698185443074
 10
190.3506227087235061
 20
106.538615649144262
 10
190.4335736431235659
 20
108.1248386707443245
 10
190.1132274219235683
 20
109.9505925301443625
 10
189.3585581609234509
 20
111.9534284145442911
 10
188.2264321355235666
 20
113.9308212041444079
 10
186.8495700477236028
 20
115.6853588713442917
 10
185.2660253957236023
 20
117.1592490131442759
 10
183.499012536923658
 20
118.2745496401444001
 10
181.7257695949236336
 20
118.8942974825442747
 10
180.1247867023235472
 20
118.9811164967443204
 10
178.7204184013235704
 20
118.5477571475444023
 10
178.6378667209235687
 20
118.4787006019443965
  0
LWPOLYLINE
  5
3BA
  8
FORT
 62
256
370
-1
  6
ByLayer
100
AcDbEntity
100
AcDbPolyline
 90
14
 70
0
 10
185.4941227463235123
 20
102.4657606047444318
 10
186.2891352951235717
 20
103.2064328433443592
 10
186.773312934123453
 20
104.4734786739443138
 10
186.8562638685235129
 20
106.0597016955443763
 10
186.5359176473235152
 20
107.8854555551442758
 10
185.7812483863236253
 20
109.8882914393443428
 10
184.6491223609235135
 20
111.8656842289444597
 10
183.2722602731235497
 20
113.6202218961443435
 10
181.6887156211235492
 20
115.0941120379443277
 10
179.9217027623236049
 20
116.2094126649444519
 10
178.1484598203235805
 20
116.8291605073443264
 10
176.5474769279235829
 20
116.9159795215443722
 10
175.1431086267235173
 20
116.4826201723444541
 10
175.0605569463235156
 20
116.4135636267444482
  0
LWPOLYLINE
  5
3BB
  8
FORT
 62
256
370
-1
  6
ByLayer
100
AcDbEntity
100
AcDbPolyline
 90
14
 70
0
 10
181.9168129717234592
 20
100.4006236295442562
 10
182.7118255205235187
 20
101.141295868144411
 10
183.1960031595236273
 20
102.4083416987443655
 10
183.2789540939234598
 20
103.9945647203444281
 10
182.9586078727234622
 20
105.8203185799443276
 10
182.2039386117235722
 20
107.8231544643442561
 10
181.0718125863234604
 20
109.8005472537442841
 10
179.6949504985234967
 20
111.5550849209443953
 10
178.1114058465234962
 20
113.0289750627443794
 10
176.3443929877235519
 20
114.1442756897442763
 10
174.5711500459236163
 20
114.7640235321443782
 10
172.9701671533235299
 20
114.850842546344424
 10
171.5657988521234643
 20
114.4174831971442785
 10
171.4832471717234625
 20
114.3484266515442727
  0
LWPOLYLINE
  5
3BC
  8
FORT
 62
256
370
-1
  6
ByLayer
100
AcDbEntity
100
AcDbPolyline
 90
14
 70
0
 10
178.3395031971236335
 20
98.3354866545443969
 10
179.1345157459234656
 20
99.0761588929442354
 10
179.6186933849235743
 20
100.3432047235444173
 10
179.7016443193236341
 20
101.9294277451442525
 10
179.3812980981236365
 20
103.7551816047443793
 10
178.6266288371235191
 20
105.7580174891443079
 10
177.4945028117236347
 20
107.7354102785443359
 10
176.1176407239234436
 20
109.4899479457442197
 10
174.5340960719234431
 20
110.9638380875444312
 10
172.7670832133235876
 20
112.0791387145443281
 10
170.9938402713235632
 20
112.69888655694443
 10
169.3928573787234768
 20
112.7857055711444758
 10
167.9884890775236386
 20
112.3523462219443303
 10
167.9059373973234983
 20
112.2832896763443244
  0
LWPOLYLINE
  5
3BD
  8
FORT
 62
256
370
-1
  6
ByLayer
100
AcDbEntity
100
AcDbPolyline
 90
11
 70
0
 10
175.9297318753236254
 20
100.9733925833443067
 10
175.8039883237234449
 20
101.6900446295444311
 10
175.0493190625234661
 20
103.6928805139443597
 10
173.9171930371235817
 20
105.6702733033443877
 10
172.5403309493236179
 20
107.4248109705442715
 10
170.9567862973236174
 20
108.8987011123442556
 10
169.1897734387235346
 20
110.0140017393443799
 10
167.4165304967235102
 20
110.6337495817444818
 10
165.8155476041236511
 20
110.7205685959443002
 10
164.4111793029235855
 20
110.2872092467443821
 10
164.3286276227234453
 20
110.2181527011443762
  0
LWPOLYLINE
  5
3BE
  8
FORT
 62
256
370
-1
  6
ByLayer
100
AcDbEntity
100
AcDbPolyline
 90
4
 70
0
 10
191.9102052555236355
 20
106.214403692544451
 10
191.2853777381236
 20
105.7945140455442328
 10
190.5663412191234443
 20
105.5458997499442688
 10
190.0042851529236145
 20
105.4764581535443853
  0
LWPOLYLINE
  5
3BF
  8
FORT
 62
256
370
-1
  6
ByLayer
100
AcDbEntity
100
AcDbPolyline
 90
9
 70
0
 10
182.7779483007234944
 20
120.8895964659443365
 10
182.8898514237235418
 20
120.9509432739443895
 10
183.5513849715235324
 20
121.1992551593443608
 10
184.2826306641234737
 20
121.2945024761443022
 10
185.0692660285236002
 20
121.234819671944237
 10
185.8958837077234989
 20
121.0213757183444017
 10
186.7462932345236482
 20
120.6583512143442789
 10
187.6038381453234365
 20
120.1528565045443742
 10
188.4517222203235747
 20
119.5147924119444127
  0
LINE
  5
3C0
100
AcDbEntity
100
AcDbLine
  8
FORT
 62
256
370
-1
  6
ByLayer
 10
191.9116586741236574
 20
106.946006790744363
 30
0.0
 11
191.9102052555236355
 21
106.214403692544451
 31
0.0
  0
LWPOLYLINE
  5
3C1
  8
FORT
 62
256
370
-1
  6
ByLayer
100
AcDbEntity
100
AcDbPolyline
 90
13
 70
0
 10
185.6063754255235949
 20
122.5224126895443391
 10
185.7642417253235294
 20
122.6071362273444123
 10
186.4832782441235963
 20
122.8557505229443763
 10
187.2802978347236262
 20
122.927479184144417
 10
188.1373147849236034
 20
122.8207035671443776
 10
189.0349894693236479
 20
122.537833192944376
 10
189.953064771723632
 20
122.0852513741442493
 10
190.8708232111235361
 20
121.4731711673443755
 10
191.7675544571234809
 20
120.7154049037444423
 10
192.6230226831235655
 20
119.8290524965443495
 10
193.4179232129236539
 20
118.8341155613443192
 10
194.1343181531236155
 20
117.7530460547443312
 10
194.7560411847235287
 20
116.6102396191442807
  0
LINE
  5
3C2
100
AcDbEntity
100
AcDbLine
  8
FORT
 62
256
370
-1
  6
ByLayer
 10
194.7560411847235287
 20
116.6102396191442807
 30
0.0
 11
191.9286212609236486
 21
114.9780048401444077
 31
0.0
  0
LINE
  5
3C3
100
AcDbEntity
100
AcDbLine
  8
FORT
 62
256
370
-1
  6
ByLayer
 10
194.7560411847235287
 20
116.6102396191442807
 30
0.0
 11
194.7386323803235086
 21
107.8472199161444536
 31
0.0
  0
LINE
  5
3C4
100
AcDbEntity
100
AcDbLine
  8
FORT
 62
256
370
-1
  6
ByLayer
 10
194.7386323803235086
 20
107.8472199161444536
 30
0.0
 11
191.9102052555236355
 21
106.214403692544451
 31
0.0
  0
LINE
  5
3C5
100
AcDbEntity
100
AcDbLine
  8
FORT
 62
256
370
-1
  6
ByLayer
 10
194.7386323803235086
 20
107.8472199161444536
 30
0.0
 11
194.2716711625235462
 21
107.5120538067442197
 31
0.0
  0
LWPOLYLINE
  5
3C6
  8
FORT
 62
256
370
-1
  6
ByLayer
100
AcDbEntity
100
AcDbPolyline
 90
16
 70
0
 10
128.1258735113236185
 20
80.4916998471444316
 10
129.0355132403236098
 20
78.9289500705442464
 10
129.8379554235235105
 20
77.3161875167443071
 10
130.5229510083234459
 20
75.6740109139443433
 10
131.0817510083234652
 20
74.0233946759442318
 10
131.5072182479235039
 20
72.3854210105443912
 10
131.793918521123544
 20
70.7810106503443279
 10
131.9381899989235194
 20
69.2306556461444274
 10
131.9381899989235194
 20
67.754157636944214
 10
131.793918521123544
 20
66.3703749355442909
 10
131.5072182479235039
 20
65.0969816649442095
 10
131.0817510083234652
 20
63.9502420181442943
 10
130.5229510083234459
 20
62.9448025271442333
 10
129.8379554235235105
 20
62.0935049921442754
 10
129.0355132403236098
 20
61.4072224625444818
 10
128.1258735113236185
 20
60.8947203619443229
  0
LINE
  5
3C7
100
AcDbEntity
100
AcDbLine
  8
FORT
 62
256
370
-1
  6
ByLayer
 10
128.1258735113236185
 20
80.4916998471444316
 30
0.0
 11
143.6822226975235139
 21
89.4721890771443071
 31
0.0
  0
LINE
  5
3C8
100
AcDbEntity
100
AcDbLine
  8
FORT
 62
256
370
-1
  6
ByLayer
 10
113.571490925923456
 20
83.9945211993442484
 30
0.0
 11
112.1572773635235194
 21
84.8109293111444771
 31
0.0
  0
LINE
  5
3C9
100
AcDbEntity
100
AcDbLine
  8
FORT
 62
256
370
-1
  6
ByLayer
 10
113.571490925923456
 20
79.0952763279444611
 30
0.0
 11
113.571490925923456
 21
83.9945211993442484
 31
0.0
  0
LWPOLYLINE
  5
3CA
  8
FORT
 62
256
370
-1
  6
ByLayer
100
AcDbEntity
100
AcDbPolyline
 90
7
 70
0
 10
113.1592439643234798
 20
69.5347716907442503
 10
112.2496042353234884
 20
71.0975214673442082
 10
111.4471620521235877
 20
72.7102840211443748
 10
110.7621664671235635
 20
74.3524606239443386
 10
110.2033664673236331
 20
76.0030768617443613
 10
109.7778992277235943
 20
77.6410505273442908
 10
109.6879889139234479
 20
78.071541872144266
  0
LWPOLYLINE
  5
3CB
  8
FORT
 62
256
370
-1
  6
ByLayer
100
AcDbEntity
100
AcDbPolyline
 90
7
 70
0
 10
109.4309871551236597
 20
83.2370754743444508
 10
109.4911989543234654
 20
83.656096602344391
 10
109.7778992277235943
 20
84.9294898729442451
 10
110.2033664673236331
 20
86.0762295197443876
 10
110.7621664671235635
 20
87.0816690107442213
 10
111.4471620521235877
 20
87.9329665455443177
 10
112.1584937247235416
 20
88.554030359944349
  0
LINE
  5
3CC
100
AcDbEntity
100
AcDbLine
  8
FORT
 62
256
370
-1
  6
ByLayer
 10
113.1592439643234798
 20
89.131751175944359
 30
0.0
 11
128.1258735113236185
 21
80.4916998471444316
 31
0.0
  0
LINE
  5
3CD
100
AcDbEntity
100
AcDbLine
  8
FORT
 62
256
370
-1
  6
ByLayer
 10
128.1258735113236185
 20
60.8947203619443229
 30
0.0
 11
113.1592439643234798
 21
69.5347716907442503
 31
0.0
  0
LWPOLYLINE
  5
3CE
  8
FORT
 62
256
370
-1
  6
ByLayer
100
AcDbEntity
100
AcDbPolyline
 90
15
 70
0
 10
120.6425587377235047
 20
80.5657132897442665
 10
121.4551697951235951
 20
80.0167355771443312
 10
122.244403511723533
 20
79.3238162849443
 10
122.9875550709235199
 20
78.5068894395442243
 10
123.6632453549235038
 20
77.5894565389444182
 10
124.2520359847235909
 20
76.597910457344355
 10
124.7369885259234366
 20
75.5607761701444218
 10
125.1041517769236293
 20
74.5078901425442695
 10
125.3429631191234535
 20
73.4695419883444032
 10
125.4465523855236029
 20
72.4756030937444251
 10
125.411939501123527
 20
71.5546672711443392
 10
125.2401202159235822
 20
70.7332281669443859
 10
124.9360374577234438
 20
70.0349170889444252
 10
124.5084391337234706
 20
69.4798231753443218
 10
124.0422824287234675
 20
69.1241035047444115
  0
LWPOLYLINE
  5
3CF
  8
FORT
 62
256
370
-1
  6
ByLayer
100
AcDbEntity
100
AcDbPolyline
 90
6
 70
0
 10
117.2428350467235418
 20
80.9023680331442705
 10
117.6218721207235944
 20
81.0770670713443309
 10
118.2975624047235783
 20
81.2143645755443089
 10
119.0407139637234764
 20
81.173266894544426
 10
119.8299476805235031
 20
80.9549563333443842
 10
120.6425587377235047
 20
80.5657132897442665
  0
LINE
  5
3D0
100
AcDbEntity
100
AcDbLine
  8
FORT
 62
256
370
-1
  6
ByLayer
 10
129.12784011192349
 20
70.1147870979443582
 30
0.0
 11
127.7136265497236423
 21
70.9311952097443594
 31
0.0
  0
LINE
  5
3D1
100
AcDbEntity
100
AcDbLine
  8
FORT
 62
256
370
-1
  6
ByLayer
 10
129.12784011192349
 20
65.2155422267444322
 30
0.0
 11
129.12784011192349
 21
70.1147870979443582
 31
0.0
  0
LINE
  5
3D2
100
AcDbEntity
100
AcDbLine
  8
FORT
 62
256
370
-1
  6
ByLayer
 10
128.7155931503235138
 20
98.1122404059444619
 30
0.0
 11
113.1592439643234798
 21
89.131751175944359
 31
0.0
  0
LWPOLYLINE
  5
3D3
  8
FORT
 62
256
370
-1
  6
ByLayer
100
AcDbEntity
100
AcDbPolyline
 90
38
 70
0
 10
117.814131613123493
 20
78.9328970661442639
 10
118.6267426703234946
 20
78.3839193535443286
 10
119.4159763871235214
 20
77.6910000613442975
 10
120.1591279461236468
 20
76.8740732159442217
 10
120.8348182301236307
 20
75.9566403153444156
 10
121.4236088599234904
 20
74.9650942337443524
 10
121.9085614011235634
 20
73.9279599465444193
 10
122.2757246521235288
 20
72.8750739189442669
 10
122.5145359945234418
 20
71.8367257647444006
 10
122.6181252607235024
 20
70.8427868701444226
 10
122.5835123765235153
 20
69.9218510473444752
 10
122.4116930911234817
 20
69.1004119433443833
 10
122.1076103329235707
 20
68.4021008653444227
 10
121.6800120089235975
 20
67.8470069517443193
 10
121.141199344723475
 20
67.4510992437442241
 10
120.5066729993234844
 20
67.2257672855443928
 10
119.7946871405236493
 20
67.1774934669444832
 10
119.0257243053236493
 20
67.3076665379444279
 10
118.2219061541234737
 20
67.6125416565443942
 10
117.4063570719236509
 20
68.0833481201443504
 10
116.6025389207234753
 20
68.7065416845443764
 10
115.8335760855234753
 20
69.4641942051443806
 10
115.1215902267236402
 20
70.3345093985442276
 10
114.4870638813236496
 20
71.2924498813442682
 10
113.9482512171235271
 20
72.3104574497444759
 10
113.5206528931235539
 20
73.3592458795444458
 10
113.2165701349236429
 20
74.4086434371442778
 10
113.0447508495236093
 20
75.4284608653444906
 10
113.0101379653236222
 20
76.3893598737442829
 10
113.1137272315234554
 20
77.2636971473443595
 10
113.3525385739235958
 20
78.0263195943443719
 10
113.7197018249235612
 20
78.6552879559442175
 10
114.2046543661236342
 20
79.1325079571442842
 10
114.7934449959234939
 20
79.4442508477443283
 10
115.4691352799234778
 20
79.5815483519443063
 10
116.2122868389236032
 20
79.5404506707443346
 10
117.00152055572363
 20
79.3221401097443817
 10
117.814131613123493
 20
78.9328970661442639
  0
LINE
  5
3D4
100
AcDbEntity
100
AcDbLine
  8
FORT
 62
256
370
-1
  6
ByLayer
 10
126.2994129873234783
 20
68.4819708743443556
 30
0.0
 11
129.12784011192349
 21
70.1147870979443582
 31
0.0
  0
LINE
  5
3D5
100
AcDbEntity
100
AcDbLine
  8
FORT
 62
256
370
-1
  6
ByLayer
 10
126.2994129873234783
 20
68.4819708743443556
 30
0.0
 11
124.8851994249235418
 21
69.2983789861443569
 31
0.0
  0
LINE
  5
3D6
100
AcDbEntity
100
AcDbLine
  8
FORT
 62
256
370
-1
  6
ByLayer
 10
124.8851994249235418
 20
69.2983789861443569
 30
0.0
 11
127.7136265497236423
 21
70.9311952097443594
 31
0.0
  0
LINE
  5
3D7
100
AcDbEntity
100
AcDbLine
  8
FORT
 62
256
370
-1
  6
ByLayer
 10
124.8851994249235418
 20
64.3991341147443421
 30
0.0
 11
126.2994129873234783
 21
63.5827260029443408
 31
0.0
  0
LINE
  5
3D8
100
AcDbEntity
100
AcDbLine
  8
FORT
 62
256
370
-1
  6
ByLayer
 10
124.8851994249235418
 20
69.2983789861443569
 30
0.0
 11
124.8851994249235418
 21
64.3991341147443421
 31
0.0
  0
LINE
  5
3D9
100
AcDbEntity
100
AcDbLine
  8
FORT
 62
256
370
-1
  6
ByLayer
 10
126.2994129873234783
 20
63.5827260029443408
 30
0.0
 11
126.2994129873234783
 21
68.4819708743443556
 31
0.0
  0
LINE
  5
3DA
100
AcDbEntity
100
AcDbLine
  8
FORT
 62
256
370
-1
  6
ByLayer
 10
126.2994129873234783
 20
63.5827260029443408
 30
0.0
 11
129.12784011192349
 21
65.2155422267444322
 31
0.0
  0
LINE
  5
3DB
100
AcDbEntity
100
AcDbLine
  8
FORT
 62
256
370
-1
  6
ByLayer
 10
110.7430638011235828
 20
82.3617049757442459
 30
0.0
 11
113.571490925923456
 21
83.9945211993442484
 31
0.0
  0
LINE
  5
3DC
100
AcDbEntity
100
AcDbLine
  8
FORT
 62
256
370
-1
  6
ByLayer
 10
110.7430638011235828
 20
82.3617049757442459
 30
0.0
 11
109.3288502387236463
 21
83.1781130875444745
 31
0.0
  0
LINE
  5
3DD
100
AcDbEntity
100
AcDbLine
  8
FORT
 62
256
370
-1
  6
ByLayer
 10
109.3288502387236463
 20
83.1781130875444745
 30
0.0
 11
112.1572773635235194
 21
84.8109293111444771
 31
0.0
  0
LINE
  5
3DE
100
AcDbEntity
100
AcDbLine
  8
FORT
 62
256
370
-1
  6
ByLayer
 10
110.7430638011235828
 20
77.4624601043444585
 30
0.0
 11
113.571490925923456
 21
79.0952763279444611
 31
0.0
  0
LINE
  5
3DF
100
AcDbEntity
100
AcDbLine
  8
FORT
 62
256
370
-1
  6
ByLayer
 10
110.7430638011235828
 20
77.4624601043444585
 30
0.0
 11
110.7430638011235828
 21
82.3617049757442459
 31
0.0
  0
LINE
  5
3E0
100
AcDbEntity
100
AcDbLine
  8
FORT
 62
256
370
-1
  6
ByLayer
 10
109.3288502387236463
 20
78.2788682161442324
 30
0.0
 11
110.7430638011235828
 21
77.4624601043444585
 31
0.0
  0
LINE
  5
3E1
100
AcDbEntity
100
AcDbLine
  8
FORT
 62
256
370
-1
  6
ByLayer
 10
109.3288502387236463
 20
83.1781130875444745
 30
0.0
 11
109.3288502387236463
 21
78.2788682161442324
 31
0.0
  0
LINE
  5
3E2
100
AcDbEntity
100
AcDbLine
  8
FORT
 62
256
370
-1
  6
ByLayer
 10
126.8650984123235617
 20
108.4152336547442559
 30
0.0
 11
126.8650984123235617
 21
101.6507989773442517
 31
0.0
  0
LINE
  5
3E3
100
AcDbEntity
100
AcDbLine
  8
FORT
 62
256
370
-1
  6
ByLayer
 10
129.6935255369235733
 20
100.8138553035444005
 30
0.0
 11
129.6935255369235733
 21
110.0480498783442584
 31
0.0
  0
LINE
  5
3E4
100
AcDbEntity
100
AcDbLine
  8
FORT
 62
256
370
-1
  6
ByLayer
 10
144.6841892981236128
 20
92.1599293181443358
 30
0.0
 11
129.6935255369235733
 21
100.8138553035444005
 31
0.0
  0
LWPOLYLINE
  5
3E5
  8
FORT
 62
256
370
-1
  6
ByLayer
100
AcDbEntity
100
AcDbPolyline
 90
20
 70
0
 10
144.6841892981236128
 20
66.0306233379444478
 10
145.7463772599235767
 20
66.4345368001443006
 10
146.7176718415235541
 20
67.0056164417444364
 10
147.5888261685234397
 20
67.7384254961443588
 10
148.3515467177235791
 20
68.6259875085442985
 10
148.9985722715235283
 20
69.6598527515443351
 10
149.5237430469235846
 20
70.830178668744324
 10
149.9220593373234465
 20
72.1258235767443097
 10
150.1897291103235261
 20
73.5344527361444165
 10
150.3242041081235243
 20
75.0426557805442229
 10
150.3242041081235243
 20
76.6360743841444076
 10
150.1897291103235261
 20
78.2995389559443851
 10
149.9220593373234465
 20
80.0172130571443034
 10
149.5237430469235846
 20
81.7727441649442284
 10
148.9985722715235283
 20
83.549419352944355
 10
148.3515467177235791
 20
85.3303243991442599
 10
147.5888261685234397
 20
87.0985048131444586
 10
146.7176718415235541
 20
88.8371272443443871
 10
145.7463772599235767
 20
90.5296397393442334
 10
144.6841892981236128
 20
92.1599293181443358
  0
LINE
  5
3E6
100
AcDbEntity
100
AcDbLine
  8
FORT
 62
256
370
-1
  6
ByLayer
 10
140.8846608631236563
 20
68.2240444151443484
 30
0.0
 11
144.6841892981236128
 21
66.0306233379444478
 31
0.0
  0
LWPOLYLINE
  5
3E7
  8
FORT
 62
256
370
-1
  6
ByLayer
100
AcDbEntity
100
AcDbPolyline
 90
16
 70
0
 10
144.1982577849235554
 20
70.1369432009444012
 10
144.5918624263236438
 20
70.3877116925443573
 10
145.3943046097236333
 20
71.0739942223442398
 10
146.0793001945235687
 20
71.9252917571443362
 10
146.6381001943234992
 20
72.9307312481443972
 10
147.0635674339235379
 20
74.0774708949443124
 10
147.3502677073234395
 20
75.3508641655443938
 10
147.4945391851236423
 20
76.7346468669443169
 10
147.4945391851236423
 20
78.2111448763443917
 10
147.3502677073234395
 20
79.7614998803444308
 10
147.0635674339235379
 20
81.3659102405442667
 10
146.6381001943234992
 20
83.0038839061444236
 10
146.0793001945235687
 20
84.6545001439442188
 10
145.3943046097236333
 20
86.29667674674441
 10
144.5918624263236438
 20
87.9094393005443493
 10
143.6822226975235139
 20
89.4721890771443071
  0
LINE
  5
3E8
100
AcDbEntity
100
AcDbLine
  8
FORT
 62
256
370
-1
  6
ByLayer
 10
143.6822226975235139
 20
89.4721890771443071
 30
0.0
 11
128.7155931503235138
 21
98.1122404059444619
 31
0.0
  0
LINE
  5
3E9
100
AcDbEntity
100
AcDbLine
  8
FORT
 62
256
370
-1
  6
ByLayer
 10
128.7155931503235138
 20
98.1122404059444619
 30
0.0
 11
124.8851994249235418
 21
100.3234796361443699
 31
0.0
  0
LWPOLYLINE
  5
3EA
  8
FORT
 62
256
370
-1
  6
ByLayer
100
AcDbEntity
100
AcDbPolyline
 90
9
 70
0
 10
126.8650984123235617
 20
101.6507989773442517
 10
126.5940238233236528
 20
101.5250476467442553
 10
126.3293470117235415
 20
101.3876187677444562
 10
126.071244277923654
 20
101.2386038811443854
 10
125.8198875429234818
 20
101.0781022449443611
 10
125.5754442345235589
 20
100.9062207691442694
 10
125.3380771757236403
 20
100.7230739429444242
 10
125.1079444757236274
 20
100.5287837599444032
 10
124.8851994249235418
 20
100.3234796361443699
  0
LWPOLYLINE
  5
3EB
  8
FORT
 62
256
370
-1
  6
ByLayer
100
AcDbEntity
100
AcDbPolyline
 90
9
 70
0
 10
144.5380486471236168
 20
121.9637260715444285
 10
144.1309825767235111
 20
122.7436731531442859
 10
143.6214475983236412
 20
123.4522236785444278
 10
143.0399850539236581
 20
124.0469073853443973
 10
142.4214475983235957
 20
124.4920791475444588
 10
141.8029101427235332
 20
124.7610555305443398
 10
141.2214475983235502
 20
124.8377141875443925
 10
140.7119126199234529
 20
124.7174602261443255
 10
140.6215938795235729
 20
124.6703081293444342
  0
LINE
  5
3EC
100
AcDbEntity
100
AcDbLine
  8
FORT
 62
256
370
-1
  6
ByLayer
 10
130.3959130235235193
 20
113.7996449533443268
 30
0.0
 11
144.5380486471236168
 21
121.9637260715444285
 31
0.0
  0
LWPOLYLINE
  5
3ED
  8
FORT
 62
256
370
-1
  6
ByLayer
100
AcDbEntity
100
AcDbPolyline
 90
9
 70
0
 10
130.3959130235235193
 20
113.7996449533443268
 10
130.5805074371235719
 20
113.3167823211444869
 10
130.715290898723481
 20
112.8354710087444204
 10
130.7973459277234838
 20
112.366129329344389
 10
130.8248963869235126
 20
111.9189165051443382
 10
130.7973459277234838
 20
111.5035127641442472
 10
130.715290898723481
 20
111.1289098047443389
 10
130.5805074371235719
 20
110.8032161647442848
 10
130.3959130235235193
 20
110.5334817057443928
  0
LWPOLYLINE
  5
3EE
  8
FORT
 62
256
370
-1
  6
ByLayer
100
AcDbEntity
100
AcDbPolyline
 90
28
 70
0
 10
111.5915919385234361
 20
106.6939045895444309
 10
111.6602084959236549
 20
107.3321992673443077
 10
111.8623590313234786
 20
107.8568603231444598
 10
112.1871455573235039
 20
108.2396031435443859
 10
112.6170587481236112
 20
108.4597939641443958
 10
113.128921872323474
 20
108.5055622407444247
 10
113.6951402565235298
 20
108.3744405937443247
 10
114.285188920923531
 20
108.0734978249442833
 10
114.8672581895235112
 20
107.618957836944432
 10
115.4099685569236158
 20
107.0353249983443078
 10
115.8840623673234518
 20
106.3540631063444692
 10
116.2639811003235195
 20
105.6118991659443367
 10
116.5292432387234953
 20
104.8488434273442493
 10
116.6655484319235825
 20
104.1060324227444056
 10
116.6655484319235825
 20
103.4235112857443113
 10
116.5292432387234953
 20
102.8380749075442822
 10
116.2639811003235195
 20
102.3812843149444092
 10
115.8840623673234518
 20
102.0777652067442745
 10
115.4099685569236158
 20
101.9438803769444206
 10
114.8672581895235112
 20
101.9868475911443824
 10
114.285188920923531
 20
102.2043504757443628
 10
113.6951402565235298
 20
102.5846633939442967
 10
113.128921872323474
 20
103.1072835779443579
 10
112.6170587481236112
 20
103.7440364383444233
 10
112.1871455573235039
 20
104.4605944635443251
 10
111.8623590313234786
 20
105.2183278249442395
 10
111.6602084959236549
 20
105.9763869209443641
 10
111.5915919385234361
 20
106.6939045895444309
  0
LINE
  5
3EF
100
AcDbEntity
100
AcDbLine
  8
FORT
 62
256
370
-1
  6
ByLayer
 10
144.6841892981236128
 20
92.1599293181443358
 30
0.0
 11
158.8263249219235718
 21
100.32401043634421
 31
0.0
  0
LINE
  5
3F0
100
AcDbEntity
100
AcDbLine
  8
FORT
 62
256
370
-1
  6
ByLayer
 10
158.8263249219235718
 20
100.32401043634421
 30
0.0
 11
161.6547520465235834
 21
101.9568266601443014
 31
0.0
  0
LINE
  5
3F1
100
AcDbEntity
100
AcDbLine
  8
FORT
 62
256
370
-1
  6
ByLayer
 10
161.6547520465235834
 20
101.9568266601443014
 30
0.0
 11
168.3050195305234524
 21
105.7959443607444285
 31
0.0
  0
ARC
  5
3F2
100
AcDbEntity
  8
FORT
 62
256
370
-1
  6
ByLayer
100
AcDbCircle
 10
191.3950423377235097
 20
132.905502940944416
 30
0.0
 40
35.6100732889999989
100
AcDbArc
 50
229.5779691424999953
 51
246.4221993278999889
  0
LWPOLYLINE
  5
3F3
  8
FORT
 62
256
370
-1
  6
ByLayer
100
AcDbEntity
100
AcDbPolyline
 90
9
 70
0
 10
177.7767866577235623
 20
87.0759938639443902
 10
178.1958809197236064
 20
88.4118666201443233
 10
178.4749305991236383
 20
89.8693736021443641
 10
178.611085827723457
 20
91.4336296361443459
 10
178.6029560843235799
 20
93.0886593443444639
 10
178.4506243959236258
 20
94.817560299744386
 10
178.1556464901235017
 20
96.6026756455444087
 10
177.7210349065235846
 20
98.4257744203443821
 10
177.1512282305234862
 20
100.2682377471444255
  0
LINE
  5
3F4
100
AcDbEntity
100
AcDbLine
  8
FORT
 62
256
370
-1
  6
ByLayer
 10
177.7767866577235623
 20
87.0759938639443902
 30
0.0
 11
172.6744226115236529
 21
84.130461797544271
 31
0.0
  0
LWPOLYLINE
  5
3F5
  8
FORT
 62
256
370
-1
  6
ByLayer
100
AcDbEntity
100
AcDbPolyline
 90
9
 70
0
 10
168.7258198585234936
 20
81.8509819483444829
 10
168.9572336677236422
 20
82.5175132365443318
 10
169.1525594259235845
 20
83.2176093267444088
 10
169.3112759567234775
 20
83.9494021915443085
 10
169.4329597657236377
 20
84.7109392297443122
 10
169.517286170523505
 20
85.5001884749442382
 10
169.5640301683236544
 20
86.3150440179444871
 10
169.5730670343235147
 20
87.1533316255442827
 10
169.5443726559236097
 20
88.012814542544433
  0
LINE
  5
3F6
100
AcDbEntity
100
AcDbLine
  8
FORT
 62
256
370
-1
  6
ByLayer
 10
168.7258198585234936
 20
81.8509819483444829
 30
0.0
 11
163.6346510339236033
 21
78.9119127457442886
 31
0.0
  0
LWPOLYLINE
  5
3F7
  8
FORT
 62
256
370
-1
  6
ByLayer
100
AcDbEntity
100
AcDbPolyline
 90
8
 70
0
 10
163.6346510339236033
 20
78.9119127457442886
 10
163.2508561903235318
 20
78.0377616729444838
 10
162.799437290323624
 20
77.237574081144416
 10
162.2827589517235651
 20
76.5155415053443306
 10
161.703527634523482
 20
75.8754460897443863
 10
161.0647774623235478
 20
75.3206407759443977
 10
160.3698543301234736
 20
74.8540317397443999
 10
160.3402308739235309
 20
74.8368288695444193
  0
LWPOLYLINE
  5
3F8
  8
FORT
 62
256
370
-1
  6
ByLayer
100
AcDbEntity
100
AcDbPolyline
 90
20
 70
0
 10
155.4322123721236153
 20
78.7687130833444229
 10
155.5740295623234601
 20
77.6239197503443705
 10
155.9942923817234828
 20
76.8628315597443219
 10
156.6937952513235928
 20
76.5403525553444837
 10
157.6517424289234555
 20
76.6879339853444293
 10
158.7650398683236403
 20
77.2660751935443244
 10
159.9010983421235892
 20
78.1793955623443111
 10
160.947289589323475
 20
79.359241684144294
 10
161.7620139787234734
 20
80.7335688717443958
 10
162.1831337723236288
 20
82.153354225944426
 10
162.1370803793234359
 20
83.4347287083444229
 10
161.6567409265235824
 20
84.452268776544301
 10
160.8092613987235495
 20
85.1109978859442293
 10
159.7045334539234887
 20
85.2984553479443406
 10
158.5282162299236575
 20
84.9498249187442838
 10
157.4576521427234752
 20
84.1225398627443468
 10
156.5735827239234936
 20
82.922526475544359
 10
155.9147170041235881
 20
81.458547149344426
 10
155.5277891797234702
 20
79.9121166219444916
 10
155.4322123721236153
 20
78.7687130833444229
  0
LINE
  5
3F9
100
AcDbEntity
100
AcDbLine
  8
FORT
 62
256
370
-1
  6
ByLayer
 10
109.1592439643234798
 20
86.8226003275442366
 30
0.0
 11
101.9347376891235513
 21
90.9932190261442742
 31
0.0
  0
ARC
  5
3FA
100
AcDbEntity
  8
FORT
 62
256
370
-1
  6
ByLayer
100
AcDbCircle
 10
121.4763335225234755
 20
63.3973988529444199
 30
0.0
 40
26.4660302901999991
100
AcDbArc
 50
117.7356209546999821
 51
138.7626303869000139
  0
LINE
  5
3FB
100
AcDbEntity
100
AcDbLine
  8
FORT
 62
256
370
-1
  6
ByLayer
 10
101.5742721193235525
 20
80.8432783439443341
 30
0.0
 11
97.449456314923566
 21
83.2244838225444568
 31
0.0
  0
LINE
  5
3FC
100
AcDbEntity
100
AcDbLine
  8
FORT
 62
256
370
-1
  6
ByLayer
 10
97.449456314923566
 20
83.2244838225444568
 30
0.0
 11
101.9347376891235513
 21
90.9932190261442742
 31
0.0
  0
LWPOLYLINE
  5
3FD
  8
FORT
 62
256
370
-1
  6
ByLayer
100
AcDbEntity
100
AcDbPolyline
 90
12
 70
0
 10
104.673962589923633
 20
64.6363230197443812
 10
103.7880862685236139
 20
66.1550924641444311
 10
103.0032797619235794
 20
67.7216808197442646
 10
102.3290207187235978
 20
69.3171693169444865
 10
101.7734517699234971
 20
70.9222901765444789
 10
101.3432821961235391
 20
72.5176592947443481
 10
101.04370690312345
 20
74.0840103339444198
 10
100.8783436861236282
 20
75.6024273907444098
 10
100.849189539723568
 20
77.0545734325444158
 10
100.9565965415236519
 20
78.422911742544315
 10
101.1992676001235054
 20
79.6909177013442189
 10
101.5742721193235525
 20
80.8432783439443341
  0
LINE
  5
3FE
100
AcDbEntity
100
AcDbLine
  8
FORT
 62
256
370
-1
  6
ByLayer
 10
109.1592439643234798
 20
86.8226003275442366
 30
0.0
 11
128.7155931503235138
 21
98.1122404059444619
 31
0.0
  0
LINE
  5
3FF
100
AcDbEntity
100
AcDbLine
  8
FORT
 62
256
370
-1
  6
ByLayer
 10
104.673962589923633
 20
64.6363230197443812
 30
0.0
 11
113.1592439643234798
 21
69.5347716907442503
 31
0.0
  0
LINE
  5
400
100
AcDbEntity
100
AcDbLine
  8
FORT
 62
256
370
-1
  6
ByLayer
 10
110.8445997667234337
 20
87.2018035815442403
 30
0.0
 11
108.0161726419235606
 21
85.5689873579442377
 31
0.0
  0
ARC
  5
401
100
AcDbEntity
  8
FORT
 62
256
370
-1
  6
ByLayer
100
AcDbCircle
 10
130.6824090651235224
 20
60.2307242421443192
 30
0.0
 40
33.9968506088000026
100
AcDbArc
 50
131.8140895793999903
 51
141.6218369290000112
  0
LWPOLYLINE
  5
402
  8
FORT
 62
256
370
-1
  6
ByLayer
100
AcDbEntity
100
AcDbPolyline
 90
9
 70
0
 10
104.031253338123463
 20
81.3376366107442976
 10
103.8087595849236209
 20
80.2251688133444389
 10
103.691422798523547
 20
79.0329408417444341
 10
103.6803469285235337
 20
77.7721696319442657
 10
103.7756361807235521
 20
76.454717000944342
 10
103.976394037523562
 20
75.0929780465444168
 10
104.2807316923236272
 20
73.6997645287444669
 10
104.6857858201236127
 20
72.2881843327443079
 10
105.1877455171234601
 20
70.8715181441443605
  0
LINE
  5
403
100
AcDbEntity
100
AcDbLine
  8
FORT
 62
256
370
-1
  6
ByLayer
 10
105.1877455171234601
 20
70.8715181441443605
 30
0.0
 11
110.8445997667234337
 21
74.1371505913443656
 31
0.0
  0
LINE
  5
404
100
AcDbEntity
100
AcDbLine
  8
FORT
 62
256
370
-1
  6
ByLayer
 10
143.8356611607235322
 20
108.9779364217442748
 30
0.0
 11
158.8263249219235718
 21
100.32401043634421
 31
0.0
  0
LINE
  5
405
100
AcDbEntity
100
AcDbLine
  8
FORT
 62
256
370
-1
  6
ByLayer
 10
143.8356611607235322
 20
108.9779364217442748
 30
0.0
 11
143.8356611607235322
 21
113.5514673287443514
 31
0.0
  0
LINE
  5
406
100
AcDbEntity
100
AcDbLine
  8
FORT
 62
256
370
-1
  6
ByLayer
 10
148.6439872727235638
 20
116.3272549089442549
 30
0.0
 11
148.6439872727235638
 21
119.5934181565444163
 31
0.0
  0
LINE
  5
407
100
AcDbEntity
100
AcDbLine
  8
FORT
 62
256
370
-1
  6
ByLayer
 10
148.6439872727235638
 20
119.5934181565444163
 30
0.0
 11
144.5380486471236168
 21
121.9637260715444285
 31
0.0
  0
LINE
  5
408
100
AcDbEntity
100
AcDbLine
  8
FORT
 62
256
370
-1
  6
ByLayer
 10
140.2355984425235533
 20
124.4474777065442908
 30
0.0
 11
135.6332224989235442
 21
127.1043727853443528
 31
0.0
  0
LWPOLYLINE
  5
409
  8
FORT
 62
256
370
-1
  6
ByLayer
100
AcDbEntity
100
AcDbPolyline
 90
10
 70
0
 10
135.6332224989235442
 20
127.1043727853443528
 10
135.7148658095234737
 20
128.1348513675443428
 10
135.9573150505235049
 20
129.0397560195442566
 10
136.3532035247235967
 20
129.7915916713443494
 10
136.8905023607235876
 20
130.3675141771443577
 10
137.552886005723451
 20
130.7500244231443958
 10
138.3202282675236461
 20
130.9275000287443618
 10
139.1692138399235432
 20
130.8945484879443484
 10
140.0740467257235764
 20
130.6521710161443934
 10
141.0072340359236591
 20
130.2077321307442617
  0
LINE
  5
40A
100
AcDbEntity
100
AcDbLine
  8
FORT
 62
256
370
-1
  6
ByLayer
 10
141.0072340359236591
 20
130.2077321307442617
 30
0.0
 11
148.0783018477234805
 21
126.1256915715443796
 31
0.0
  0
LINE
  5
40B
100
AcDbEntity
100
AcDbLine
  8
FORT
 62
256
370
-1
  6
ByLayer
 10
148.0783018477234805
 20
126.1256915715443796
 30
0.0
 11
158.8263249219235718
 21
100.32401043634421
 31
0.0
  0
LINE
  5
40C
100
AcDbEntity
100
AcDbLine
  8
FORT
 62
256
370
-1
  6
ByLayer
 10
148.0783018477234805
 20
126.1256915715443796
 30
0.0
 11
150.906728972523581
 21
127.7585077951443822
 31
0.0
  0
LINE
  5
40D
100
AcDbEntity
100
AcDbLine
  8
FORT
 62
256
370
-1
  6
ByLayer
 10
150.906728972523581
 20
127.7585077951443822
 30
0.0
 11
161.6547520465235834
 21
101.9568266601443014
 31
0.0
  0
LINE
  5
40E
100
AcDbEntity
100
AcDbLine
  8
FORT
 62
256
370
-1
  6
ByLayer
 10
134.5018516491234664
 20
111.4293370383443147
 30
0.0
 11
148.6439872727235638
 21
119.5934181565444163
 31
0.0
  0
LINE
  5
40F
100
AcDbEntity
100
AcDbLine
  8
FORT
 62
256
370
-1
  6
ByLayer
 10
134.5018516491234664
 20
111.4293370383443147
 30
0.0
 11
130.3959130235235193
 21
113.7996449533443268
 31
0.0
  0
LINE
  5
410
100
AcDbEntity
100
AcDbLine
  8
FORT
 62
256
370
-1
  6
ByLayer
 10
134.5018516491234664
 20
108.1631737907443807
 30
0.0
 11
134.5018516491234664
 21
111.4293370383443147
 31
0.0
  0
LINE
  5
411
100
AcDbEntity
100
AcDbLine
  8
FORT
 62
256
370
-1
  6
ByLayer
 10
130.3959130235235193
 20
110.5334817057443928
 30
0.0
 11
134.5018516491234664
 21
108.1631737907443807
 31
0.0
  0
LINE
  5
412
100
AcDbEntity
100
AcDbLine
  8
FORT
 62
256
370
-1
  6
ByLayer
 10
134.5018516491234664
 20
108.1631737907443807
 30
0.0
 11
148.6439872727235638
 21
116.3272549089442549
 31
0.0
  0
LINE
  5
413
100
AcDbEntity
100
AcDbLine
  8
FORT
 62
256
370
-1
  6
ByLayer
 10
104.673962589923633
 20
64.6363230197443812
 30
0.0
 11
97.449456314923566
 21
68.8069417183444187
 31
0.0
  0
LINE
  5
414
100
AcDbEntity
100
AcDbLine
  8
FORT
 62
256
370
-1
  6
ByLayer
 10
97.449456314923566
 20
68.8069417183444187
 30
0.0
 11
97.449456314923566
 21
83.2244838225444568
 31
0.0
  0
LINE
  5
415
100
AcDbEntity
100
AcDbLine
  8
FORT
 62
256
370
-1
  6
ByLayer
 10
101.9347376891235513
 20
90.9932190261442742
 30
0.0
 11
126.8650984123235617
 21
105.3852099295443026
 31
0.0
  0
ARC
  5
416
100
AcDbEntity
  8
FORT
 62
256
370
-1
  6
ByLayer
100
AcDbCircle
 10
153.0486166051235273
 20
84.5159319065444237
 30
0.0
 40
6.2333052956000001
100
AcDbArc
 50
293.0394809370999951
 51
5.9605062397999999
  0
LINE
  5
417
100
AcDbEntity
100
AcDbLine
  8
FORT
 62
256
370
-1
  6
ByLayer
 10
143.8356611607235322
 20
108.9779364217442748
 30
0.0
 11
129.6935255369235733
 21
100.8138553035444005
 31
0.0
  0
LINE
  5
418
100
AcDbEntity
100
AcDbLine
  8
FORT
 62
256
370
-1
  6
ByLayer
 10
126.0934628189234559
 20
116.2833965883444165
 30
0.0
 11
121.4910868751235853
 21
118.9402916669443897
 31
0.0
  0
LINE
  5
419
100
AcDbEntity
100
AcDbLine
  8
FORT
 62
256
370
-1
  6
ByLayer
 10
121.4910868751235853
 20
118.9402916669443897
 30
0.0
 11
135.6332224989235442
 21
127.1043727853443528
 31
0.0
  0
LINE
  5
41A
100
AcDbEntity
100
AcDbLine
  8
FORT
 62
256
370
-1
  6
ByLayer
 10
121.4910868751235853
 20
115.6741284195443171
 30
0.0
 11
123.2645759577235935
 21
114.6503149645443358
 31
0.0
  0
LINE
  5
41B
100
AcDbEntity
100
AcDbLine
  8
FORT
 62
256
370
-1
  6
ByLayer
 10
121.4910868751235853
 20
118.9402916669443897
 30
0.0
 11
121.4910868751235853
 21
115.6741284195443171
 31
0.0
  0
LINE
  5
41C
100
AcDbEntity
100
AcDbLine
  8
FORT
 62
256
370
-1
  6
ByLayer
 10
143.8356611607235322
 20
131.8405483543442642
 30
0.0
 11
147.2297737103236273
 21
129.881168885944362
 31
0.0
  0
LINE
  5
41D
100
AcDbEntity
100
AcDbLine
  8
FORT
 62
256
370
-1
  6
ByLayer
 10
147.2297737103236273
 20
129.881168885944362
 30
0.0
 11
150.0582008351235004
 21
128.2483526623443595
 31
0.0
  0
LINE
  5
41E
100
AcDbEntity
100
AcDbLine
  8
FORT
 62
256
370
-1
  6
ByLayer
 10
150.0582008351235004
 20
128.2483526623443595
 30
0.0
 11
150.906728972523581
 21
127.7585077951443822
 31
0.0
  0
LINE
  5
41F
100
AcDbEntity
100
AcDbLine
  8
FORT
 62
256
370
-1
  6
ByLayer
 10
169.8571907083235715
 20
127.8579368335442581
 30
0.0
 11
147.2297737103236273
 21
129.881168885944362
 31
0.0
  0
LINE
  5
420
100
AcDbEntity
100
AcDbLine
  8
FORT
 62
256
370
-1
  6
ByLayer
 10
169.8571907083235715
 20
127.8579368335442581
 30
0.0
 11
172.6856178331234446
 21
126.2251206099442555
 31
0.0
  0
LINE
  5
421
100
AcDbEntity
100
AcDbLine
  8
FORT
 62
256
370
-1
  6
ByLayer
 10
172.6856178331234446
 20
126.2251206099442555
 30
0.0
 11
150.0582008351235004
 21
128.2483526623443595
 31
0.0
  0
LINE
  5
422
100
AcDbEntity
100
AcDbLine
  8
FORT
 62
256
370
-1
  6
ByLayer
 10
159.3892896987236441
 20
119.8711317869442468
 30
0.0
 11
153.9912566435235135
 21
120.3537972849444344
 31
0.0
  0
LWPOLYLINE
  5
423
  8
FORT
 62
256
370
-1
  6
ByLayer
100
AcDbEntity
100
AcDbPolyline
 90
8
 70
0
 10
165.6145500213236232
 20
122.5311072783442654
 10
164.9851657757236012
 20
122.0858819555444228
 10
164.3873414845234606
 20
121.4992030259443112
 10
163.8510545537235998
 20
120.800489020944255
 10
163.4031966493235473
 20
120.0247763781444377
 10
163.0662252367235965
 20
119.2109625687444208
 10
162.8570374697235934
 20
118.3998556151443466
 10
162.7955975401235378
 20
117.9047121265443678
  0
LWPOLYLINE
  5
424
  8
FORT
 62
256
370
-1
  6
ByLayer
100
AcDbEntity
100
AcDbPolyline
 90
18
 70
0
 10
164.6066839087234825
 20
115.6313480367443702
 10
164.9851657757236012
 20
115.7173345239443591
 10
165.6145500213236232
 20
115.9987807833442588
 10
166.2439342667235564
 20
116.4440061061443288
 10
166.8417585579234697
 20
117.0306850357444404
 10
167.3780454889236466
 20
117.7293990407442692
 10
167.8259033933234718
 20
118.5051116835443139
 10
168.1628748057235612
 20
119.3189254929443308
 10
168.3720625727235642
 20
120.1300324463443161
 10
168.4429771459236349
 20
120.8977602545444228
 10
168.3720625727235642
 20
121.583611838944293
 10
168.1628748057235612
 20
122.15319573774444
 10
167.8259033933234718
 20
122.5779506355442976
 10
167.3780454889236466
 20
122.8365775483443798
 10
166.8417585579234697
 20
122.9161078427443812
 10
166.2439342667235564
 20
122.8125535377443924
 10
165.6145500213236232
 20
122.5311072783442654
 10
165.6145500213236232
 20
122.5311072783442654
  0
LINE
  5
425
100
AcDbEntity
100
AcDbLine
  8
FORT
 62
256
370
-1
  6
ByLayer
 10
172.6856178331234446
 20
116.81465809494442
 30
0.0
 11
172.6856178331234446
 21
126.2251206099442555
 31
0.0
  0
LINE
  5
426
100
AcDbEntity
100
AcDbLine
  8
FORT
 62
256
370
-1
  6
ByLayer
 10
160.9517986107235288
 20
110.0408684419444256
 30
0.0
 11
172.6856178331234446
 21
116.81465809494442
 31
0.0
  0
LINE
  5
427
100
AcDbEntity
100
AcDbLine
  8
FORT
 62
256
370
-1
  6
ByLayer
 10
103.8633435813235906
 20
75.7757632715442782
 30
0.0
 11
109.3288502387236463
 21
78.9309331051442626
 31
0.0
  0
LWPOLYLINE
  5
428
  8
FORT
 62
256
370
-1
  6
ByLayer
100
AcDbEntity
100
AcDbPolyline
 90
6
 70
0
 10
140.0359699767234929
 20
132.2168095381443891
 10
140.3813131303234627
 20
132.3828406467443983
 10
141.1486553921236577
 20
132.5603162525444532
 10
141.9976409645235549
 20
132.5273647115443509
 10
142.9024738505234495
 20
132.2849872399442575
 10
143.8356611607235322
 20
131.8405483543442642
  0
LINE
  5
429
100
AcDbEntity
100
AcDbLine
  8
FORT
 62
256
370
-1
  6
ByLayer
 10
165.0461439483236177
 20
116.6054993395443802
 30
0.0
 11
157.6976747199235547
 21
117.2625632227443333
 31
0.0
  0
LWPOLYLINE
  5
42A
  8
FORT
 62
256
370
-1
  6
ByLayer
100
AcDbEntity
100
AcDbPolyline
 90
18
 70
0
 10
157.6976747199235547
 20
117.2625632227443333
 10
157.3704439561234381
 20
116.2523220349444131
 10
157.1794782967236301
 20
115.265295637944277
 10
157.1312808479236196
 20
114.3350960317443281
 10
157.2274929161235946
 20
113.4934000485443306
 10
157.4648381147235909
 20
112.7688706353444417
 10
157.8352339377234443
 20
112.1861807723444002
 10
158.326066999523448
 20
111.7651732639444475
 10
158.920622569123509
 20
111.5201850159444206
 10
159.5986537693234482
 20
111.4595588095444185
 10
160.3370710611234813
 20
111.5853591969443954
 10
161.1107285291234916
 20
111.8933021973443687
 10
161.8932801961234986
 20
112.3729011809443676
 10
162.6580772037235079
 20
113.0078239797444297
 10
163.3790753071235144
 20
113.7764490591443831
 10
164.0317217807235579
 20
114.6526018139443153
 10
164.59379153152355
 20
115.606445913144384
 10
165.0461439483236177
 20
116.6054993395443802
  0
LINE
  5
42B
100
AcDbEntity
100
AcDbLine
  8
FORT
 62
256
370
-1
  6
ByLayer
 10
157.6976747199235547
 20
117.2625632227443333
 30
0.0
 11
154.5131450643235098
 21
119.1009530617443346
 31
0.0
  0
LINE
  5
42C
100
AcDbEntity
100
AcDbLine
  8
FORT
 62
256
370
-1
  6
ByLayer
 10
165.0461439483236177
 20
116.6054993395443802
 30
0.0
 11
159.3892896987236441
 21
119.8711317869442468
 31
0.0
  0
LINE
  5
42D
100
AcDbEntity
100
AcDbLine
  8
FORT
 62
256
370
-1
  6
ByLayer
 10
168.3050195305234524
 20
105.7959443607444285
 30
0.0
 11
157.4436004595234522
 21
112.0661081261443854
 31
0.0
  0
LINE
  5
42E
100
AcDbEntity
100
AcDbLine
  8
FORT
 62
256
370
-1
  6
ByLayer
 10
170.5955197343235454
 20
104.0527677059442198
 30
0.0
 11
177.1512282305234862
 21
100.2682377471444255
 31
0.0
  0
LINE
  5
42F
100
AcDbEntity
100
AcDbLine
  8
FORT
 62
256
370
-1
  6
ByLayer
 10
174.3289718985234344
 20
53.8770527325443567
 30
0.0
 11
172.3727997807234829
 21
89.6456307661444356
 31
0.0
  0
ARC
  5
430
100
AcDbEntity
  8
FORT
 62
256
370
-1
  6
ByLayer
100
AcDbCircle
 10
175.4603069753234763
 20
48.6511472663444096
 30
0.0
 40
5.3469624085999996
100
AcDbArc
 50
102.2152319430999938
 51
137.7793915242000082
  0
LINE
  5
431
100
AcDbEntity
100
AcDbLine
  8
FORT
 62
256
370
-1
  6
ByLayer
 10
171.5005447737235613
 20
52.2442365089443541
 30
0.0
 11
169.5443726559236097
 21
88.012814542544433
 31
0.0
  0
LINE
  5
432
100
AcDbEntity
100
AcDbLine
  8
FORT
 62
256
370
-1
  6
ByLayer
 10
171.5005447737235613
 20
52.2442365089443541
 30
0.0
 11
168.7258198585234936
 21
53.8460511069442731
 31
0.0
  0
LINE
  5
433
100
AcDbEntity
100
AcDbLine
  8
FORT
 62
256
370
-1
  6
ByLayer
 10
168.7258198585234936
 20
59.3018623339444133
 30
0.0
 11
168.7258198585234936
 21
53.8460511069442731
 31
0.0
  0
LINE
  5
434
100
AcDbEntity
100
AcDbLine
  8
FORT
 62
256
370
-1
  6
ByLayer
 10
169.663510039323512
 20
62.8895530371444096
 30
0.0
 11
169.7280864893235162
 21
59.5700016491443733
 31
0.0
  0
LINE
  5
435
100
AcDbEntity
100
AcDbLine
  8
FORT
 62
256
370
-1
  6
ByLayer
 10
168.7258198585234936
 20
63.4308700563444603
 30
0.0
 11
169.663510039323512
 21
62.8895530371444096
 31
0.0
  0
LINE
  5
436
100
AcDbEntity
100
AcDbLine
  8
FORT
 62
256
370
-1
  6
ByLayer
 10
168.7258198585234936
 20
70.7334337003444347
 30
0.0
 11
168.7258198585234936
 21
63.4308700563444603
 31
0.0
  0
LINE
  5
437
100
AcDbEntity
100
AcDbLine
  8
FORT
 62
256
370
-1
  6
ByLayer
 10
169.663510039323512
 20
74.3211244035444309
 30
0.0
 11
169.7280864893235162
 21
71.0015730155443947
 31
0.0
  0
LINE
  5
438
100
AcDbEntity
100
AcDbLine
  8
FORT
 62
256
370
-1
  6
ByLayer
 10
169.663510039323512
 20
74.3211244035444309
 30
0.0
 11
168.7258198585234936
 21
74.8624414227444817
 31
0.0
  0
LINE
  5
439
100
AcDbEntity
100
AcDbLine
  8
FORT
 62
256
370
-1
  6
ByLayer
 10
168.7258198585234936
 20
81.8509819483444829
 30
0.0
 11
168.7258198585234936
 21
74.8624414227444817
 31
0.0
  0
LINE
  5
43A
100
AcDbEntity
100
AcDbLine
  8
FORT
 62
256
370
-1
  6
ByLayer
 10
177.4882372635234447
 20
49.0416345725443392
 30
0.0
 11
178.3397514345236345
 21
47.8300826421443475
 31
0.0
  0
LINE
  5
43B
100
AcDbEntity
100
AcDbLine
  8
FORT
 62
256
370
-1
  6
ByLayer
 10
174.6655168205234645
 20
43.2593697123443093
 30
0.0
 11
178.3397514345236345
 21
47.8300826421443475
 31
0.0
  0
LWPOLYLINE
  5
43C
  8
FORT
 62
256
370
-1
  6
ByLayer
100
AcDbEntity
100
AcDbPolyline
 90
24
 70
0
 10
163.6346510339236033
 20
53.2095980255444232
 10
162.9036392559235651
 20
51.7986099051442892
 10
162.2846242609235219
 20
50.3551158691443419
 10
161.7871864675235543
 20
48.901456697744365
 10
161.4190246595235863
 20
47.4601304949444369
 10
161.1858368321234707
 20
46.0534444891443258
 10
161.0912320043235582
 20
44.7031697869444855
 10
161.1366743637234435
 20
43.4302044237444846
 10
161.3214606041236152
 20
42.2542499279443149
 10
161.6427308121236024
 20
41.1935064029444078
 10
162.0955127277234737
 20
40.2643908455442983
 10
162.6727987011234404
 20
39.4812830631442324
 10
163.3656541483235856
 20
38.8563031187443215
 10
164.1633558305234715
 20
38.399123749744362
 10
165.0535578171234761
 20
38.1168206655442958
 10
166.022482561323443
 20
38.0137630357444181
 10
167.0551341337234703
 20
38.0915458709443868
 10
168.1355303133234997
 20
38.3489653357444098
 10
169.2469499411236598
 20
38.782037380744427
 10
170.3721917121236515
 20
39.3840594029443167
 10
171.4938403977235453
 20
40.14571398154429
 10
172.5945363791234399
 20
41.0552130825442276
 10
173.6572443201235387
 20
42.0984804999443298
 10
174.6655168205234645
 20
43.2593697123443093
  0
LINE
  5
43D
100
AcDbEntity
100
AcDbLine
  8
FORT
 62
256
370
-1
  6
ByLayer
 10
163.6346510339236033
 20
78.9119127457442886
 30
0.0
 11
163.6346510339236033
 21
53.2095980255444232
 31
0.0
  0
LINE
  5
43E
100
AcDbEntity
100
AcDbLine
  8
FORT
 62
256
370
-1
  6
ByLayer
 10
168.7258198585234936
 20
74.8624414227444817
 30
0.0
 11
164.6617797553236073
 21
72.9829969117442801
 31
0.0
  0
LINE
  5
43F
100
AcDbEntity
100
AcDbLine
  8
FORT
 62
256
370
-1
  6
ByLayer
 10
164.381899163523542
 20
69.5712919265442764
 30
0.0
 11
164.6617797553236073
 21
72.9829969117442801
 31
0.0
  0
LINE
  5
440
100
AcDbEntity
100
AcDbLine
  8
FORT
 62
256
370
-1
  6
ByLayer
 10
168.7258198585234936
 20
63.4308700563444603
 30
0.0
 11
164.6617797553236073
 21
61.5514255453442587
 31
0.0
  0
LINE
  5
441
100
AcDbEntity
100
AcDbLine
  8
FORT
 62
256
370
-1
  6
ByLayer
 10
164.381899163523542
 20
58.1397205601444824
 30
0.0
 11
164.6617797553236073
 21
61.5514255453442587
 31
0.0
  0
LWPOLYLINE
  5
442
  8
FORT
 62
256
370
-1
  6
ByLayer
100
AcDbEntity
100
AcDbPolyline
 90
13
 70
0
 10
168.7258198585234936
 20
53.8460511069442731
 10
167.9899935237236264
 20
53.0555415117444085
 10
167.3215392569234723
 20
52.1598325207444162
 10
166.7414032493234686
 20
51.1869914117444154
 10
166.2677642155236413
 20
50.1675024177443305
 10
165.9154637601234867
 20
49.1333114957444508
 10
165.6955413109236019
 20
48.1168252915442594
 10
165.6148881955235197
 20
47.1498956683442287
 10
165.676031701123577
 20
46.2628216217442372
 10
165.8770558795236525
 20
45.4833998511444264
 10
166.2116615851235224
 20
44.8360537435444115
 10
166.6693638597235463
 20
44.3410680601443659
 10
166.9402934763234612
 20
44.155608140144281
  0
LINE
  5
443
100
AcDbEntity
100
AcDbLine
  8
FORT
 62
256
370
-1
  6
ByLayer
 10
163.6346510339236033
 20
53.2095980255444232
 30
0.0
 11
160.8062239091235028
 21
54.8424142491444258
 31
0.0
  0
LINE
  5
444
100
AcDbEntity
100
AcDbLine
  8
FORT
 62
256
370
-1
  6
ByLayer
 10
160.8062239091235028
 20
73.0517330995444212
 30
0.0
 11
160.8062239091235028
 21
54.8424142491444258
 31
0.0
  0
LINE
  5
445
100
AcDbEntity
100
AcDbLine
  8
FORT
 62
256
370
-1
  6
ByLayer
 10
159.0271215827236233
 20
74.0787870111443993
 30
0.0
 11
160.8062239091235028
 21
73.0517330995444212
 31
0.0
  0
LWPOLYLINE
  5
446
  8
FORT
 62
256
370
-1
  6
ByLayer
100
AcDbEntity
100
AcDbPolyline
 90
28
 70
0
 10
111.5915919385234361
 20
57.048223226944387
 10
111.6602084959236549
 20
57.6865179047442638
 10
111.8623590313234786
 20
58.2111789605444159
 10
112.1871455573235039
 20
58.593921780944342
 10
112.6170587481236112
 20
58.8141126015443518
 10
113.128921872323474
 20
58.8598808781443807
 10
113.6951402565235298
 20
58.7287592311442808
 10
114.285188920923531
 20
58.4278164623444667
 10
114.8672581895235112
 20
57.973276474344388
 10
115.4099685569236158
 20
57.3896436357442639
 10
115.8840623673234518
 20
56.7083817437444253
 10
116.2639811003235195
 20
55.9662178033442927
 10
116.5292432387234953
 20
55.2031620647444328
 10
116.6655484319235825
 20
54.4603510601443617
 10
116.6655484319235825
 20
53.7778299231442674
 10
116.5292432387234953
 20
53.1923935449442382
 10
116.2639811003235195
 20
52.7356029523443652
 10
115.8840623673234518
 20
52.4320838441442305
 10
115.4099685569236158
 20
52.2981990141442878
 10
114.8672581895235112
 20
52.341166228344477
 10
114.285188920923531
 20
52.5586691129444574
 10
113.6951402565235298
 20
52.9389820313442527
 10
113.128921872323474
 20
53.461602215344314
 10
112.6170587481236112
 20
54.0983550755442906
 10
112.1871455573235039
 20
54.8149131007444197
 10
111.8623590313234786
 20
55.572646462344423
 10
111.6602084959236549
 20
56.3307055583443201
 10
111.5915919385234361
 20
57.048223226944387
  0
LWPOLYLINE
  5
447
  8
FORT
 62
256
370
-1
  6
ByLayer
100
AcDbEntity
100
AcDbPolyline
 90
6
 70
0
 10
130.8220039369235224
 20
62.4149962205444666
 10
130.8222824791235439
 20
62.1415652691443796
 10
130.7721579559236602
 20
61.7084239155444578
 10
130.6594691851235552
 20
61.3263395935443754
 10
130.4870443757236558
 20
61.0049016711443386
 10
130.2592109619236567
 20
60.7521774427443546
  0
LINE
  5
448
100
AcDbEntity
100
AcDbLine
  8
FORT
 62
256
370
-1
  6
ByLayer
 10
164.381899163523542
 20
69.5712919265442764
 30
0.0
 11
169.7280864893235162
 21
71.0015730155443947
 31
0.0
  0
LINE
  5
449
100
AcDbEntity
100
AcDbLine
  8
FORT
 62
256
370
-1
  6
ByLayer
 10
164.6617797553236073
 20
72.9829969117442801
 30
0.0
 11
169.663510039323512
 21
74.3211244035444309
 31
0.0
  0
LWPOLYLINE
  5
44A
  8
FORT
 62
256
370
-1
  6
ByLayer
100
AcDbEntity
100
AcDbPolyline
 90
18
 70
0
 10
192.5643784879235341
 20
80.6080483799444067
 10
191.5802760533236437
 20
79.9604729465443
 10
190.6153280533235943
 20
79.1665714513444385
 10
189.6883161031235545
 20
78.2417962839442538
 10
188.8172834357235956
 20
77.2041471409443005
 10
188.0191837111236168
 20
76.0738206827443122
 10
187.3095510329235935
 20
74.8728174279442413
 10
186.702197593723497
 20
73.6245135389442424
 10
186.208944837523461
 20
72.353205830944475
 10
185.8393933681234671
 20
71.083638862344273
 10
185.6007360847234509
 20
69.8405233101443486
 10
185.4976181795234993
 20
68.6480550045443891
 10
185.5320467253234824
 20
67.5294439845442724
 10
185.7033516097235974
 20
66.5064627415442686
 10
186.0081985781235403
 20
65.5990224417443955
 10
186.4406541309236331
 20
64.8247853781442558
 10
186.9923010125235692
 20
64.1988211947443546
 10
187.5647848247236311
 20
63.7821516373444268
  0
LWPOLYLINE
  5
44B
  8
FORT
 62
256
370
-1
  6
ByLayer
100
AcDbEntity
100
AcDbPolyline
 90
7
 70
0
 10
197.563972151123437
 20
81.103128884944212
 10
197.1095732645235898
 20
81.3215908699444157
 10
196.3114735401234725
 20
81.5304510003443141
 10
195.4404408725236522
 20
81.5624272317443086
 10
194.5134289223236124
 20
81.4168971835442647
 10
193.5484809223235629
 20
81.0966934323443951
 10
192.5643784879235341
 20
80.6080483799444067
  0
LINE
  5
44C
100
AcDbEntity
100
AcDbLine
  8
FORT
 62
256
370
-1
  6
ByLayer
 10
179.4690035139236102
 20
73.607588959544259
 30
0.0
 11
179.7488841057234481
 21
73.7370217477443788
 31
0.0
  0
LINE
  5
44D
100
AcDbEntity
100
AcDbLine
  8
FORT
 62
256
370
-1
  6
ByLayer
 10
179.4690035139236102
 20
73.607588959544259
 30
0.0
 11
179.7488841057234481
 21
77.01929394474449
 31
0.0
  0
LINE
  5
44E
100
AcDbEntity
100
AcDbLine
  8
FORT
 62
256
370
-1
  6
ByLayer
 10
193.4599963819235313
 20
83.3600962137443133
 30
0.0
 11
179.7488841057234481
 21
77.01929394474449
 31
0.0
  0
LWPOLYLINE
  5
44F
  8
FORT
 62
256
370
-1
  6
ByLayer
100
AcDbEntity
100
AcDbPolyline
 90
12
 70
0
 10
201.5592936585235861
 20
78.7966788727442093
 10
201.4122516071234372
 20
79.7520853605444557
 10
201.1026813603235155
 20
80.8393309935442943
 10
200.6578565207235556
 20
81.7935653005442731
 10
200.0848235241235784
 20
82.5996723303444327
 10
199.3926597419236373
 20
83.2448826039442196
 10
198.5923296865235557
 20
83.718975395744323
 10
197.6965113245235557
 20
84.0144406381443645
 10
196.7193952447235574
 20
84.126597889744275
 10
195.6764598673235582
 20
84.0536704757443971
 10
194.5842262503236384
 20
83.7968136341444136
 10
193.4599963819235313
 20
83.3600962137443133
  0
LINE
  5
450
100
AcDbEntity
100
AcDbLine
  8
FORT
 62
256
370
-1
  6
ByLayer
 10
199.0724815227236491
 20
53.3842872503443999
 30
0.0
 11
194.6319536571234607
 21
59.7023619111443935
 31
0.0
  0
LINE
  5
451
100
AcDbEntity
100
AcDbLine
  8
FORT
 62
256
370
-1
  6
ByLayer
 10
189.223969599723489
 20
62.8243246545443839
 30
0.0
 11
197.3578387027235408
 21
51.2512878831443999
 31
0.0
  0
LINE
  5
452
100
AcDbEntity
100
AcDbLine
  8
FORT
 62
256
370
-1
  6
ByLayer
 10
185.4733847893235748
 20
58.6888606839442986
 30
0.0
 11
188.9328400645236457
 21
62.992390157944314
 31
0.0
  0
LINE
  5
453
100
AcDbEntity
100
AcDbLine
  8
FORT
 62
256
370
-1
  6
ByLayer
 10
193.8060785757234612
 20
46.8329320511443115
 30
0.0
 11
185.4733847893235748
 21
58.6888606839442986
 31
0.0
  0
LINE
  5
454
100
AcDbEntity
100
AcDbLine
  8
FORT
 62
256
370
-1
  6
ByLayer
 10
183.7587419693234665
 20
56.5558613167442985
 30
0.0
 11
192.0914357559234418
 21
44.6999326839443114
 31
0.0
  0
LINE
  5
455
100
AcDbEntity
100
AcDbLine
  8
FORT
 62
256
370
-1
  6
ByLayer
 10
180.199768682923434
 20
52.1285323829442717
 30
0.0
 11
183.7587419693234665
 21
56.5558613167442985
 31
0.0
  0
LINE
  5
456
100
AcDbEntity
100
AcDbLine
  8
FORT
 62
256
370
-1
  6
ByLayer
 10
188.5324624693235478
 20
40.2726037501442846
 30
0.0
 11
180.199768682923434
 21
52.1285323829442717
 31
0.0
  0
LINE
  5
457
100
AcDbEntity
100
AcDbLine
  8
FORT
 62
256
370
-1
  6
ByLayer
 10
178.6839366121235457
 20
49.7318971139443278
 30
0.0
 11
186.8250328089234813
 21
38.1485774845443615
 31
0.0
  0
LINE
  5
458
100
AcDbEntity
100
AcDbLine
  8
FORT
 62
256
370
-1
  6
ByLayer
 10
177.2672975977234842
 20
48.9140888183444389
 30
0.0
 11
178.6839366121235457
 21
49.7318971139443278
 31
0.0
  0
LWPOLYLINE
  5
459
  8
FORT
 62
256
370
-1
  6
ByLayer
100
AcDbEntity
100
AcDbPolyline
 90
33
 70
0
 10
177.2672975977234842
 20
52.1802520659443729
 10
176.9522282937235218
 20
52.8445572679442961
 10
176.5133977029234416
 20
53.3603945517443066
 10
175.9644387077235592
 20
53.7117387143443779
 10
175.322405483323621
 20
53.8876747607443889
 10
174.6072436847235281
 20
53.8827369929442597
 10
173.8411708081235361
 20
53.6970788093442337
 10
173.0479859731236161
 20
53.3364679397443382
 10
172.2523305701234335
 20
52.812107262744334
 10
171.4789227411236539
 20
52.1402867719443606
 10
170.7517894761236334
 20
51.3418775055442751
 10
170.0935201815235018
 20
50.4416831581443006
 10
169.524564908723562
 20
49.4676695193443123
 10
169.0625990447236404
 20
48.4500956777444429
 10
168.7219742019236151
 20
47.4205739805442903
 10
168.5132723647234911
 20
46.4110879513443564
 10
168.4429771459236349
 20
45.4529986779443647
 10
168.5132723647234911
 20
44.5760705363443179
 10
168.7219742019236151
 20
43.8075465193444273
 10
169.0625990447236404
 20
43.1713018947443601
 10
169.524564908723562
 20
42.6871024865442763
 10
170.0935201815235018
 20
42.3699906231442895
 10
170.7517894761236334
 20
42.2298178257444619
 10
171.4789227411236539
 20
42.2709387571442079
 10
172.2523305701234335
 20
42.492075938744378
 10
173.0479859731236161
 20
42.8863594359442999
 10
173.8411708081235361
 20
43.441540283744402
 10
174.6072436847235281
 20
44.1403710165443357
 10
175.322405483323621
 20
44.9611414857442782
 10
175.9644387077235592
 20
45.8783533145444693
 10
176.5133977029234416
 20
46.8635120419444178
 10
176.9522282937235218
 20
47.8860123413444256
 10
177.2672975977234842
 20
48.9140888183444389
  0
LINE
  5
45A
100
AcDbEntity
100
AcDbLine
  8
FORT
 62
256
370
-1
  6
ByLayer
 10
179.7488841057234481
 20
53.6128414635443136
 30
0.0
 11
177.2672975977234842
 21
52.1802520659443729
 31
0.0
  0
LINE
  5
45B
100
AcDbEntity
100
AcDbLine
  8
FORT
 62
256
370
-1
  6
ByLayer
 10
179.7488841057234481
 20
62.3054503813443574
 30
0.0
 11
179.7488841057234481
 21
53.6128414635443136
 31
0.0
  0
LINE
  5
45C
100
AcDbEntity
100
AcDbLine
  8
FORT
 62
256
370
-1
  6
ByLayer
 10
179.4690035139236102
 20
62.1760175931442376
 30
0.0
 11
179.7488841057234481
 21
62.3054503813443574
 31
0.0
  0
LINE
  5
45D
100
AcDbEntity
100
AcDbLine
  8
FORT
 62
256
370
-1
  6
ByLayer
 10
179.4690035139236102
 20
62.1760175931442376
 30
0.0
 11
179.7488841057234481
 21
65.5877225783444686
 31
0.0
  0
LINE
  5
45E
100
AcDbEntity
100
AcDbLine
  8
FORT
 62
256
370
-1
  6
ByLayer
 10
179.7488841057234481
 20
73.7370217477443788
 30
0.0
 11
179.7488841057234481
 21
65.5877225783444686
 31
0.0
  0
LWPOLYLINE
  5
45F
  8
FORT
 62
256
370
-1
  6
ByLayer
100
AcDbEntity
100
AcDbPolyline
 90
19
 70
0
 10
172.9684605455234419
 20
49.3719699347443424
 10
172.5815089253235897
 20
49.069798021144365
 10
172.2412293813236488
 20
48.6464935033443311
 10
171.9886646485236383
 20
48.1531131535443677
 10
171.8542777611235692
 20
47.6491659235443734
 10
171.8542777611235692
 20
47.1954352869442886
 10
171.9886646485236383
 20
46.8466478545444573
 10
172.2412293813236488
 20
46.6448725383443019
 10
172.5815089253235897
 20
46.6144464195442509
 10
172.9684605455234419
 20
46.7590393367442942
 10
173.3554121659236102
 20
47.0612112505443605
 10
173.6956917099235511
 20
47.4845157683443944
 10
173.9482564427235616
 20
47.9778961179442689
 10
174.0826433301236307
 20
48.4818433479442632
 10
174.0826433301236307
 20
48.9355739847444369
 10
173.9482564427235616
 20
49.2843614171442681
 10
173.6956917099235511
 20
49.4861367331443347
 10
173.3554121659236102
 20
49.5165628521442471
 10
172.9684605455234419
 20
49.3719699347443424
  0
LWPOLYLINE
  5
460
  8
FORT
 62
256
370
-1
  6
ByLayer
100
AcDbEntity
100
AcDbPolyline
 90
36
 70
0
 10
212.3633683611236052
 20
65.912171566944366
 10
211.6058156143236033
 20
65.3961127941442868
 10
210.8726112359234435
 20
64.7391748139443592
 10
210.1873210183235301
 20
63.9624721529444145
 10
209.57197075272353
 20
63.090968674344353
 10
209.0463383031236049
 20
62.1526752165443526
 10
208.6273179287234711
 20
61.1777493035444735
 10
208.328377289323555
 20
60.1975258563443134
 10
208.1591245829236527
 20
59.2435100629443099
 10
208.1249997307234594
 20
58.3463647759442523
 10
208.2270995339236492
 20
57.5349249833443395
 10
208.4621424203235733
 20
56.8352710273443194
 10
208.8225739185234602
 20
56.269890361744487
 10
209.2968094633236547
 20
55.8569547867443674
 10
209.8696067343235541
 20
55.6097363911442102
 10
210.5225555559234749
 20
55.5361809777443654
 10
211.2346696157235897
 20
55.6386526779444779
 10
211.9830609819235292
 20
55.9138579669442919
 10
212.7436757401235923
 20
56.3529515205443516
 10
213.4920671063235318
 20
56.9418205103443
 10
214.2041811661236466
 20
57.6615382029442429
 10
214.8571299877235674
 20
58.488972278944388
 10
215.4299272587234668
 20
59.3975283267443359
 10
215.9041628037235228
 20
60.3580046073443413
 10
216.264594301923637
 20
61.3395306225443022
 10
216.4996371883235611
 20
62.3105593189443283
 10
216.6017369913234347
 20
63.2398810351444212
 10
216.5676121393235576
 20
64.0976266063444058
 10
216.3983594329236553
 20
64.85622738454434
 10
216.0994187935235118
 20
65.4913013161442308
 10
215.6803984191236054
 20
65.9824366027444142
 10
215.1547659693235914
 20
66.3138477519444081
 10
214.5394157037235914
 20
66.4748829367442653
 10
213.8541254861234506
 20
66.4603663539444227
 10
213.120921107923607
 20
66.2707645781442665
 10
212.3633683611236052
 20
65.912171566944366
  0
LWPOLYLINE
  5
461
  8
FORT
 62
256
370
-1
  6
ByLayer
100
AcDbEntity
100
AcDbPolyline
 90
46
 70
0
 10
212.3633683611236052
 20
69.1783348143442112
 10
211.3792659265234875
 20
68.5307593809443318
 10
210.414317926523438
 20
67.7368578859443318
 10
209.4873059763236256
 20
66.8120827183442856
 10
208.6162733089234393
 20
65.7744335753443323
 10
207.8181735843234605
 20
64.644107117144344
 10
207.1085409061234373
 20
63.4431038623442731
 10
206.5011874669235681
 20
62.1947999733442742
 10
206.0079347107235321
 20
60.9234922653442794
 10
205.638383241523627
 20
59.6539252967443048
 10
205.3997259579235219
 20
58.4108097445443804
 10
205.2966080527235704
 20
57.2183414389444209
 10
205.3310365985235535
 20
56.0997304191443931
 10
205.5023414829234412
 20
55.0767491761443893
 10
205.8071884513236114
 20
54.1693088761444272
 10
206.2396440041234769
 20
53.3950718127443764
 10
206.7912908859235017
 20
52.7691076291443864
 10
207.4513919175236083
 20
52.3036000067443041
 10
208.207098983323533
 20
52.0076095215442677
 10
209.0437031049235088
 20
51.8868972917443756
 10
209.9449207345235777
 20
51.9438128435442508
 10
210.8932106965235675
 20
52.1772483805443557
 10
211.8701156049235692
 20
52.582660345344479
 10
212.8566211173236411
 20
53.1521578555443597
 10
213.8335260257236428
 20
53.8746562897442658
 10
214.7818159875235438
 20
54.7360930377442259
 10
215.6830336173234741
 20
55.7197012129442868
 10
216.5196377389234499
 20
56.8063360013443202
 10
217.275344804723602
 20
57.9748472925443679
 10
217.9354458363234812
 20
59.2024913437444269
 10
218.4870927181235061
 20
60.4653734595442387
 10
218.9195482707235101
 20
61.7389130763442466
 10
219.2243952391234529
 20
62.9983221941442793
 10
219.395700123523568
 20
64.219087846744273
 10
219.4301286695236399
 20
65.3774492195443457
 10
219.327010764323461
 20
66.4508601259442315
 10
219.0883534807235833
 20
67.4184278437444249
 10
218.7188020113235893
 20
68.2613197679443005
 10
218.2255492551235534
 20
68.9631299657444146
 10
217.6181958161235457
 20
69.5101985001444831
 10
216.9085631377234336
 20
69.8918773043444475
 10
216.1104634133235436
 20
70.1007374347443459
 10
215.2394307459235847
 20
70.1327136663444293
 10
214.3124187955234561
 20
69.9871836179442965
 10
213.347470795523634
 20
69.6669798667444269
 10
212.3633683611236052
 20
69.1783348143442112
  0
LWPOLYLINE
  5
462
  8
FORT
 62
256
370
-1
  6
ByLayer
100
AcDbEntity
100
AcDbPolyline
 90
9
 70
0
 10
173.1188616695235964
 20
76.8940351347443851
 10
173.6016131359236283
 20
77.9953615127444522
 10
174.1148647873235973
 20
79.0892941657443629
 10
174.6576470151235867
 20
80.1737664917443311
 10
175.2289344231235759
 20
81.2467297615444153
 10
175.8276477641234692
 20
82.3061569879443908
 10
176.4526559801234384
 20
83.3500467553442235
 10
177.1027783371235387
 20
84.3764270009444175
 10
177.7767866577235623
 20
85.3833587395442777
  0
LINE
  5
463
100
AcDbEntity
100
AcDbLine
  8
FORT
 62
256
370
-1
  6
ByLayer
 10
173.1188616695235964
 20
76.8940351347443851
 30
0.0
 11
173.071381331723444
 21
76.872077511744223
 31
0.0
  0
LINE
  5
464
100
AcDbEntity
100
AcDbLine
  8
FORT
 62
256
370
-1
  6
ByLayer
 10
177.7767866577235623
 20
85.3833587395442777
 30
0.0
 11
177.7767866577235623
 21
87.0759938639443902
 31
0.0
  0
LINE
  5
465
100
AcDbEntity
100
AcDbLine
  8
FORT
 62
256
370
-1
  6
ByLayer
 10
133.0876380867235298
 20
42.1435013553443554
 30
0.0
 11
140.597424207523602
 21
44.4296640413442532
 31
0.0
  0
LINE
  5
466
100
AcDbEntity
100
AcDbLine
  8
FORT
 62
256
370
-1
  6
ByLayer
 10
133.0876380867235298
 20
42.1435013553443554
 30
0.0
 11
133.0876380867235298
 21
62.6000637873444106
 31
0.0
  0
LINE
  5
467
100
AcDbEntity
100
AcDbLine
  8
FORT
 62
256
370
-1
  6
ByLayer
 10
133.0876380867235298
 20
62.6000637873444106
 30
0.0
 11
141.8571873559235996
 21
67.6626168211443968
 31
0.0
  0
LWPOLYLINE
  5
468
  8
FORT
 62
256
370
-1
  6
ByLayer
100
AcDbEntity
100
AcDbPolyline
 90
16
 70
0
 10
141.5729194609235151
 20
58.516563527544335
 10
140.8831710127236079
 20
58.0399322103444177
 10
140.2199292105236168
 20
57.4247215399443434
 10
139.608682064923471
 20
56.6945737173443689
 10
139.0729194609235151
 20
55.8775479139442126
 10
138.6332304549235346
 20
55.0050419733442908
 10
138.3065120487236186
 20
54.1105858093444425
 10
138.1053198475236172
 20
53.2285528705444761
 10
138.03738555492356
 20
52.3928391885444711
 10
138.1053198475236172
 20
51.63556077134443
 10
138.3065120487236186
 20
50.9858194037444576
 10
138.6332304549235346
 20
50.4685842819442172
 10
139.0729194609235151
 20
50.103732461944432
 10
139.608682064923471
 20
49.905284994344342
 10
140.2199292105236168
 20
49.8808681043444579
 10
140.826526065323435
 20
50.0122880947444486
  0
LWPOLYLINE
  5
469
  8
FORT
 62
256
370
-1
  6
ByLayer
100
AcDbEntity
100
AcDbPolyline
 90
6
 70
0
 10
144.4649358305235296
 20
58.4519134467443422
 10
144.0729194609235151
 20
58.7639864743443781
 10
143.5371568569235592
 20
58.9624339419444681
 10
142.9259097113236407
 20
58.9868508321444409
 10
142.2626679091236497
 20
58.8362988175442609
 10
141.5729194609235151
 20
58.516563527544335
  0
LINE
  5
46A
100
AcDbEntity
100
AcDbLine
  8
FORT
 62
256
370
-1
  6
ByLayer
 10
173.159737821123656
 20
75.2564804199443955
 30
0.0
 11
179.7488841057234481
 21
77.01929394474449
 31
0.0
  0
LINE
  5
46B
100
AcDbEntity
100
AcDbLine
  8
FORT
 62
256
370
-1
  6
ByLayer
 10
187.8031421323235577
 20
86.6257286611444073
 30
0.0
 11
174.9152313667235035
 21
80.6656218381442471
 31
0.0
  0
LINE
  5
46C
100
AcDbEntity
100
AcDbLine
  8
FORT
 62
256
370
-1
  6
ByLayer
 10
173.3395963023236277
 20
71.9677707699442948
 30
0.0
 11
179.4690035139236102
 21
73.607588959544259
 31
0.0
  0
LINE
  5
46D
100
AcDbEntity
100
AcDbLine
  8
FORT
 62
256
370
-1
  6
ByLayer
 10
164.381899163523542
 20
58.1397205601444824
 30
0.0
 11
169.7280864893235162
 21
59.5700016491443733
 31
0.0
  0
LINE
  5
46E
100
AcDbEntity
100
AcDbLine
  8
FORT
 62
256
370
-1
  6
ByLayer
 10
164.6617797553236073
 20
61.5514255453442587
 30
0.0
 11
169.663510039323512
 21
62.8895530371444096
 31
0.0
  0
LINE
  5
46F
100
AcDbEntity
100
AcDbLine
  8
FORT
 62
256
370
-1
  6
ByLayer
 10
176.920456980923575
 20
72.9257688719442143
 30
0.0
 11
176.920456980923575
 21
67.2205388019444712
 31
0.0
  0
LINE
  5
470
100
AcDbEntity
100
AcDbLine
  8
FORT
 62
256
370
-1
  6
ByLayer
 10
176.920456980923575
 20
67.2205388019444712
 30
0.0
 11
173.6811483173235615
 21
65.7224972637443301
 31
0.0
  0
LINE
  5
471
100
AcDbEntity
100
AcDbLine
  8
FORT
 62
256
370
-1
  6
ByLayer
 10
130.2592109619236567
 20
43.7763175789443579
 30
0.0
 11
133.0876380867235298
 21
42.1435013553443554
 31
0.0
  0
LINE
  5
472
100
AcDbEntity
100
AcDbLine
  8
FORT
 62
256
370
-1
  6
ByLayer
 10
130.2592109619236567
 20
60.7521774427443546
 30
0.0
 11
130.2592109619236567
 21
43.7763175789443579
 31
0.0
  0
LINE
  5
473
100
AcDbEntity
100
AcDbLine
  8
FORT
 62
256
370
-1
  6
ByLayer
 10
133.0876380867235298
 20
62.6000637873444106
 30
0.0
 11
132.1151115939235865
 21
63.1614913813443621
 31
0.0
  0
LWPOLYLINE
  5
474
  8
FORT
 62
256
370
-1
  6
ByLayer
100
AcDbEntity
100
AcDbPolyline
 90
14
 70
0
 10
160.8062239091235028
 20
54.8424142491444258
 10
160.0752121313235534
 20
53.4314261287442918
 10
159.4561971361236488
 20
51.9879320927443445
 10
158.9587593427234538
 20
50.5342729213443675
 10
158.5905975349235746
 20
49.0929467185444395
 10
158.3574097073235976
 20
47.6862607127443283
 10
158.2628048795234577
 20
46.3359860105444881
 10
158.3082472389235704
 20
45.0630206473444872
 10
158.4930334795236035
 20
43.8870661517444063
 10
158.8143036873235019
 20
42.8263226265444104
 10
159.2670856029236006
 20
41.8972070691443008
 10
159.8443715763235673
 20
41.114099286744235
 10
160.5372270235234851
 20
40.4891193423443241
 10
160.9121264073235693
 20
40.2457116445443575
  0
LINE
  5
475
100
AcDbEntity
100
AcDbLine
  8
FORT
 62
256
370
-1
  6
ByLayer
 10
176.920456980923575
 20
67.2205388019444712
 30
0.0
 11
179.7488841057234481
 21
65.5877225783444686
 31
0.0
  0
LINE
  5
476
100
AcDbEntity
100
AcDbLine
  8
FORT
 62
256
370
-1
  6
ByLayer
 10
173.7759113967236431
 20
63.9897557675442243
 30
0.0
 11
179.7488841057234481
 21
65.5877225783444686
 31
0.0
  0
LINE
  5
477
100
AcDbEntity
100
AcDbLine
  8
FORT
 62
256
370
-1
  6
ByLayer
 10
173.9557698781234762
 20
60.701046117544351
 30
0.0
 11
179.4690035139236102
 21
62.1760175931442376
 31
0.0
  0
LINE
  5
478
100
AcDbEntity
100
AcDbLine
  8
FORT
 62
256
370
-1
  6
ByLayer
 10
176.920456980923575
 20
61.4941975055444203
 30
0.0
 11
176.920456980923575
 21
55.2456576871443161
 31
0.0
  0
LINE
  5
479
100
AcDbEntity
100
AcDbLine
  8
FORT
 62
256
370
-1
  6
ByLayer
 10
176.920456980923575
 20
55.2456576871443161
 30
0.0
 11
175.1261101437235652
 21
54.2098033067443197
 31
0.0
  0
LINE
  5
47A
100
AcDbEntity
100
AcDbLine
  8
FORT
 62
256
370
-1
  6
ByLayer
 10
179.7488841057234481
 20
53.6128414635443136
 30
0.0
 11
176.920456980923575
 21
55.2456576871443161
 31
0.0
  0
LWPOLYLINE
  5
47B
  8
FORT
 62
256
370
-1
  6
ByLayer
100
AcDbEntity
100
AcDbPolyline
 90
11
 70
0
 10
138.0972418057236268
 20
51.6793201135444491
 10
138.744492336123642
 20
51.9839716323442502
 10
139.4342407843235492
 20
52.4606029497442563
 10
140.0974825865235402
 20
53.0758136201443307
 10
140.7087297321234587
 20
53.8059614427443051
 10
141.244492336123642
 20
54.6229872461442341
 10
141.6841813421236225
 20
55.4954931867443833
 10
142.0108997483235385
 20
56.3899493507444589
 10
142.2120919495235398
 20
57.2719822893443364
 10
142.2800262421235971
 20
58.1076959713443415
 10
142.2201699913235302
 20
58.8212150463443635
  0
LWPOLYLINE
  5
47C
  8
FORT
 62
256
370
-1
  6
ByLayer
100
AcDbEntity
100
AcDbPolyline
 90
9
 70
0
 10
193.307004127323637
 20
86.7936981467444042
 10
192.8997148491235407
 20
87.0006371331444228
 10
192.2715832489234913
 20
87.2233204511444313
 10
191.6007952003236028
 20
87.3544329939443145
 10
190.8926849909235557
 20
87.3929321191442199
 10
190.1528837051235428
 20
87.3385116713443352
 10
189.3872744427235943
 20
87.1916044165443367
 10
188.6019455359235621
 20
86.9533786011443084
 10
187.8031421323235577
 20
86.6257286611444073
  0
LINE
  5
47D
100
AcDbEntity
100
AcDbLine
  8
FORT
 62
256
370
-1
  6
ByLayer
 10
181.1681785593235077
 20
41.4142099319444554
 30
0.0
 11
175.7135428341235297
 21
44.5631041099443195
 31
0.0
  0
LWPOLYLINE
  5
47E
  8
FORT
 62
256
370
-1
  6
ByLayer
100
AcDbEntity
100
AcDbPolyline
 90
11
 70
0
 10
183.9966056841236082
 20
37.3898654649444637
 10
184.8467100209234673
 20
36.9285543585444742
 10
185.6062367049235604
 20
36.5776949793444004
 10
186.256483668323483
 20
36.3459266495444666
 10
186.7814396729234545
 20
36.2389562751443322
 10
187.1681785593235077
 20
36.2594178211443108
 10
187.4071775329235265
 20
36.4068074569442928
 10
187.49255164592347
 20
36.6774959601443555
 10
187.4221987039234705
 20
37.0648180815444306
 10
187.1978510301235588
 20
37.5592366653443008
 10
186.8250328089234813
 20
38.1485774845443615
  0
LINE
  5
47F
100
AcDbEntity
100
AcDbLine
  8
FORT
 62
256
370
-1
  6
ByLayer
 10
174.3966134739235372
 20
42.9318230041442206
 30
0.0
 11
183.9966056841236082
 21
37.3898654649444637
 31
0.0
  0
LINE
  5
480
100
AcDbEntity
100
AcDbLine
  8
FORT
 62
256
370
-1
  6
ByLayer
 10
177.4429769231235809
 20
46.7145036753442895
 30
0.0
 11
181.1681785593235077
 21
41.4142099319444554
 31
0.0
  0
LWPOLYLINE
  5
481
  8
FORT
 62
256
370
-1
  6
ByLayer
100
AcDbEntity
100
AcDbPolyline
 90
5
 70
0
 10
189.2630086311235686
 20
46.332748907544314
 10
189.4845605763235312
 20
45.9715676845444108
 10
189.5889035363234711
 20
45.6870146649443853
 10
189.5720276695236066
 20
45.4900250621442268
 10
189.5521708185236207
 20
45.459445245744277
  0
LINE
  5
482
100
AcDbEntity
100
AcDbLine
  8
FORT
 62
256
370
-1
  6
ByLayer
 10
182.8619674579236403
 20
55.4402823499442405
 30
0.0
 11
189.2630086311235686
 21
46.332748907544314
 31
0.0
  0
LWPOLYLINE
  5
483
  8
FORT
 62
256
370
-1
  6
ByLayer
100
AcDbEntity
100
AcDbPolyline
 90
11
 70
0
 10
189.2630086311235686
 20
43.9412206643444136
 10
190.1131129679236551
 20
43.4799095577443353
 10
190.8726396519235209
 20
43.1290501785444889
 10
191.5228866153234435
 20
42.8972818489444165
 10
192.0478426199236424
 20
42.7903114743444206
 10
192.4345815063234681
 20
42.8107730205444881
 10
192.673580479923487
 20
42.9581626561443812
 10
192.7589545929236579
 20
43.228851159344444
 10
192.6886016509236583
 20
43.6161732809443805
 10
192.4642539771235192
 20
44.1105918645443893
 10
192.0914357559234418
 20
44.6999326839443114
  0
LINE
  5
484
100
AcDbEntity
100
AcDbLine
  8
FORT
 62
256
370
-1
  6
ByLayer
 10
188.6269116493236311
 20
44.3084316355443519
 30
0.0
 11
189.2630086311235686
 21
43.9412206643444136
 31
0.0
  0
LWPOLYLINE
  5
485
  8
FORT
 62
256
370
-1
  6
ByLayer
100
AcDbEntity
100
AcDbPolyline
 90
5
 70
0
 10
194.5294115781235291
 20
52.8841041069442639
 10
194.7509635233234917
 20
52.5229228837442719
 10
194.8553064831235702
 20
52.2383698643443353
 10
194.8384306165235671
 20
52.0413802615444041
 10
194.8185737655235812
 20
52.010800445144227
  0
LINE
  5
486
100
AcDbEntity
100
AcDbLine
  8
FORT
 62
256
370
-1
  6
ByLayer
 10
188.1283704049236007
 20
61.991637549144329
 30
0.0
 11
194.5294115781235291
 21
52.8841041069442639
 31
0.0
  0
LWPOLYLINE
  5
487
  8
FORT
 62
256
370
-1
  6
ByLayer
100
AcDbEntity
100
AcDbPolyline
 90
11
 70
0
 10
194.5294115781235291
 20
50.4925758635442747
 10
195.3795159149236156
 20
50.0312647571442852
 10
196.1390425989234814
 20
49.6804053779444388
 10
196.7892895623236313
 20
49.4486370481442776
 10
197.314245566723514
 20
49.3416666737443705
 10
197.700984453323656
 20
49.3621282197443492
 10
197.9399834269234475
 20
49.5095178555443312
 10
198.0253575399236183
 20
49.7802063587443939
 10
197.9550045979236188
 20
50.1675284801442416
 10
197.7306569241234797
 20
50.6619470637444778
 10
197.3578387027235408
 20
51.2512878831443999
  0
LINE
  5
488
100
AcDbEntity
100
AcDbLine
  8
FORT
 62
256
370
-1
  6
ByLayer
 10
193.8933145963235916
 20
50.8597868349443019
 30
0.0
 11
194.5294115781235291
 21
50.4925758635442747
 31
0.0
  0
LINE
  5
489
100
AcDbEntity
100
AcDbLine
  8
FORT
 62
256
370
-1
  6
ByLayer
 10
142.0501347787235886
 20
58.5243909083444436
 30
0.0
 11
141.8430073855234355
 21
58.6605516163442502
 31
0.0
  0
LWPOLYLINE
  5
48A
  8
FORT
 62
256
370
-1
  6
ByLayer
100
AcDbEntity
100
AcDbPolyline
 90
6
 70
0
 10
188.5324624693235478
 20
40.2726037501442846
 10
188.9052806907234867
 20
39.6832629307443625
 10
189.1296283645236258
 20
39.1888443471443537
 10
189.1999813063235365
 20
38.8015222255444172
 10
189.1146071935234545
 20
38.5308337223443544
 10
189.1107868443235134
 20
38.5259964265444381
  0
LWPOLYLINE
  5
48B
  8
FORT
 62
256
370
-1
  6
ByLayer
100
AcDbEntity
100
AcDbPolyline
 90
6
 70
0
 10
193.8060785757234612
 20
46.8329320511443115
 10
194.1788967971236275
 20
46.2435912317443893
 10
194.4032444709235392
 20
45.7491726481443806
 10
194.4735974127234499
 20
45.3618505267443055
 10
194.3882232999235953
 20
45.0911620233443813
 10
194.3844029507236542
 20
45.086324727544465
  0
LWPOLYLINE
  5
48C
  8
FORT
 62
256
370
-1
  6
ByLayer
100
AcDbEntity
100
AcDbPolyline
 90
6
 70
0
 10
199.0724815227236491
 20
53.3842872503443999
 10
199.445299744123588
 20
52.7949464311443393
 10
199.6696474179234997
 20
52.300527847344469
 10
199.7400003597236378
 20
51.913205725944394
 10
199.6546262469235558
 20
51.6425172227443312
 10
199.6508058977236146
 20
51.6376799269444149
  0
LWPOLYLINE
  5
48D
  8
FORT
 62
256
370
-1
  6
ByLayer
100
AcDbEntity
100
AcDbPolyline
 90
9
 70
0
 10
158.8522444149235184
 20
56.7343957559444192
 10
158.8156134253236473
 20
56.6755661419444863
 10
158.7792985801234522
 20
56.6165131857444379
 10
158.7433032509234749
 20
56.5572423707442198
 10
158.7076307801235657
 20
56.4977591999442978
 10
158.6722844799235759
 20
56.4380691969442836
 10
158.6372676321234962
 20
56.3781779039443194
 10
158.602583488523635
 20
56.3180908817443964
 10
158.568235269323452
 20
56.2578137095442656
  0
LINE
  5
48E
100
AcDbEntity
100
AcDbLine
  8
FORT
 62
256
370
-1
  6
ByLayer
 10
158.568235269323452
 20
56.2578137095442656
 30
0.0
 11
160.8062239091235028
 21
54.9658503679442987
 31
0.0
  0
LINE
  5
48F
100
AcDbEntity
100
AcDbLine
  8
FORT
 62
256
370
-1
  6
ByLayer
 10
158.8522444149235184
 20
56.7343957559444192
 30
0.0
 11
160.8062239091235028
 21
55.6063874041444564
 31
0.0
  0
LINE
  5
490
100
AcDbEntity
100
AcDbLine
  8
FORT
 62
256
370
-1
  6
ByLayer
 10
159.3613500906174352
 20
54.5939736212506617
 30
0.0
 11
159.1254205190393236
 21
53.9022003664338314
 31
0.0
  0
ARC
  5
491
100
AcDbEntity
  8
FORT
 62
256
370
-1
  6
ByLayer
100
AcDbCircle
 10
160.5624619303321481
 20
56.1874663495170452
 30
0.0
 40
1.9954670447142675
100
AcDbArc
 50
177.9796999451818351
 51
232.9924570007366924
  0
LINE
  5
492
100
AcDbEntity
100
AcDbLine
  8
FORT
 62
256
370
-1
  6
ByLayer
 10
160.0485626887598016
 20
53.3692817353098974
 30
0.0
 11
159.1254205190393236
 21
53.9022003664338314
 31
0.0
  0
LINE
  5
493
100
AcDbEntity
100
AcDbLine
  8
FORT
 62
256
370
-1
  6
ByLayer
 10
160.3744950078102249
 20
54.0090975099534845
 30
0.0
 11
159.3613500906174352
 21
54.5939736212506617
 31
0.0
  0
ARC
  5
494
100
AcDbEntity
  8
FORT
 62
256
370
-1
  6
ByLayer
100
AcDbCircle
 10
163.1821198852687473
 20
47.6091812965077352
 30
0.0
 40
5.5616427311201386
100
AcDbArc
 50
144.2134416973458713
 51
167.2699756966673874
  0
LINE
  5
495
100
AcDbEntity
100
AcDbLine
  8
FORT
 62
256
370
-1
  6
ByLayer
 10
157.7571867509047649
 20
48.8347302985068055
 30
0.0
 11
158.0930969519236555
 21
48.4454464983443671
 31
0.0
  0
LINE
  5
496
100
AcDbEntity
100
AcDbLine
  8
FORT
 62
256
370
-1
  6
ByLayer
 10
158.4491840586123885
 20
48.2398817871289651
 30
0.0
 11
158.0930969519236555
 21
48.4454464983443671
 31
0.0
  0
LINE
  5
497
100
AcDbEntity
100
AcDbLine
  8
FORT
 62
256
370
-1
  6
ByLayer
 10
157.141424146523434
 20
51.7441707863442701
 30
0.0
 11
159.0002305243236265
 21
50.6711047051444297
 31
0.0
  0
LINE
  5
498
100
AcDbEntity
100
AcDbLine
  8
FORT
 62
256
370
-1
  6
ByLayer
 10
158.4787416567038747
 20
48.4181855177666378
 30
0.0
 11
157.7571867509047649
 21
48.8347302985068055
 31
0.0
  0
ARC
  5
499
100
AcDbEntity
  8
FORT
 62
256
370
-1
  6
ByLayer
100
AcDbCircle
 10
160.0302465862688734
 20
50.9181077797785306
 30
0.0
 40
3.1182557267917015
100
AcDbArc
 50
106.8681685648352158
 51
155.0823975286569407
  0
LINE
  5
49A
100
AcDbEntity
100
AcDbLine
  8
FORT
 62
256
370
-1
  6
ByLayer
 10
157.2022548774642416
 20
52.2318739966532561
 30
0.0
 11
159.1415504985234861
 21
51.1123424645443123
 31
0.0
  0
LINE
  5
49B
100
AcDbEntity
100
AcDbLine
  8
FORT
 62
256
370
-1
  6
ByLayer
 10
157.1862444097235425
 20
52.2411166429444478
 30
0.0
 11
157.141424146523434
 21
51.7441707863442701
 31
0.0
  0
ARC
  5
49C
100
AcDbEntity
  8
FORT
 62
256
370
-1
  6
ByLayer
100
AcDbCircle
 10
159.7865060913395894
 20
54.0045032439766075
 30
0.0
 40
2.8853349904157963
100
AcDbArc
 50
75.7224922139901082
 51
108.8926836509098877
  0
LINE
  5
49D
100
AcDbEntity
100
AcDbLine
  8
FORT
 62
256
370
-1
  6
ByLayer
 10
160.4980833492995487
 20
56.8007177945560002
 30
0.0
 11
160.8062239091235028
 21
57.2352381485107884
 31
0.0
  0
LINE
  5
49E
100
AcDbEntity
100
AcDbLine
  8
AXE
 62
256
370
-1
  6
ByLayer
 10
110.1349404357411572
 20
69.2922199518293809
 30
0.0
 11
199.3787659003513681
 21
120.8115837716325984
 31
0.0
  0
LINE
  5
49F
100
AcDbEntity
100
AcDbLine
  8
AXE
 62
256
370
-1
  6
ByLayer
 10
220.6520117536935004
 20
56.0632649274495876
 30
0.0
 11
163.8893326061560458
 21
88.8316621046502917
 31
0.0
  0
LINE
  5
4A0
100
AcDbEntity
100
AcDbLine
  8
AXE
 62
256
370
-1
  6
ByLayer
 10
176.5607029536934931
 20
45.9246217274495834
 30
0.0
 11
141.8633527373234244
 21
65.9549756494555766
 31
0.0
  0
LINE
  5
4A1
100
AcDbEntity
100
AcDbLine
  8
AXE
 62
256
370
-1
  6
ByLayer
 10
108.8456023857411594
 20
102.1207503018293892
 30
0.0
 11
146.0836529793911325
 21
123.6178193313867411
 31
0.0
  0
LINE
  5
4A2
100
AcDbEntity
100
AcDbLine
  8
AXE
 62
256
370
-1
  6
ByLayer
 10
108.8456023857411594
 20
52.5308253018293811
 30
0.0
 11
146.0836529793911325
 21
74.0278943313867188
 31
0.0
  0
LINE
  5
4A3
100
AcDbEntity
100
AcDbLine
  8
AXE
 62
256
370
-1
  6
ByLayer
 10
169.6460548280137175
 20
117.2778947081798435
 30
0.0
 11
157.9711844635695286
 21
124.0176539098213198
 31
0.0
  0
LINE
  5
4A4
100
AcDbEntity
100
AcDbLine
  8
AXE
 62
256
370
-1
  6
ByLayer
 10
164.7985548280137493
 20
77.2860197081798361
 30
0.0
 11
153.1236844635695036
 21
84.0257789098213124
 31
0.0
  0
MTEXT
  5
4A5
100
AcDbEntity
100
AcDbMText
  8
TEXTE
 62
7
370
-1
  6
CONTINUOUS
 10
289.2472195746681791
 20
27.0
 30
0.0
 40
6.5
 41
100.0
 71
7
 72
2
  1
WEBCAM\~LOGITECH
  7
ISO9
 50
0.0
 73
1
 44
1.0
  0
MTEXT
  5
4A6
100
AcDbEntity
100
AcDbMText
  8
TEXTE
 62
7
370
-1
  6
CONTINUOUS
 10
264.7288465219548357
 20
12.6947080000000003
 30
0.0
 40
5.0
 41
100.0
 71
7
 72
2
  1
Moto-r\U+00e9ducteur\~du\~mod\U+00e8le\~"Sph\U+00e8re\~MP"
  7
ISO9
 50
0.0
 73
1
 44
1.0
  0
ENDSEC
  0
SECTION
  2
OBJECTS
  0
DICTIONARY
  5
C
100
AcDbDictionary
280
0
281
1
  3
ACAD_GROUP
350
D
  3
ACAD_LAYOUT
350
1A
  3
ACAD_MLINESTYLE
350
17
  3
ACAD_PLOTSETTINGS
350
19
  3
ACAD_PLOTSTYLENAME
350
E
  3
AcDbVariableDictionary
350
4A7
  0
DICTIONARY
  5
D
100
AcDbDictionary
280
0
281
1
  0
ACDBDICTIONARYWDFLT
  5
E
100
AcDbDictionary
281
1
  3
Normal
350
F
100
AcDbDictionaryWithDefault
340
F
  0
ACDBPLACEHOLDER
  5
F
  0
DICTIONARY
  5
17
100
AcDbDictionary
280
0
281
1
  3
Standard
350
18
  0
MLINESTYLE
  5
18
100
AcDbMlineStyle
  2
STANDARD
 70
0
  3

 62
256
 51
90.0
 52
90.0
 71
2
 49
0.5
 62
256
  6
BYLAYER
 49
-0.5
 62
256
  6
BYLAYER
  0
DICTIONARY
  5
19
100
AcDbDictionary
280
0
281
1
  0
DICTIONARY
  5
1A
100
AcDbDictionary
281
1
  3
Layout1
350
1E
  3
Layout2
350
26
  3
Model
350
22
  0
LAYOUT
  5
1E
100
AcDbPlotSettings
  1

  2
C:\Program Files\AutoCAD 2002\plotters\DWF ePlot (optimized for plotting).pc3
  4

  6

 40
0.0
 41
0.0
 42
0.0
 43
0.0
 44
0.0
 45
0.0
 46
0.0
 47
0.0
 48
0.0
 49
0.0
140
0.0
141
0.0
142
1.0
143
1.0
 70
688
 72
0
 73
0
 74
5
  7

 75
16
147
1.0
148
0.0
149
0.0
100
AcDbLayout
  1
Layout1
 70
1
 71
1
 10
0.0
 20
0.0
 11
420.0
 21
297.0
 12
0.0
 22
0.0
 32
0.0
 14
100000000000000000000.0
 24
100000000000000000000.0
 34
100000000000000000000.0
 15
-100000000000000000000.0
 25
-100000000000000000000.0
 35
-100000000000000000000.0
146
0.0
 13
0.0
 23
0.0
 33
0.0
 16
1.0
 26
0.0
 36
0.0
 17
0.0
 27
1.0
 37
0.0
 76
0
330
1B
  0
LAYOUT
  5
22
100
AcDbPlotSettings
  1

  2
C:\Program Files\AutoCAD 2002\plotters\DWF ePlot (optimized for plotting).pc3
  4

  6

 40
0.0
 41
0.0
 42
0.0
 43
0.0
 44
0.0
 45
0.0
 46
0.0
 47
0.0
 48
0.0
 49
0.0
140
0.0
141
0.0
142
1.0
143
1.0
 70
1712
 72
0
 73
0
 74
0
  7

 75
0
147
1.0
148
0.0
149
0.0
100
AcDbLayout
  1
Model
 70
1
 71
0
 10
0.0
 20
0.0
 11
12.0
 21
9.0
 12
0.0
 22
0.0
 32
0.0
 14
0.0
 24
0.0
 34
0.0
 15
0.0
 25
0.0
 35
0.0
146
0.0
 13
0.0
 23
0.0
 33
0.0
 16
1.0
 26
0.0
 36
0.0
 17
0.0
 27
1.0
 37
0.0
 76
0
330
1F
  0
LAYOUT
  5
26
100
AcDbPlotSettings
  1

  2
C:\Program Files\AutoCAD 2002\plotters\DWF ePlot (optimized for plotting).pc3
  4

  6

 40
0.0
 41
0.0
 42
0.0
 43
0.0
 44
0.0
 45
0.0
 46
0.0
 47
0.0
 48
0.0
 49
0.0
140
0.0
141
0.0
142
1.0
143
1.0
 70
688
 72
0
 73
0
 74
5
  7

 75
16
147
1.0
148
0.0
149
0.0
100
AcDbLayout
  1
Layout2
 70
1
 71
2
 10
0.0
 20
0.0
 11
12.0
 21
9.0
 12
0.0
 22
0.0
 32
0.0
 14
0.0
 24
0.0
 34
0.0
 15
0.0
 25
0.0
 35
0.0
146
0.0
 13
0.0
 23
0.0
 33
0.0
 16
1.0
 26
0.0
 36
0.0
 17
0.0
 27
1.0
 37
0.0
 76
0
330
23
  0
DICTIONARY
  5
4A7
100
AcDbDictionary
281
1
  3
DIMASSOC
350
4A9
  3
HIDETEXT
350
4A8
  0
DICTIONARYVAR
  5
4A8
100
DictionaryVariables
280
0
  1
2
  0
DICTIONARYVAR
  5
4A9
100
DictionaryVariables
280
0
  1
1
  0
ENDSEC
  0
EOF
